  0
SECTION
  2
HEADER
  9
$ACADVER
  1
AC1009
  9
$INSBASE
 10
4057.6742180992227986
 20
129.0694883830541073
 30
0.0
  9
$EXTMIN
 10
4042.2014840739338979
 20
124.1437589919687952
 30
-0.0000000349181948
  9
$EXTMAX
 10
4073.2771695024471228
 20
129.0773668807040906
 30
0.0000000814935746
  9
$LIMMIN
 10
0.0
 20
0.0
  9
$LIMMAX
 10
11.6929133858000007
 20
8.2677165353999982
  9
$ORTHOMODE
 70
     0
  9
$REGENMODE
 70
     1
  9
$FILLMODE
 70
     1
  9
$QTEXTMODE
 70
     0
  9
$MIRRTEXT
 70
     0
  9
$DRAGMODE
 70
     2
  9
$LTSCALE
 40
0.6431102362
  9
$OSMODE
 70
  4095
  9
$ATTMODE
 70
     1
  9
$TEXTSIZE
 40
0.2
  9
$TRACEWID
 40
0.05
  9
$TEXTSTYLE
  7
STANDARD
  9
$CLAYER
  8
0
  9
$CELTYPE
  6
BYLAYER
  9
$CECOLOR
 62
   256
  9
$DIMSCALE
 40
1.0
  9
$DIMASZ
 40
0.1875
  9
$DIMEXO
 40
0.0625
  9
$DIMDLI
 40
0.4443307087
  9
$DIMRND
 40
0.0
  9
$DIMDLE
 40
0.0
  9
$DIMEXE
 40
0.125
  9
$DIMTP
 40
0.01
  9
$DIMTM
 40
0.01
  9
$DIMTXT
 40
2.0
  9
$DIMCEN
 40
0.1052362205
  9
$DIMTSZ
 40
0.0
  9
$DIMTOL
 70
     1
  9
$DIMLIM
 70
     0
  9
$DIMTIH
 70
     1
  9
$DIMTOH
 70
     1
  9
$DIMSE1
 70
     0
  9
$DIMSE2
 70
     0
  9
$DIMTAD
 70
     0
  9
$DIMZIN
 70
     0
  9
$DIMBLK
  1

  9
$DIMASO
 70
     1
  9
$DIMSHO
 70
     1
  9
$DIMPOST
  1
\X
  9
$DIMAPOST
  1

  9
$DIMALT
 70
     1
  9
$DIMALTD
 70
     2
  9
$DIMALTF
 40
25.3999999999999986
  9
$DIMLFAC
 40
1.0
  9
$DIMTOFL
 70
     0
  9
$DIMTVP
 40
0.0
  9
$DIMTIX
 70
     0
  9
$DIMSOXD
 70
     0
  9
$DIMSAH
 70
     0
  9
$DIMBLK1
  1

  9
$DIMBLK2
  1

  9
$DIMSTYLE
  2
STANDARD
  9
$DIMCLRD
 70
     0
  9
$DIMCLRE
 70
     0
  9
$DIMCLRT
 70
     0
  9
$DIMTFAC
 40
1.0
  9
$DIMGAP
 40
0.09
  9
$LUNITS
 70
     2
  9
$LUPREC
 70
     4
  9
$SKETCHINC
 40
0.1
  9
$FILLETRAD
 40
0.0
  9
$AUNITS
 70
     0
  9
$AUPREC
 70
     0
  9
$MENU
  1
.
  9
$ELEVATION
 40
0.0
  9
$PELEVATION
 40
0.0
  9
$THICKNESS
 40
0.0
  9
$LIMCHECK
 70
     0
  9
$BLIPMODE
 70
     0
  9
$CHAMFERA
 40
0.0
  9
$CHAMFERB
 40
0.0
  9
$SKPOLY
 70
     0
  9
$TDCREATE
 40
2458060.468368056230247
  9
$TDUPDATE
 40
2459822.4996296297758818
  9
$TDINDWG
 40
0.3965927083
  9
$TDUSRTIMER
 40
0.3965927083
  9
$USRTIMER
 70
     1
  9
$ANGBASE
 50
0.0
  9
$ANGDIR
 70
     0
  9
$PDMODE
 70
     0
  9
$PDSIZE
 40
0.3125
  9
$PLINEWID
 40
0.0
  9
$COORDS
 70
     1
  9
$SPLFRAME
 70
     0
  9
$SPLINETYPE
 70
     6
  9
$SPLINESEGS
 70
     8
  9
$ATTDIA
 70
     1
  9
$ATTREQ
 70
     1
  9
$HANDLING
 70
     1
  9
$HANDSEED
  5
AF71
  9
$SURFTAB1
 70
     6
  9
$SURFTAB2
 70
     6
  9
$SURFTYPE
 70
     6
  9
$SURFU
 70
     6
  9
$SURFV
 70
     6
  9
$UCSNAME
  2

  9
$UCSORG
 10
0.0
 20
0.0
 30
0.0
  9
$UCSXDIR
 10
1.0
 20
0.0
 30
0.0
  9
$UCSYDIR
 10
0.0
 20
1.0
 30
0.0
  9
$PUCSNAME
  2

  9
$PUCSORG
 10
0.0
 20
0.0
 30
0.0
  9
$PUCSXDIR
 10
1.0
 20
0.0
 30
0.0
  9
$PUCSYDIR
 10
0.0
 20
1.0
 30
0.0
  9
$USERI1
 70
     0
  9
$USERI2
 70
     0
  9
$USERI3
 70
     0
  9
$USERI4
 70
     0
  9
$USERI5
 70
     0
  9
$USERR1
 40
0.0
  9
$USERR2
 40
0.0
  9
$USERR3
 40
0.0
  9
$USERR4
 40
0.0
  9
$USERR5
 40
0.0
  9
$WORLDVIEW
 70
     1
  9
$SHADEDGE
 70
     3
  9
$SHADEDIF
 70
    70
  9
$TILEMODE
 70
     1
  9
$MAXACTVP
 70
    64
  9
$PLIMCHECK
 70
     0
  9
$PEXTMIN
 10
1.0000000000000000E+20
 20
1.0000000000000000E+20
 30
1.0000000000000000E+20
  9
$PEXTMAX
 10
-1.0000000000000000E+20
 20
-1.0000000000000000E+20
 30
-1.0000000000000000E+20
  9
$PLIMMIN
 10
0.0
 20
0.0
  9
$PLIMMAX
 10
12.0
 20
9.0
  9
$UNITMODE
 70
     0
  9
$VISRETAIN
 70
     1
  9
$PLINEGEN
 70
     0
  9
$PSLTSCALE
 70
     1
  0
ENDSEC
  0
SECTION
  2
TABLES
  0
TABLE
  2
VPORT
 70
     1
  0
VPORT
  2
*ACTIVE
 70
     0
 10
0.0
 20
0.0
 11
1.0
 21
1.0
 12
188.4368365538157093
 22
-3.5607824195881781
 13
0.0
 23
0.0
 14
1.0
 24
1.0
 15
0.0
 25
0.0
 16
0.0
 26
0.0
 36
50.1863853749498219
 17
3869.302490234375
 27
130.1713453559245863
 37
0.0
 40
15.2642903522368805
 41
2.0416666666666661
 42
50.0
 43
0.0
 44
0.0
 50
0.0
 51
0.0
 71
     0
 72
   100
 73
     1
 74
     1
 75
     0
 76
     0
 77
     0
 78
     0
  0
ENDTAB
  0
TABLE
  2
LTYPE
 70
     2
  0
LTYPE
  2
CONTINUOUS
 70
     0
  3
Solid line
 72
    65
 73
     0
 40
0.0
  0
LTYPE
  2
PHANTOM2
 70
     0
  3
___ _ _ ___ _ _ ___ _ _ ___ _ _
 72
    65
 73
     6
 40
1.25
 49
0.625
 49
-0.125
 49
0.125
 49
-0.125
 49
0.125
 49
-0.125
  0
ENDTAB
  0
TABLE
  2
LAYER
 70
     2
  0
LAYER
  2
0
 70
     0
 62
   255
  6
CONTINUOUS
  0
LAYER
  2
DEFPOINTS
 70
     0
 62
     7
  6
CONTINUOUS
  0
ENDTAB
  0
TABLE
  2
STYLE
 70
     1
  0
STYLE
  2
STANDARD
 70
     0
 40
0.0
 41
0.8
 50
0.0
 71
     0
 42
0.2
  3
txt
  4

  0
ENDTAB
  0
TABLE
  2
VIEW
 70
     0
  0
ENDTAB
  0
TABLE
  2
UCS
 70
     0
  0
ENDTAB
  0
TABLE
  2
APPID
 70
     9
  0
APPID
  2
ACAD
 70
     0
  0
APPID
  2
ACAD_MLEADERVER
 70
     0
  0
APPID
  2
ACAD_EXEMPT_FROM_CAD_STANDARDS
 70
     0
  0
APPID
  2
ACAD_NAV_VCDISPLAY
 70
     0
  0
APPID
  2
ACAECLAYERSTANDARD
 70
     0
  0
APPID
  2
ACCMTRANSPARENCY
 70
     0
  0
APPID
  2
ACAD_DSTYLE_DIMJAG
 70
     0
  0
APPID
  2
ACAD_DSTYLE_DIMTALN
 70
     0
  0
APPID
  2
ACDBATTR
 70
     0
  0
ENDTAB
  0
TABLE
  2
DIMSTYLE
 70
     1
  0
DIMSTYLE
  2
STANDARD
 70
     0
  3

  4

  5

  6

  7

 40
1.0
 41
0.1875
 42
0.0625
 43
0.38
 44
0.125
 45
0.0
 46
0.0
 47
0.01
 48
0.01
140
0.15625
141
0.09
142
0.0
143
25.3999999999999986
144
1.0
145
0.0
146
1.0
147
0.09
 71
     1
 72
     0
 73
     1
 74
     1
 75
     0
 76
     0
 77
     0
 78
     4
170
     0
171
     2
172
     0
173
     0
174
     0
175
     0
176
     0
177
     0
178
     0
  0
ENDTAB
  0
ENDSEC
  0
SECTION
  2
BLOCKS
  0
BLOCK
  8
0
  2
$MODEL_SPACE
 70
     0
 10
0.0
 20
0.0
 30
0.0
  3
$MODEL_SPACE
  1

  0
ENDBLK
  5
21
  8
0
  0
BLOCK
 67
     1
  8
0
  2
$PAPER_SPACE
 70
     0
 10
0.0
 20
0.0
 30
0.0
  3
$PAPER_SPACE
  1

  0
ENDBLK
  5
1D
 67
     1
  8
0
  0
ENDSEC
  0
SECTION
  2
ENTITIES
  0
ATTDEF
  5
A4C0
  8
DEFPOINTS
 10
4057.6709323290951943
 20
129.0678958337313134
 30
0.0
 40
0.001
  1
K-26378T
  3

  2
MODELNUMBER
 70
     0
1001
ACDBATTR
1070
     0
1070
     1
  0
ATTDEF
  5
A4C1
  8
DEFPOINTS
 10
4057.6709323290951943
 20
129.0662291670647051
 30
0.0
 40
0.001
  1
VERDERA 2.0 
  3

  2
TRADENAME
 70
     0
1001
ACDBATTR
1070
     0
1070
     1
  0
ATTDEF
  5
A4C2
  8
DEFPOINTS
 10
4057.6709323290951943
 20
129.0645625003980115
 30
0.0
 40
0.001
  1
MEDICINE CABINET
  3

  2
PRODUCT
 70
     0
1001
ACDBATTR
1070
     0
1070
     1
  0
LINE
  5
AC70
  8
0
 10
4042.3198873904730135
 20
125.683661611354097
 30
0.0
 11
4042.3198873904730135
 21
124.1875986192541035
 31
0.0
  0
LINE
  5
AC71
  8
0
 10
4042.3198873904730135
 20
125.7624017688541045
 30
0.0
 11
4042.3198873904730135
 21
128.9513781467541094
 31
0.0
  0
LINE
  5
AC72
  8
0
 10
4042.3257929023729957
 20
124.2013781467540952
 30
0.0
 11
4042.3257929023729957
 21
125.6698820838541053
 31
0.0
  0
LINE
  5
AC73
  8
0
 10
4042.3592574692729613
 20
125.7624017688541045
 30
0.0
 11
4042.3592574692729613
 21
128.9513781467541094
 31
0.0
  0
LINE
  5
AC74
  8
0
 10
4042.3986275479728647
 20
128.9513781467541094
 30
0.0
 11
4042.3986275479728647
 21
125.7624017688541045
 31
0.0
  0
LINE
  5
AC75
  8
0
 10
4042.4379976267728125
 20
128.9513781467541094
 30
0.0
 11
4042.4379976267728125
 21
125.7624017688541045
 31
0.0
  0
LINE
  5
AC76
  8
0
 10
4042.7962653432728075
 20
125.7230316901541016
 30
0.0
 11
4042.7962653432728075
 21
125.7820868082541068
 31
0.0
  0
LINE
  5
AC77
  8
0
 10
4042.8710684928728369
 20
125.7230316901541016
 30
0.0
 11
4042.8710684928728369
 21
125.8017718475540931
 31
0.0
  0
LINE
  5
AC78
  8
0
 10
4042.9498086503731429
 20
125.8017718475540931
 30
0.0
 11
4042.9498086503731429
 21
125.8411419263540978
 31
0.0
  0
LINE
  5
AC79
  8
0
 10
4043.264769280272958
 20
125.8419407150540934
 30
0.0
 11
4043.264769280272958
 21
125.8017718475540931
 31
0.0
  0
LINE
  5
AC7A
  8
0
 10
4043.5954779416729252
 20
127.2719392611541025
 30
0.0
 11
4043.5954779416729252
 21
127.156230599754096
 31
0.0
  0
LINE
  5
AC7B
  8
0
 10
4043.5954779416729252
 20
127.1411672580540966
 30
0.0
 11
4043.5954779416729252
 21
127.0230570218541004
 31
0.0
  0
LINE
  5
AC7C
  8
0
 10
4043.8887850282731051
 20
125.6698820838541053
 30
0.0
 11
4043.8887850282731051
 21
124.2013781467540952
 31
0.0
  0
LINE
  5
AC7D
  8
0
 10
4043.8946905401730874
 20
124.1875986192541035
 30
0.0
 11
4043.8946905401730874
 21
125.1521655483541053
 31
0.0
  0
LINE
  5
AC7E
  8
0
 10
4043.8946905401730874
 20
125.1521655483541053
 30
0.0
 11
4043.8946905401730874
 21
125.3096458633541062
 31
0.0
  0
LINE
  5
AC7F
  8
0
 10
4043.8946905401730874
 20
125.3096458633541062
 30
0.0
 11
4043.8946905401730874
 21
125.683661611354097
 31
0.0
  0
LINE
  5
AC80
  8
0
 10
4043.9340606188729907
 20
124.1797246034541047
 30
0.0
 11
4043.9340606188729907
 21
124.2348427137541051
 31
0.0
  0
LINE
  5
AC81
  8
0
 10
4043.9576826660731967
 20
125.2466537373540945
 30
0.0
 11
4043.9576826660731967
 21
125.2151576743541028
 31
0.0
  0
LINE
  5
AC82
  8
0
 10
4043.9734306975728941
 20
124.2663387767540968
 30
0.0
 11
4043.9734306975728941
 21
124.8962600365540965
 31
0.0
  0
LINE
  5
AC83
  8
0
 10
4044.0324858156732262
 20
125.3096458633541062
 30
0.0
 11
4044.0324858156732262
 21
125.2860238160540973
 31
0.0
  0
LINE
  5
AC84
  8
0
 10
4044.0915409337731035
 20
125.3687009814540971
 30
0.0
 11
4044.0915409337731035
 21
128.833267910554099
 31
0.0
  0
LINE
  5
AC85
  8
0
 10
4044.1685487311738143
 20
125.0114738405541033
 30
0.0
 11
4044.1685487311738143
 21
124.8962600365540965
 31
0.0
  0
LINE
  5
AC86
  8
0
 10
4044.1858474358728017
 20
125.0114738405541033
 30
0.0
 11
4044.1858474358728017
 21
124.991788801154101
 31
0.0
  0
LINE
  5
AC87
  8
0
 10
4044.406501563772963
 20
128.833267910554099
 30
0.0
 11
4044.406501563772963
 21
129.049803343654105
 31
0.0
  0
LINE
  5
AC88
  8
0
 10
4044.4694936897731168
 20
129.049803343654105
 30
0.0
 11
4044.4694936897731168
 21
128.833267910554099
 31
0.0
  0
LINE
  5
AC89
  8
0
 10
4044.8159503826718719
 20
125.3687009814540971
 30
0.0
 11
4044.8159503826718719
 21
125.2151576743541028
 31
0.0
  0
LINE
  5
AC8A
  8
0
 10
4044.8789425086729352
 20
125.132480508954103
 30
0.0
 11
4044.8789425086729352
 21
125.3293309026541067
 31
0.0
  0
LINE
  5
AC8B
  8
0
 10
4044.8789425086729352
 20
125.1521655483541053
 30
0.0
 11
4044.8789425086729352
 21
125.3687009814540971
 31
0.0
  0
LINE
  5
AC8C
  8
0
 10
4044.9917770775728059
 20
124.991788801154101
 30
0.0
 11
4044.9917770775728059
 21
125.1098990373540971
 31
0.0
  0
LINE
  5
AC8D
  8
0
 10
4042.3592574692729613
 20
128.990748225554114
 30
0.0
 11
4042.3198873904730135
 21
128.9513781467541094
 31
0.0
  0
LINE
  5
AC8E
  8
0
 10
4042.3986275479728647
 20
128.9513781467541094
 30
0.0
 11
4042.4183125873728386
 21
128.9710631861541117
 31
0.0
  0
LINE
  5
AC8F
  8
0
 10
4045.0360915447731713
 20
125.1098990373540971
 30
0.0
 11
4045.0305308202728156
 21
125.132480508954103
 31
0.0
  0
LINE
  5
AC90
  8
0
 10
4045.735477864972836
 20
124.991788801154101
 30
0.0
 11
4045.735477864972836
 21
124.8962600365540965
 31
0.0
  0
LINE
  5
AC91
  8
0
 10
4045.8579188098728991
 20
125.1098990373540971
 30
0.0
 11
4045.8579188098728991
 21
124.991788801154101
 31
0.0
  0
LINE
  5
AC92
  8
0
 10
4042.3592574692729613
 20
125.7230316900540998
 30
0.0
 11
4042.3198873904730135
 21
125.7624017688541045
 31
0.0
  0
LINE
  5
AC93
  8
0
 10
4043.9340606188729907
 20
124.1797246034541047
 30
0.0
 11
4043.9655566818728403
 21
124.1482285404540988
 31
0.0
  0
LINE
  5
AC94
  8
0
 10
4042.4183125873728386
 20
125.7427167294541022
 30
0.0
 11
4042.3986275479728647
 21
125.7624017688541045
 31
0.0
  0
LINE
  5
AC95
  8
0
 10
4042.3592574692729613
 20
125.7624017688541045
 30
0.0
 11
4042.3395724298729874
 21
125.7427167294541022
 31
0.0
  0
LINE
  5
AC96
  8
0
 10
4042.3986275479728647
 20
125.7230316900540998
 30
0.0
 11
4042.4379976267728125
 21
125.7624017688541045
 31
0.0
  0
LINE
  5
AC97
  8
0
 10
4042.3592574692729613
 20
128.9513781467541094
 30
0.0
 11
4042.3395724298729874
 21
128.9710631861541117
 31
0.0
  0
LINE
  5
AC98
  8
0
 10
4042.4379976267728125
 20
128.9513781467541094
 30
0.0
 11
4042.3986275479728647
 21
128.990748225554114
 31
0.0
  0
LINE
  5
AC99
  8
0
 10
4043.9340606188729907
 20
124.2348427137541051
 30
0.0
 11
4043.9655566818728403
 21
124.2663387767540968
 31
0.0
  0
LINE
  5
AC9A
  8
0
 10
4044.6209435696741821
 20
127.1452364564541
 30
0.0
 11
4044.6103224685739406
 21
127.1391043608541054
 31
0.0
  0
LINE
  5
AC9B
  8
0
 10
4043.0285488078739036
 20
125.8017718475540931
 30
0.0
 11
4043.0482338471729236
 21
125.7938978318540961
 31
0.0
  0
LINE
  5
AC9C
  8
0
 10
4044.609387078573036
 20
127.0634045788541044
 30
0.0
 11
4044.620938437472887
 21
127.0567353986540979
 31
0.0
  0
LINE
  5
AC9D
  8
0
 10
4043.5994149495732017
 20
125.8017718475540931
 30
0.0
 11
4043.6190999889731756
 21
125.7938978318540961
 31
0.0
  0
LINE
  5
AC9E
  8
0
 10
4044.9429923654729464
 20
125.0114738405541033
 30
0.0
 11
4044.9917770775728059
 21
125.0383311009540961
 31
0.0
  0
LINE
  5
AC9F
  8
0
 10
4043.0482338471729236
 20
125.7938978318540961
 30
0.0
 11
4043.0679188865728975
 21
125.8017718475540931
 31
0.0
  0
LINE
  5
ACA0
  8
0
 10
4043.6190999889731756
 20
125.7938978318540961
 30
0.0
 11
4043.6387850282740146
 21
125.8017718475540931
 31
0.0
  0
LINE
  5
ACA1
  8
0
 10
4072.9891787290730463
 20
124.1482285404540988
 30
0.0
 11
4071.493115736972868
 21
124.1482285404540988
 31
0.0
  0
LINE
  5
ACA2
  8
0
 10
4071.3828795164718031
 20
124.1482285404540988
 30
0.0
 11
4059.7529582566721729
 21
124.1482285404540988
 31
0.0
  0
LINE
  5
ACA3
  8
0
 10
4059.5324858156732262
 20
124.1482285404540988
 30
0.0
 11
4043.9655566818728403
 21
124.1482285404540988
 31
0.0
  0
LINE
  5
ACA4
  8
0
 10
4042.3592574692729613
 20
124.1482285404540988
 30
0.0
 11
4043.8553204613731396
 21
124.1482285404540988
 31
0.0
  0
LINE
  5
ACA5
  8
0
 10
4072.975399201673099
 20
124.1541340522540935
 30
0.0
 11
4071.5068952645729041
 21
124.1541340522540935
 31
0.0
  0
LINE
  5
ACA6
  8
0
 10
4043.8415409338731479
 20
124.1541340523540953
 30
0.0
 11
4042.3730369967738625
 21
124.1541340523540953
 31
0.0
  0
LINE
  5
ACA7
  8
0
 10
4071.4143755794739263
 20
124.1797246034541047
 30
0.0
 11
4059.7214621936741423
 21
124.1797246034541047
 31
0.0
  0
LINE
  5
ACA8
  8
0
 10
4059.5639818786730757
 20
124.1797246034541047
 30
0.0
 11
4043.9340606188729907
 21
124.1797246034541047
 31
0.0
  0
LINE
  5
ACA9
  8
0
 10
4043.9340606188729907
 20
124.2348427137541051
 30
0.0
 11
4059.5639818786730757
 21
124.2348427137541051
 31
0.0
  0
LINE
  5
ACAA
  8
0
 10
4059.7214621936741423
 20
124.2348427137541051
 30
0.0
 11
4071.4143755794739263
 21
124.2348427137541051
 31
0.0
  0
LINE
  5
ACAB
  8
0
 10
4043.9655566818728403
 20
124.2663387767540968
 30
0.0
 11
4059.5324858156732262
 21
124.2663387767540968
 31
0.0
  0
LINE
  5
ACAC
  8
0
 10
4059.7529582566721729
 20
124.2663387767540968
 30
0.0
 11
4071.3828795164718031
 21
124.2663387767540968
 31
0.0
  0
LINE
  5
ACAD
  8
0
 10
4071.375005500772204
 20
124.2978348397541026
 30
0.0
 11
4059.7608322723731362
 21
124.2978348397541026
 31
0.0
  0
LINE
  5
ACAE
  8
0
 10
4058.0088637684730202
 20
124.325393894854102
 30
0.0
 11
4043.9734306975728941
 21
124.325393894854102
 31
0.0
  0
LINE
  5
ACAF
  8
0
 10
4071.375005500772204
 20
124.3568899578540936
 30
0.0
 11
4059.7608322723731362
 21
124.3568899578540936
 31
0.0
  0
LINE
  5
ACB0
  8
0
 10
4059.467590829072833
 20
124.3647639735541048
 30
0.0
 11
4058.0482338471729236
 21
124.3647639735541048
 31
0.0
  0
LINE
  5
ACB1
  8
0
 10
4043.9734306975728941
 20
124.3647639735541048
 30
0.0
 11
4058.0088637684730202
 21
124.3647639735541048
 31
0.0
  0
LINE
  5
ACB2
  8
0
 10
4059.7608322723731362
 20
124.3962600365540965
 30
0.0
 11
4071.375005500772204
 21
124.3962600365540965
 31
0.0
  0
LINE
  5
ACB3
  8
0
 10
4043.9734306975728941
 20
124.4041340523540953
 30
0.0
 11
4058.0088637684730202
 21
124.4041340523540953
 31
0.0
  0
LINE
  5
ACB4
  8
0
 10
4059.7608322723731362
 20
124.4356301152540993
 30
0.0
 11
4071.375005500772204
 21
124.4356301152540993
 31
0.0
  0
LINE
  5
ACB5
  8
0
 10
4071.375005500772204
 20
124.8883860208540995
 30
0.0
 11
4059.7608322723731362
 21
124.8883860208540995
 31
0.0
  0
LINE
  5
ACB6
  8
0
 10
4059.5049267605731984
 20
124.8962600365540965
 30
0.0
 11
4059.4990211102731337
 21
124.8962600365540965
 31
0.0
  0
LINE
  5
ACB7
  8
0
 10
4059.4990211102731337
 20
124.8962600365540965
 30
0.0
 11
4058.0285488078739036
 21
124.8962600365540965
 31
0.0
  0
LINE
  5
ACB8
  8
0
 10
4043.9734306975728941
 20
124.8962600365540965
 30
0.0
 11
4058.0088637684730202
 21
124.8962600365540965
 31
0.0
  0
LINE
  5
ACB9
  8
0
 10
4059.5049267605731984
 20
124.8962600365540965
 30
0.0
 11
4059.5246117999731723
 21
124.8962600365540965
 31
0.0
  0
LINE
  5
ACBA
  8
0
 10
4059.7608322723731362
 20
124.9277560995541023
 30
0.0
 11
4071.375005500772204
 21
124.9277560995541023
 31
0.0
  0
LINE
  5
ACBB
  8
0
 10
4060.3651629810728991
 20
124.9375986192541035
 30
0.0
 11
4060.4045330597728025
 21
124.9375986192541035
 31
0.0
  0
LINE
  5
ACBC
  8
0
 10
4044.1858474362729794
 20
124.991788801154101
 30
0.0
 11
4045.8579188098728991
 21
124.991788801154101
 31
0.0
  0
LINE
  5
ACBD
  8
0
 10
4069.4905173884731084
 20
124.991788801154101
 30
0.0
 11
4071.1625887620730282
 21
124.991788801154101
 31
0.0
  0
LINE
  5
ACBE
  8
0
 10
4071.1798874671731028
 20
125.0114738405541033
 30
0.0
 11
4070.3566591207732017
 21
125.0114738405541033
 31
0.0
  0
LINE
  5
ACBF
  8
0
 10
4044.9917770775728059
 20
125.0114738405541033
 30
0.0
 11
4044.1685487311738143
 21
125.0114738405541033
 31
0.0
  0
LINE
  5
ACC0
  8
0
 10
4044.9917770775728059
 20
125.1098990373540971
 30
0.0
 11
4045.8579188098728991
 21
125.1098990373540971
 31
0.0
  0
LINE
  5
ACC1
  8
0
 10
4069.4905173884731084
 20
125.1098990373540971
 30
0.0
 11
4070.3566591207732017
 21
125.1098990373540971
 31
0.0
  0
LINE
  5
ACC2
  8
0
 10
4059.9001196280059958
 20
125.1152560995541023
 30
0.0
 11
4060.330206334138893
 21
125.1152560995541023
 31
0.0
  0
LINE
  5
ACC3
  8
0
 10
4059.9394910585738216
 20
125.1250986192541035
 30
0.0
 11
4060.3695764128401606
 21
125.1250986192541035
 31
0.0
  0
LINE
  5
ACC4
  8
0
 10
4070.4694936897731168
 20
125.132480508954103
 30
0.0
 11
4044.8789425086729352
 21
125.132480508954103
 31
0.0
  0
LINE
  5
ACC5
  8
0
 10
4044.8592574692729613
 20
125.132480508954103
 30
0.0
 11
4043.9143755794739263
 21
125.132480508954103
 31
0.0
  0
LINE
  5
ACC6
  8
0
 10
4070.4891787290730463
 20
125.132480508954103
 30
0.0
 11
4071.4340606188729907
 21
125.132480508954103
 31
0.0
  0
LINE
  5
ACC7
  8
0
 10
4071.3710684928728369
 20
125.1954726349541005
 30
0.0
 11
4070.5521708550732001
 21
125.1954726349541005
 31
0.0
  0
LINE
  5
ACC8
  8
0
 10
4043.9773677054731706
 20
125.1954726349541005
 30
0.0
 11
4044.7962653432728075
 21
125.1954726349541005
 31
0.0
  0
LINE
  5
ACC9
  8
0
 10
4044.0128007763728419
 20
125.2663387767540968
 30
0.0
 11
4043.9773677054731706
 21
125.2663387767540968
 31
0.0
  0
LINE
  5
ACCA
  8
0
 10
4071.3356354219731656
 20
125.2663387767540968
 30
0.0
 11
4071.3710684928728369
 21
125.2663387767540968
 31
0.0
  0
LINE
  5
ACCB
  8
0
 10
4071.4340606188729907
 20
125.3293309026541067
 30
0.0
 11
4071.3356354219731656
 21
125.3293309026541067
 31
0.0
  0
LINE
  5
ACCC
  8
0
 10
4043.9143755794739263
 20
125.3293309026541067
 30
0.0
 11
4044.0128007763728419
 21
125.3293309026541067
 31
0.0
  0
LINE
  5
ACCD
  8
0
 10
4044.8159503826718719
 20
125.3293309026541067
 30
0.0
 11
4044.8789425086729352
 21
125.3293309026541067
 31
0.0
  0
LINE
  5
ACCE
  8
0
 10
4070.4694936897731168
 20
125.3293309026541067
 30
0.0
 11
4070.5324858156732262
 21
125.3293309026541067
 31
0.0
  0
LINE
  5
ACCF
  8
0
 10
4071.2568952645729041
 20
125.3687009814540971
 30
0.0
 11
4044.0915409337731035
 21
125.3687009814540971
 31
0.0
  0
LINE
  5
ACD0
  8
0
 10
4042.3730369966729086
 20
125.7171261782541052
 30
0.0
 11
4043.8415409338731479
 21
125.7171261782541052
 31
0.0
  0
LINE
  5
ACD1
  8
0
 10
4071.5068952643728153
 20
125.7171261782541052
 30
0.0
 11
4072.9753992015730546
 21
125.7171261782541052
 31
0.0
  0
LINE
  5
ACD2
  8
0
 10
4044.0915409337731035
 20
125.7230316901541016
 30
0.0
 11
4042.3986275479728647
 21
125.7230316901541016
 31
0.0
  0
LINE
  5
ACD3
  8
0
 10
4042.3986275479728647
 20
125.7230316900540998
 30
0.0
 11
4042.3592574692729613
 21
125.7230316900540998
 31
0.0
  0
LINE
  5
ACD4
  8
0
 10
4071.2568952645729041
 20
125.7230316900540998
 30
0.0
 11
4072.9891787290730463
 21
125.7230316900540998
 31
0.0
  0
LINE
  5
ACD5
  8
0
 10
4042.3986275479728647
 20
125.7624017688541045
 30
0.0
 11
4042.3592574692729613
 21
125.7624017688541045
 31
0.0
  0
LINE
  5
ACD6
  8
0
 10
4072.9498086503731429
 20
125.7624017688541045
 30
0.0
 11
4072.9891787290730463
 21
125.7624017688541045
 31
0.0
  0
LINE
  5
ACD7
  8
0
 10
4042.8080763660727825
 20
125.7938978318540961
 30
0.0
 11
4042.8710684928728369
 21
125.7938978318540961
 31
0.0
  0
LINE
  5
ACD8
  8
0
 10
4072.4773677054731706
 20
125.8017718475540931
 30
0.0
 11
4072.3198873904730135
 21
125.8017718475540931
 31
0.0
  0
LINE
  5
ACD9
  8
0
 10
4072.2805173117731101
 20
125.8017718475540931
 30
0.0
 11
4071.7490212487728058
 21
125.8017718475540931
 31
0.0
  0
LINE
  5
ACDA
  8
0
 10
4071.7096511700729025
 20
125.8017718475540931
 30
0.0
 11
4071.2568952645729041
 21
125.8017718475540931
 31
0.0
  0
LINE
  5
ACDB
  8
0
 10
4042.8710684928728369
 20
125.8017718475540931
 30
0.0
 11
4043.0285488078739036
 21
125.8017718475540931
 31
0.0
  0
LINE
  5
ACDC
  8
0
 10
4043.0679188865728975
 20
125.8017718475540931
 30
0.0
 11
4043.5994149495732017
 21
125.8017718475540931
 31
0.0
  0
LINE
  5
ACDD
  8
0
 10
4043.6387850282740146
 20
125.8017718475540931
 30
0.0
 11
4044.0915409337731035
 21
125.8017718475540931
 31
0.0
  0
LINE
  5
ACDE
  8
0
 10
4072.4531860692031842
 20
125.8096458633541062
 30
0.0
 11
4072.3676910740441599
 21
125.8096458633541062
 31
0.0
  0
LINE
  5
ACDF
  8
0
 10
4043.3789744144728502
 20
125.8096458633541062
 30
0.0
 11
4043.264769280272958
 21
125.8096458633541062
 31
0.0
  0
LINE
  5
ACE0
  8
0
 10
4042.9498086503731429
 20
125.8096458633541062
 30
0.0
 11
4042.8357195371731905
 21
125.8096458633541062
 31
0.0
  0
LINE
  5
ACE1
  8
0
 10
4072.0291083968440944
 20
125.8096458633541062
 30
0.0
 11
4072.1146033920022091
 21
125.8096458633541062
 31
0.0
  0
LINE
  5
ACE2
  8
0
 10
4042.9686949010729222
 20
125.8608269656540983
 30
0.0
 11
4043.2450842408729841
 21
125.8608269656540983
 31
0.0
  0
LINE
  5
ACE3
  8
0
 10
4072.103351957473933
 20
125.8608269656540983
 30
0.0
 11
4072.3789425086729352
 21
125.8608269656540983
 31
0.0
  0
LINE
  5
ACE4
  8
0
 10
4059.5639818786730757
 20
124.2348427137541051
 30
0.0
 11
4059.5324858156732262
 21
124.2663387767540968
 31
0.0
  0
LINE
  5
ACE5
  8
0
 10
4059.7214621936741423
 20
124.1797246034541047
 30
0.0
 11
4059.7529582566721729
 21
124.1482285404540988
 31
0.0
  0
LINE
  5
ACE6
  8
0
 10
4058.0088637684730202
 20
124.2663387767540968
 30
0.0
 11
4058.0088637684730202
 21
124.8962600365540965
 31
0.0
  0
LINE
  5
ACE7
  8
0
 10
4044.0915409337731035
 20
127.0230570218541004
 30
0.0
 11
4043.5954779416729252
 21
127.0230570218541004
 31
0.0
  0
LINE
  5
ACE8
  8
0
 10
4044.5864341714727743
 20
127.1411672580540966
 30
0.0
 11
4044.5012386932730806
 21
127.1411672580540966
 31
0.0
  0
LINE
  5
ACE9
  8
0
 10
4044.0915409337731035
 20
127.1411672580540966
 30
0.0
 11
4043.5954779416729252
 21
127.1411672580540966
 31
0.0
  0
LINE
  5
ACEA
  8
0
 10
4044.0915409337731035
 20
127.156230599754096
 30
0.0
 11
4043.5954779416729252
 21
127.156230599754096
 31
0.0
  0
LINE
  5
ACEB
  8
0
 10
4044.0915409337731035
 20
127.2719392611541025
 30
0.0
 11
4043.5954779416729252
 21
127.2719392611541025
 31
0.0
  0
LINE
  5
ACEC
  8
0
 10
4059.5187062881727798
 20
124.2860247342540987
 30
0.0
 11
4059.5187062881727798
 21
124.2958663357540985
 31
0.0
  0
LINE
  5
ACED
  8
0
 10
4059.5187062881727798
 20
124.8667324775540948
 30
0.0
 11
4059.5187062881727798
 21
124.8765749971540941
 31
0.0
  0
LINE
  5
ACEE
  8
0
 10
4059.5246117999731723
 20
124.2663387767540968
 30
0.0
 11
4059.5246117999731723
 21
124.866732477454093
 31
0.0
  0
LINE
  5
ACEF
  8
0
 10
4059.5246117999731723
 20
124.866732477454093
 30
0.0
 11
4059.5246117999731723
 21
124.8765749971540941
 31
0.0
  0
LINE
  5
ACF0
  8
0
 10
4059.5246117999731723
 20
124.8765749971540941
 30
0.0
 11
4059.5246117999731723
 21
124.8962600365540965
 31
0.0
  0
LINE
  5
ACF1
  8
0
 10
4059.5639818786730757
 20
124.2348427137541051
 30
0.0
 11
4059.5639818786730757
 21
124.1797246034541047
 31
0.0
  0
LINE
  5
ACF2
  8
0
 10
4059.7214621936741423
 20
124.2348427137541051
 30
0.0
 11
4059.7214621936741423
 21
124.1797246034541047
 31
0.0
  0
LINE
  5
ACF3
  8
0
 10
4059.7608322723731362
 20
124.2978348397541026
 30
0.0
 11
4059.7608322723731362
 21
124.9277560995541023
 31
0.0
  0
LINE
  5
ACF4
  8
0
 10
4059.8651629810728991
 20
124.9277560995541023
 30
0.0
 11
4059.8651629810728991
 21
124.9427560996541047
 31
0.0
  0
LINE
  5
ACF5
  8
0
 10
4059.4526379964731859
 20
124.5818505876541025
 30
0.0
 11
4059.4526377392730865
 21
124.5812994066540966
 31
0.0
  0
LINE
  5
ACF6
  8
0
 10
4058.0285488074728164
 20
124.2663387767540968
 30
0.0
 11
4058.0286119625729953
 21
124.2664689893540952
 31
0.0
  0
LINE
  5
ACF7
  8
0
 10
4060.3651629810728991
 20
124.9427560996541047
 30
0.0
 11
4060.3651629810728991
 21
124.9277560995541023
 31
0.0
  0
LINE
  5
ACF8
  8
0
 10
4060.4045330597728025
 20
124.951111807337
 30
0.0
 11
4060.4045330597728025
 21
124.9375986192541035
 31
0.0
  0
LINE
  5
ACF9
  8
0
 10
4059.5324858156732262
 20
124.1482285404540988
 30
0.0
 11
4059.5639818786730757
 21
124.1797246034541047
 31
0.0
  0
LINE
  5
ACFA
  8
0
 10
4059.7214621936741423
 20
124.2348427137541051
 30
0.0
 11
4059.7529582566721729
 21
124.2663387767540968
 31
0.0
  0
LINE
  5
ACFB
  8
0
 10
4044.0915409337731035
 20
128.833267910554099
 30
0.0
 11
4071.2568952645729041
 21
128.833267910554099
 31
0.0
  0
LINE
  5
ACFC
  8
0
 10
4042.3986275479728647
 20
128.9513781467541094
 30
0.0
 11
4042.3592574692729613
 21
128.9513781467541094
 31
0.0
  0
LINE
  5
ACFD
  8
0
 10
4072.9498086503731429
 20
128.9513781467541094
 30
0.0
 11
4072.9891787290730463
 21
128.9513781467541094
 31
0.0
  0
LINE
  5
ACFE
  8
0
 10
4042.3986275479728647
 20
128.990748225554114
 30
0.0
 11
4042.3592574692729613
 21
128.990748225554114
 31
0.0
  0
LINE
  5
ACFF
  8
0
 10
4072.9498086503731429
 20
128.990748225554114
 30
0.0
 11
4072.9891787290730463
 21
128.990748225554114
 31
0.0
  0
LINE
  5
AD00
  8
0
 10
4070.9222495952722056
 20
129.0694883830541073
 30
0.0
 11
4070.8986275479728647
 21
129.0694883830541073
 31
0.0
  0
LINE
  5
AD01
  8
0
 10
4044.4261866030728925
 20
129.0694883830541073
 30
0.0
 11
4044.4498086503731429
 21
129.0694883830541073
 31
0.0
  0
LINE
  5
AD02
  8
0
 10
4071.7096511700729025
 20
125.8017718475540931
 30
0.0
 11
4071.7293362093728319
 21
125.7938978318540961
 31
0.0
  0
LINE
  5
AD03
  8
0
 10
4072.2805173117731101
 20
125.8017718475540931
 30
0.0
 11
4072.300202351173084
 21
125.7938978318540961
 31
0.0
  0
LINE
  5
AD04
  8
0
 10
4070.4054438328730612
 20
125.0114738405541033
 30
0.0
 11
4070.3566591207732017
 21
125.0383311009540961
 31
0.0
  0
LINE
  5
AD05
  8
0
 10
4070.7276526893729169
 20
127.0568248467540968
 30
0.0
 11
4070.7381137297729765
 21
127.062864531154105
 31
0.0
  0
LINE
  5
AD06
  8
0
 10
4071.7293362093728319
 20
125.7938978318540961
 30
0.0
 11
4071.7490212487728058
 21
125.8017718475540931
 31
0.0
  0
LINE
  5
AD07
  8
0
 10
4072.300202351173084
 20
125.7938978318540961
 30
0.0
 11
4072.3198873904730135
 21
125.8017718475540931
 31
0.0
  0
LINE
  5
AD08
  8
0
 10
4070.7390491197729716
 20
127.1385643131541059
 30
0.0
 11
4070.7276618024729942
 21
127.1451387838540938
 31
0.0
  0
LINE
  5
AD09
  8
0
 10
4071.4143755794739263
 20
124.2348427137541051
 30
0.0
 11
4071.3828795164718031
 21
124.2663387767540968
 31
0.0
  0
LINE
  5
AD0A
  8
0
 10
4072.9104385715731951
 20
128.9513781467541094
 30
0.0
 11
4072.9498086503731429
 21
128.990748225554114
 31
0.0
  0
LINE
  5
AD0B
  8
0
 10
4072.9891787290730463
 20
128.9513781467541094
 30
0.0
 11
4073.0088637684739297
 21
128.9710631861541117
 31
0.0
  0
LINE
  5
AD0C
  8
0
 10
4072.9104385715731951
 20
125.7624017688541045
 30
0.0
 11
4072.9498086503731429
 21
125.7230316900540998
 31
0.0
  0
LINE
  5
AD0D
  8
0
 10
4072.9891787290730463
 20
125.7624017688541045
 30
0.0
 11
4073.0088637684739297
 21
125.7427167294541022
 31
0.0
  0
LINE
  5
AD0E
  8
0
 10
4072.9498086503731429
 20
125.7624017688541045
 30
0.0
 11
4072.930123610973169
 21
125.7427167294541022
 31
0.0
  0
LINE
  5
AD0F
  8
0
 10
4071.4143755794739263
 20
124.1797246034541047
 30
0.0
 11
4071.3828795164718031
 21
124.1482285404540988
 31
0.0
  0
LINE
  5
AD10
  8
0
 10
4072.9891787290730463
 20
125.7230316900540998
 30
0.0
 11
4073.0285488078729941
 21
125.7624017688541045
 31
0.0
  0
LINE
  5
AD11
  8
0
 10
4069.4905173884731084
 20
124.991788801154101
 30
0.0
 11
4069.4905173884731084
 21
125.1098990373540971
 31
0.0
  0
LINE
  5
AD12
  8
0
 10
4069.6129583333731716
 20
124.991788801154101
 30
0.0
 11
4069.6129583333731716
 21
124.9277560995541023
 31
0.0
  0
LINE
  5
AD13
  8
0
 10
4072.930123610973169
 20
128.9710631861541117
 30
0.0
 11
4072.9498086503731429
 21
128.9513781467541094
 31
0.0
  0
LINE
  5
AD14
  8
0
 10
4072.9891787290730463
 20
128.990748225554114
 30
0.0
 11
4073.0285488078729941
 21
128.9513781467541094
 31
0.0
  0
LINE
  5
AD15
  8
0
 10
4070.3566591207732017
 20
125.1098990373540971
 30
0.0
 11
4070.3566591207732017
 21
124.991788801154101
 31
0.0
  0
LINE
  5
AD16
  8
0
 10
4070.4694936897731168
 20
125.3687009814540971
 30
0.0
 11
4070.4694936897731168
 21
125.3293309026541067
 31
0.0
  0
LINE
  5
AD17
  8
0
 10
4070.4694936897731168
 20
125.297151603854104
 30
0.0
 11
4070.4694936897731168
 21
125.1521655483541053
 31
0.0
  0
LINE
  5
AD18
  8
0
 10
4070.4694936897731168
 20
125.132480508954103
 30
0.0
 11
4070.4694936897731168
 21
125.3293309026541067
 31
0.0
  0
LINE
  5
AD19
  8
0
 10
4070.5324858156732262
 20
125.2151576743541028
 30
0.0
 11
4070.5324858156732262
 21
125.3687009814540971
 31
0.0
  0
LINE
  5
AD1A
  8
0
 10
4070.8789425086729352
 20
129.049803343654105
 30
0.0
 11
4070.8789425086729352
 21
128.833267910554099
 31
0.0
  0
LINE
  5
AD1B
  8
0
 10
4070.9419346345730446
 20
128.833267910554099
 30
0.0
 11
4070.9419346345730446
 21
129.049803343654105
 31
0.0
  0
LINE
  5
AD1C
  8
0
 10
4071.1625887624732059
 20
125.0114738405541033
 30
0.0
 11
4071.1625887624732059
 21
124.991788801154101
 31
0.0
  0
LINE
  5
AD1D
  8
0
 10
4071.1798874671731028
 20
125.0114738405541033
 30
0.0
 11
4071.1798874671731028
 21
124.9277560995541023
 31
0.0
  0
LINE
  5
AD1E
  8
0
 10
4071.2568952645729041
 20
125.3687009814540971
 30
0.0
 11
4071.2568952645729041
 21
128.833267910554099
 31
0.0
  0
LINE
  5
AD1F
  8
0
 10
4070.317905378073192
 20
125.132480508954103
 30
0.0
 11
4070.3123446535728363
 21
125.1098990373540971
 31
0.0
  0
LINE
  5
AD20
  8
0
 10
4071.3159503826727814
 20
125.3096458633541062
 30
0.0
 11
4071.3159503826727814
 21
125.2860238160540973
 31
0.0
  0
LINE
  5
AD21
  8
0
 10
4071.375005500772204
 20
124.2978348397541026
 30
0.0
 11
4071.375005500772204
 21
124.9277560995541023
 31
0.0
  0
LINE
  5
AD22
  8
0
 10
4071.3907535322728108
 20
125.2466537373540945
 30
0.0
 11
4071.3907535322728108
 21
125.2151576743541028
 31
0.0
  0
LINE
  5
AD23
  8
0
 10
4071.4143755794739263
 20
124.1797246034541047
 30
0.0
 11
4071.4143755794739263
 21
124.2348427137541051
 31
0.0
  0
LINE
  5
AD24
  8
0
 10
4071.4537456582729646
 20
124.1875986192541035
 30
0.0
 11
4071.4537456582729646
 21
125.683661611354097
 31
0.0
  0
LINE
  5
AD25
  8
0
 10
4071.4596511700729025
 20
124.2013781466540934
 30
0.0
 11
4071.4596511700729025
 21
125.6698820837541035
 31
0.0
  0
LINE
  5
AD26
  8
0
 10
4072.0836669180730496
 20
125.8096458633541062
 30
0.0
 11
4072.0836669180730496
 21
125.8411419263540978
 31
0.0
  0
LINE
  5
AD27
  8
0
 10
4072.3986275479728647
 20
125.8411419264540996
 30
0.0
 11
4072.3986275479728647
 21
125.8096458633541062
 31
0.0
  0
LINE
  5
AD28
  8
0
 10
4072.4773677054731706
 20
125.8017718475540931
 30
0.0
 11
4072.4773677054731706
 21
125.7230316900540998
 31
0.0
  0
LINE
  5
AD29
  8
0
 10
4072.5521708550732001
 20
125.7500858858541051
 30
0.0
 11
4072.5521708550732001
 21
125.7230316900540998
 31
0.0
  0
LINE
  5
AD2A
  8
0
 10
4072.9104385715731951
 20
125.7624017688541045
 30
0.0
 11
4072.9104385715731951
 21
128.9513781467541094
 31
0.0
  0
LINE
  5
AD2B
  8
0
 10
4072.9498086503731429
 20
125.7624017688541045
 30
0.0
 11
4072.9498086503731429
 21
128.9513781467541094
 31
0.0
  0
LINE
  5
AD2C
  8
0
 10
4072.9891787290730463
 20
128.9513781467541094
 30
0.0
 11
4072.9891787290730463
 21
125.7624017688541045
 31
0.0
  0
LINE
  5
AD2D
  8
0
 10
4073.0226432960730563
 20
125.6698820839541071
 30
0.0
 11
4073.0226432960730563
 21
124.2013781467540952
 31
0.0
  0
LINE
  5
AD2E
  8
0
 10
4073.0285488078729941
 20
128.9513781467541094
 30
0.0
 11
4073.0285488078729941
 21
125.7624017688541045
 31
0.0
  0
LINE
  5
AD2F
  8
0
 10
4073.0285488078729941
 20
125.683661611354097
 30
0.0
 11
4073.0285488078729941
 21
124.1875986192541035
 31
0.0
  0
ARC
  5
AD30
  8
0
 10
4043.8415409338731479
 20
124.2013781467540952
 30
0.0
 40
0.0472440945
 50
270.0
 51
0.0
  0
ARC
  5
AD31
  8
0
 10
4042.3730369967738625
 20
124.2013781467540952
 30
0.0
 40
0.0472440945
 50
180.0
 51
270.0
  0
ARC
  5
AD32
  8
0
 10
4042.3592574692729613
 20
124.1875986192541035
 30
0.0
 40
0.0393700787
 50
180.0
 51
270.0
  0
ARC
  5
AD33
  8
0
 10
4043.8553204613731396
 20
124.1875986192541035
 30
0.0
 40
0.0393700787
 50
270.0
 51
0.0
  0
ARC
  5
AD34
  8
0
 10
4044.3022082383731686
 20
124.5830222732541017
 30
0.0
 40
0.0275590551
 50
337.1726084904984191
 51
41.44699548309557
  0
ARC
  5
AD35
  8
0
 10
4043.9143755794739263
 20
125.1521655483541053
 30
0.0
 40
0.0196850394
 50
180.0000000007995027
 51
270.0
  0
ARC
  5
AD36
  8
0
 10
4042.8395724298738969
 20
125.7899608239541038
 30
0.0
 40
0.0590551181
 50
19.4712206731529101
 51
222.8334280623327004
  0
ARC
  5
AD37
  8
0
 10
4042.3730369967738625
 20
125.6698820838541053
 30
0.0
 40
0.0472440945
 50
89.9999999997915552
 51
180.0000000056002136
  0
ARC
  5
AD38
  8
0
 10
4042.3592574692729613
 20
125.683661611354097
 30
0.0
 40
0.0393700787
 50
90.0000000009119248
 51
180.0
  0
ARC
  5
AD39
  8
0
 10
4043.0679188865728975
 20
125.7899608239541038
 30
0.0
 40
0.031496063
 50
22.0243127957780693
 51
164.8633346395793069
  0
ARC
  5
AD3A
  8
0
 10
4043.1466590440732034
 20
125.7899608239541038
 30
0.0
 40
0.031496063
 50
22.0243127957780693
 51
157.9756872042219129
  0
ARC
  5
AD3B
  8
0
 10
4042.9694936897731168
 20
125.8411419263540978
 30
0.0
 40
0.0196850394
 50
92.3254028312984616
 51
179.9999999981997121
  0
ARC
  5
AD3C
  8
0
 10
4042.8080763668731379
 20
125.7820868082541068
 30
0.0
 40
0.0118110236
 50
90.0000039328095056
 51
180.0
  0
ARC
  5
AD3D
  8
0
 10
4043.9143755794739263
 20
125.3096458633541062
 30
0.0
 40
0.0196850394
 50
89.9999999997915552
 51
179.9999999990994013
  0
ARC
  5
AD3E
  8
0
 10
4044.0128007763728419
 20
125.3096458633541062
 30
0.0
 40
0.0196850394
 50
0.0
 51
90.0000000002084306
  0
ARC
  5
AD3F
  8
0
 10
4044.0128007763728419
 20
125.2860238160540973
 30
0.0
 40
0.0196850394
 50
269.999999999791612
 51
0.0
  0
ARC
  5
AD40
  8
0
 10
4043.9773677054731706
 20
125.2466537373540945
 30
0.0
 40
0.0196850394
 50
90.0000000009119248
 51
180.000000000199492
  0
ARC
  5
AD41
  8
0
 10
4043.9773677054731706
 20
125.2151576743541028
 30
0.0
 40
0.0196850394
 50
179.9999999997997122
 51
270.0
  0
ARC
  5
AD42
  8
0
 10
4043.3750055007731135
 20
125.7899608239541038
 30
0.0
 40
0.0590551181
 50
11.5369590155228607
 51
160.5287793312054987
  0
ARC
  5
AD43
  8
0
 10
4043.8415409338731479
 20
125.6698820838541053
 30
0.0
 40
0.0472440945
 50
0.0
 51
90.0
  0
ARC
  5
AD44
  8
0
 10
4043.8553204613731396
 20
125.683661611354097
 30
0.0
 40
0.0393700787
 50
0.0
 51
90.0
  0
ARC
  5
AD45
  8
0
 10
4043.2450842408729841
 20
125.8411419263540978
 30
0.0
 40
0.0196850394
 50
2.3254028262999928
 51
89.999999999400714
  0
ARC
  5
AD46
  8
0
 10
4046.3732091600732019
 20
125.1906215132541007
 30
0.0
 40
0.7874015748000001
 50
184.2340887793988031
 51
185.8841604183998015
  0
CIRCLE
  5
AD47
  8
0
 10
4044.3671314849739247
 20
124.6403545247541018
 30
0.0
 40
0.157480315
  0
CIRCLE
  5
AD48
  8
0
 10
4044.3671314849739247
 20
124.6403545247541018
 30
0.0
 40
0.0787401575
  0
ARC
  5
AD49
  8
0
 10
4044.3671314849739247
 20
124.6403545247541018
 30
0.0
 40
0.0590551181
 50
318.5530045439056153
 51
221.4469954564007992
  0
ARC
  5
AD4A
  8
0
 10
4045.2401799999729519
 20
125.0862220208540947
 30
0.0
 40
0.0590551181
 50
23.6363810237962291
 51
51.6441649471082727
  0
ARC
  5
AD4B
  8
0
 10
4044.4320547315728618
 20
124.5830222732541017
 30
0.0
 40
0.0275590551
 50
138.5530045163081923
 51
202.8368696693979985
  0
ARC
  5
AD4C
  8
0
 10
4044.8592574692729613
 20
125.1521655483541053
 30
0.0
 40
0.0196850394
 50
270.0
 51
0.0
  0
ARC
  5
AD4D
  8
0
 10
4044.7962653432728075
 20
125.2151576743541028
 30
0.0
 40
0.0196850394
 50
270.0
 51
0.0
  0
ARC
  5
AD4E
  8
0
 10
4044.4498086503731429
 20
129.049803343654105
 30
0.0
 40
0.0196850394
 50
0.0
 51
89.9999999990880752
  0
ARC
  5
AD4F
  8
0
 10
4044.4261866030728925
 20
129.049803343654105
 30
0.0
 40
0.0196850394
 50
90.0000000008077023
 51
180.000000000199492
  0
CIRCLE
  5
AD50
  8
0
 10
4044.5442968393731462
 20
127.100984446054099
 30
0.0
 40
0.0885826772
  0
ARC
  5
AD51
  8
0
 10
4044.5442968393731462
 20
127.100984446054099
 30
0.0
 40
0.0590551181
 50
42.5344793526945821
 51
315.5224878168995133
  0
ARC
  5
AD52
  8
0
 10
4044.6004799488728167
 20
127.0458167870540933
 30
0.0
 40
0.0196850394
 50
63.1406039796082581
 51
135.5224878051919859
  0
ARC
  5
AD53
  8
0
 10
4044.6004799488728167
 20
127.1561521049541028
 30
0.0
 40
0.0196850394
 50
230.3950608131050046
 51
300.0000000043016257
  0
ARC
  5
AD54
  8
0
 10
4058.0482338471729236
 20
124.325393894854102
 30
0.0
 40
0.0393700787
 50
90.0
 51
180.0
  0
ARC
  5
AD55
  8
0
 10
4057.7018783123730827
 20
124.5557958138541039
 30
0.0
 40
0.0255905512
 50
16.92102459399662
 51
87.402663474793755
  0
ARC
  5
AD56
  8
0
 10
4058.0285488078739036
 20
124.2860238160540973
 30
0.0
 40
0.0196850394
 50
180.0
 51
270.0
  0
CIRCLE
  5
AD57
  8
0
 10
4057.709651170073812
 20
124.6403545247541018
 30
0.0
 40
0.157480315
  0
CIRCLE
  5
AD58
  8
0
 10
4057.709651170073812
 20
124.6403545247541018
 30
0.0
 40
0.0787401575
  0
ARC
  5
AD59
  8
0
 10
4057.7057141621730807
 20
124.6403545247541018
 30
0.0
 40
0.0590551181
 50
2.5973366048000308
 51
267.402663355912523
  0
ARC
  5
AD5A
  8
0
 10
4057.7902728730728086
 20
124.6441903745540998
 30
0.0
 40
0.0255905512
 50
182.5973366156997884
 51
255.0000000004916956
  0
ARC
  5
AD5B
  8
0
 10
4058.0285488078739036
 20
124.8765749971540941
 30
0.0
 40
0.0196850394
 50
90.0
 51
180.0
  0
ARC
  5
AD5C
  8
0
 10
4060.0431889203728133
 20
124.5812994066540966
 30
0.0
 40
0.5905511811000002
 50
153.9347815144874119
 51
179.9465239391003024
  0
ARC
  5
AD5D
  8
0
 10
4060.0431889203728133
 20
124.5812994066540966
 30
0.0
 40
0.5905511811000002
 50
180.0
 51
206.0652184820991124
  0
ARC
  5
AD5E
  8
0
 10
4060.0490944321732059
 20
124.5812994066540966
 30
0.0
 40
0.5905511811000002
 50
153.9347815224155056
 51
206.0652184842979011
  0
ARC
  5
AD5F
  8
0
 10
4059.4596511700729025
 20
124.2958663357540985
 30
0.0
 40
0.0590551181
 50
0.0
 51
26.0652184791983998
  0
ARC
  5
AD60
  8
0
 10
4059.4655566818742045
 20
124.2958663357540985
 30
0.0
 40
0.0590551181
 50
0.0
 51
26.0652184654992602
  0
ARC
  5
AD61
  8
0
 10
4059.467590829072833
 20
124.325393894854102
 30
0.0
 40
0.0393700787
 50
23.9694823187036796
 51
90.0
  0
ARC
  5
AD62
  8
0
 10
4060.0974533773728581
 20
124.6093461944541048
 30
0.0
 40
0.0255905512
 50
47.5973365998036684
 51
118.0789754047016942
  0
ARC
  5
AD63
  8
0
 10
4059.1879906950739496
 20
124.5778501314540989
 30
0.0
 40
0.0255905512
 50
76.2731745971046138
 51
132.4026634038987993
  0
ARC
  5
AD64
  8
0
 10
4059.4990212487741701
 20
124.2860238160540973
 30
0.0
 40
0.0196850394
 50
269.9997265221895759
 51
0.0015907884004013
  0
ARC
  5
AD65
  8
0
 10
4059.5049267605731984
 20
124.2860238160540973
 30
0.0
 40
0.0196850394
 50
270.0
 51
0.0
  0
CIRCLE
  5
AD66
  8
0
 10
4059.1250055007731135
 20
124.6403545247541018
 30
0.0
 40
0.157480315
  0
CIRCLE
  5
AD67
  8
0
 10
4059.1250055007731135
 20
124.6403545247541018
 30
0.0
 40
0.0787401575
  0
ARC
  5
AD68
  8
0
 10
4059.1309110125721418
 20
124.6403545247541018
 30
0.0
 40
0.0590551181
 50
47.5973366036094205
 51
312.4026633871017111
  0
ARC
  5
AD69
  8
0
 10
4059.1879906950739496
 20
124.7028589180541047
 30
0.0
 40
0.0255905512
 50
227.5973366180072901
 51
283.8014131985934796
  0
ARC
  5
AD6A
  8
0
 10
4059.7567275733731549
 20
124.9524256356540945
 30
0.0
 40
0.6478068187
 50
359.8837973497495
 51
14.4280760922608504
  0
ARC
  5
AD6B
  8
0
 10
4060.3695764128401606
 20
125.1100986192541029
 30
0.0
 40
0.015
 50
14.4280760922553295
 51
90.0
  0
ARC
  5
AD6C
  8
0
 10
4059.7173574946718873
 20
124.9425831159540934
 30
0.0
 40
0.6478068187
 50
0.0152997010001658
 51
14.4280760922608504
  0
ARC
  5
AD6D
  8
0
 10
4060.330206334138893
 20
125.1002560995541018
 30
0.0
 40
0.015
 50
14.4280760922553295
 51
90.0
  0
ARC
  5
AD6E
  8
0
 10
4059.4596511700729025
 20
124.8667324775540948
 30
0.0
 40
0.0590551181
 50
333.9347815144852234
 51
0.0
  0
ARC
  5
AD6F
  8
0
 10
4059.4655566818742045
 20
124.866732477454093
 30
0.0
 40
0.0590551181
 50
333.9347815224163014
 51
0.0
  0
ARC
  5
AD70
  8
0
 10
4059.4990212487741701
 20
124.8765749971540941
 30
0.0
 40
0.0196850394
 50
0.0
 51
90.0002394770982193
  0
ARC
  5
AD71
  8
0
 10
4059.5049267605731984
 20
124.8765749971540941
 30
0.0
 40
0.0196850394
 50
0.0
 51
89.9999999990880752
  0
CIRCLE
  5
AD72
  8
0
 10
4060.1545330597728025
 20
124.6718505877540935
 30
0.0
 40
0.157480315
  0
CIRCLE
  5
AD73
  8
0
 10
4060.1545330597728025
 20
124.6718505877540935
 30
0.0
 40
0.0787401575
  0
ARC
  5
AD74
  8
0
 10
4060.1545330597728025
 20
124.6718505877540935
 30
0.0
 40
0.0590551181
 50
227.59733661130511
 51
132.402663400693001
  0
ARC
  5
AD75
  8
0
 10
4060.0974533773728581
 20
124.7343549810540964
 30
0.0
 40
0.0255905512
 50
241.9210245955032121
 51
312.4026633721038024
  0
ARC
  5
AD76
  8
0
 10
4060.5129684674730015
 20
124.9425831159540934
 30
0.0
 40
0.6478068187
 50
165.5719239077392047
 51
179.9847002989997975
  0
ARC
  5
AD77
  8
0
 10
4059.9001196280059958
 20
125.1002560995541018
 30
0.0
 40
0.015
 50
90.0
 51
165.57192390774469
  0
ARC
  5
AD78
  8
0
 10
4059.9394910585738216
 20
125.1100986192541029
 30
0.0
 40
0.015
 50
90.0
 51
159.8894857620030905
  0
ARC
  5
AD79
  8
0
 10
4071.5068952645729041
 20
124.2013781467540952
 30
0.0
 40
0.0472440945
 50
180.000000000199492
 51
270.0000000057061129
  0
ARC
  5
AD7A
  8
0
 10
4071.493115736972868
 20
124.1875986192541035
 30
0.0
 40
0.0393700787
 50
180.0
 51
270.0
  0
CIRCLE
  5
AD7B
  8
0
 10
4070.9813047133729924
 20
124.6718505877540935
 30
0.0
 40
0.157480315
  0
CIRCLE
  5
AD7C
  8
0
 10
4070.9813047133729924
 20
124.6718505877540935
 30
0.0
 40
0.0787401575
  0
ARC
  5
AD7D
  8
0
 10
4070.9813047133729924
 20
124.6718505877540935
 30
0.0
 40
0.0590551181
 50
318.5530045402962855
 51
219.725959625194406
  0
ARC
  5
AD7E
  8
0
 10
4071.046227959972839
 20
124.6145183362540934
 30
0.0
 40
0.0275590551
 50
138.5530045241056882
 51
202.8368696779967024
  0
ARC
  5
AD7F
  8
0
 10
4070.9163814667731458
 20
124.6145183362540934
 30
0.0
 40
0.0275590551
 50
337.1726084806970789
 51
45.0394875087060527
  0
ARC
  5
AD80
  8
0
 10
4072.9753992015730546
 20
124.2013781467540952
 30
0.0
 40
0.0472440945
 50
270.0000000003907985
 51
0.0
  0
ARC
  5
AD81
  8
0
 10
4072.9891787290730463
 20
124.1875986192541035
 30
0.0
 40
0.0393700787
 50
270.0
 51
0.0
  0
ARC
  5
AD82
  8
0
 10
4068.9752270382728057
 20
125.1906215132541007
 30
0.0
 40
0.7874015748000001
 50
354.1158395816001985
 51
355.7659112206004011
  0
ARC
  5
AD83
  8
0
 10
4070.1082561983730557
 20
125.0862220208540947
 30
0.0
 40
0.0590551181
 50
128.3558350530915959
 51
156.36361897620381
  0
ARC
  5
AD84
  8
0
 10
4070.5521708550732001
 20
125.2151576743541028
 30
0.0
 40
0.0196850394
 50
180.0
 51
270.0
  0
ARC
  5
AD85
  8
0
 10
4070.4891787290730463
 20
125.1521655483541053
 30
0.0
 40
0.0196850394
 50
180.0
 51
270.0
  0
ARC
  5
AD86
  8
0
 10
4071.3710684928728369
 20
125.2151576743541028
 30
0.0
 40
0.0196850394
 50
270.0
 51
0.0
  0
ARC
  5
AD87
  8
0
 10
4071.3710684928728369
 20
125.2466537373540945
 30
0.0
 40
0.0196850394
 50
0.0
 51
89.9999999991922977
  0
ARC
  5
AD88
  8
0
 10
4071.3356354219731656
 20
125.2860238160540973
 30
0.0
 40
0.0196850394
 50
179.9999999997997122
 51
270.000000000208388
  0
ARC
  5
AD89
  8
0
 10
4071.3356354219731656
 20
125.3096458633541062
 30
0.0
 40
0.0196850394
 50
89.9999999997915552
 51
180.000000000199492
  0
ARC
  5
AD8A
  8
0
 10
4071.4340606188729907
 20
125.3096458633541062
 30
0.0
 40
0.0196850394
 50
0.0000000008003802
 51
90.0000000002084306
  0
ARC
  5
AD8B
  8
0
 10
4071.4340606188729907
 20
125.1521655483541053
 30
0.0
 40
0.0196850394
 50
270.0
 51
359.9999999991002824
  0
ARC
  5
AD8C
  8
0
 10
4072.5088637684730202
 20
125.7899608239541038
 30
0.0
 40
0.0590551181
 50
237.7690473492199033
 51
160.5287793268431926
  0
ARC
  5
AD8D
  8
0
 10
4071.9734306975728941
 20
125.7899608239541038
 30
0.0
 40
0.0590551181
 50
19.4712206731598201
 51
168.4630409844739063
  0
ARC
  5
AD8E
  8
0
 10
4072.1702810912729547
 20
125.7899608239541038
 30
0.0
 40
0.0590551181
 50
11.5369590155260493
 51
160.5287793268456085
  0
ARC
  5
AD8F
  8
0
 10
4072.3120133747729597
 20
125.7899608239541038
 30
0.0
 40
0.0590551181
 50
19.4712206731598201
 51
168.4630409844739063
  0
ARC
  5
AD90
  8
0
 10
4072.9753992015730546
 20
125.6698820837541035
 30
0.0
 40
0.0472440945
 50
0.0000000009005295
 51
90.0000000044033186
  0
ARC
  5
AD91
  8
0
 10
4071.5068952645729041
 20
125.6698820837541035
 30
0.0
 40
0.0472440945
 50
90.0000000007034942
 51
180.0000000045995137
  0
ARC
  5
AD92
  8
0
 10
4071.493115736972868
 20
125.683661611354097
 30
0.0
 40
0.0393700787
 50
90.0000000009119248
 51
179.9999999990994013
  0
ARC
  5
AD93
  8
0
 10
4072.9891787290730463
 20
125.683661611354097
 30
0.0
 40
0.0393700787
 50
0.0
 51
90.0
  0
ARC
  5
AD94
  8
0
 10
4072.3789425086729352
 20
125.8411419263540978
 30
0.0
 40
0.0196850394
 50
0.0
 51
90.0
  0
ARC
  5
AD95
  8
0
 10
4072.103351957473933
 20
125.8411419263540978
 30
0.0
 40
0.0196850394
 50
90.0
 51
180.0
  0
CIRCLE
  5
AD96
  8
0
 10
4070.8041393589728614
 20
127.100984446054099
 30
0.0
 40
0.0885826772
  0
ARC
  5
AD97
  8
0
 10
4070.8041393589728614
 20
127.100984446054099
 30
0.0
 40
0.0590551181
 50
222.5344793524978968
 51
135.5224878161959055
  0
ARC
  5
AD98
  8
0
 10
4070.7479562494731908
 20
127.0458167870540933
 30
0.0
 40
0.0196850394
 50
50.3950608139928633
 51
120.0000000043015973
  0
ARC
  5
AD99
  8
0
 10
4070.7479562494731908
 20
127.1561521049541028
 30
0.0
 40
0.0196850394
 50
243.1406039791112903
 51
315.5224878074072876
  0
ARC
  5
AD9A
  8
0
 10
4070.9222495952722056
 20
129.049803343654105
 30
0.0
 40
0.0196850394
 50
0.0
 51
89.9999999990880752
  0
ARC
  5
AD9B
  8
0
 10
4070.8986275479728647
 20
129.049803343654105
 30
0.0
 40
0.0196850394
 50
90.0000000008077023
 51
180.000000000199492
  0
ARC
  5
AD9C
  8
0
 10
4042.835157465247903
 20
125.7923029824474952
 30
0.0
 40
0.0173519867159824
 50
88.1437293543638134
 51
174.7264085893714878
  0
ARC
  5
AD9D
  8
0
 10
4043.379725658578991
 20
125.7953183868635989
 30
0.0
 40
0.0143471582654106
 50
26.7313398305898211
 51
93.0014870667830138
  0
ENDSEC
  0
EOF
