  0
SECTION
  2
HEADER
  9
$ACADVER
  1
AC1009
  9
$INSBASE
 10
3833.5549465827029962
 20
97.4382584721979157
 30
0.0
  9
$EXTMIN
 10
3828.6277886347311323
 20
81.6902269867957074
 30
0.0
  9
$EXTMAX
 10
3833.5603636061518955
 20
113.1862899789957027
 30
0.0
  9
$LIMMIN
 10
0.0
 20
0.0
  9
$LIMMAX
 10
11.6929133858000007
 20
8.2677165353999982
  9
$ORTHOMODE
 70
     1
  9
$REGENMODE
 70
     1
  9
$FILLMODE
 70
     1
  9
$QTEXTMODE
 70
     0
  9
$MIRRTEXT
 70
     0
  9
$DRAGMODE
 70
     2
  9
$LTSCALE
 40
0.6431102362
  9
$OSMODE
 70
  4095
  9
$ATTMODE
 70
     1
  9
$TEXTSIZE
 40
0.2
  9
$TRACEWID
 40
0.05
  9
$TEXTSTYLE
  7
STANDARD
  9
$CLAYER
  8
0
  9
$CELTYPE
  6
BYLAYER
  9
$CECOLOR
 62
   256
  9
$DIMSCALE
 40
1.0
  9
$DIMASZ
 40
0.1875
  9
$DIMEXO
 40
0.0625
  9
$DIMDLI
 40
0.4443307087
  9
$DIMRND
 40
0.0
  9
$DIMDLE
 40
0.0
  9
$DIMEXE
 40
0.125
  9
$DIMTP
 40
0.01
  9
$DIMTM
 40
0.01
  9
$DIMTXT
 40
2.0
  9
$DIMCEN
 40
0.1052362205
  9
$DIMTSZ
 40
0.0
  9
$DIMTOL
 70
     1
  9
$DIMLIM
 70
     0
  9
$DIMTIH
 70
     1
  9
$DIMTOH
 70
     1
  9
$DIMSE1
 70
     0
  9
$DIMSE2
 70
     0
  9
$DIMTAD
 70
     0
  9
$DIMZIN
 70
     0
  9
$DIMBLK
  1

  9
$DIMASO
 70
     1
  9
$DIMSHO
 70
     1
  9
$DIMPOST
  1
\X
  9
$DIMAPOST
  1

  9
$DIMALT
 70
     1
  9
$DIMALTD
 70
     2
  9
$DIMALTF
 40
25.3999999999999986
  9
$DIMLFAC
 40
1.0
  9
$DIMTOFL
 70
     0
  9
$DIMTVP
 40
0.0
  9
$DIMTIX
 70
     0
  9
$DIMSOXD
 70
     0
  9
$DIMSAH
 70
     0
  9
$DIMBLK1
  1

  9
$DIMBLK2
  1

  9
$DIMSTYLE
  2
STANDARD
  9
$DIMCLRD
 70
     0
  9
$DIMCLRE
 70
     0
  9
$DIMCLRT
 70
     0
  9
$DIMTFAC
 40
1.0
  9
$DIMGAP
 40
0.09
  9
$LUNITS
 70
     2
  9
$LUPREC
 70
     4
  9
$SKETCHINC
 40
0.1
  9
$FILLETRAD
 40
0.0
  9
$AUNITS
 70
     0
  9
$AUPREC
 70
     0
  9
$MENU
  1
.
  9
$ELEVATION
 40
0.0
  9
$PELEVATION
 40
0.0
  9
$THICKNESS
 40
0.0
  9
$LIMCHECK
 70
     0
  9
$BLIPMODE
 70
     0
  9
$CHAMFERA
 40
0.0
  9
$CHAMFERB
 40
0.0
  9
$SKPOLY
 70
     0
  9
$TDCREATE
 40
2458060.468368056230247
  9
$TDUPDATE
 40
2459804.6652199071832001
  9
$TDINDWG
 40
0.3774028935
  9
$TDUSRTIMER
 40
0.3774028935
  9
$USRTIMER
 70
     1
  9
$ANGBASE
 50
0.0
  9
$ANGDIR
 70
     0
  9
$PDMODE
 70
     0
  9
$PDSIZE
 40
0.3125
  9
$PLINEWID
 40
0.0
  9
$COORDS
 70
     1
  9
$SPLFRAME
 70
     0
  9
$SPLINETYPE
 70
     6
  9
$SPLINESEGS
 70
     8
  9
$ATTDIA
 70
     1
  9
$ATTREQ
 70
     1
  9
$HANDLING
 70
     1
  9
$HANDSEED
  5
8FEA
  9
$SURFTAB1
 70
     6
  9
$SURFTAB2
 70
     6
  9
$SURFTYPE
 70
     6
  9
$SURFU
 70
     6
  9
$SURFV
 70
     6
  9
$UCSNAME
  2

  9
$UCSORG
 10
0.0
 20
0.0
 30
0.0
  9
$UCSXDIR
 10
1.0
 20
0.0
 30
0.0
  9
$UCSYDIR
 10
0.0
 20
1.0
 30
0.0
  9
$PUCSNAME
  2

  9
$PUCSORG
 10
0.0
 20
0.0
 30
0.0
  9
$PUCSXDIR
 10
1.0
 20
0.0
 30
0.0
  9
$PUCSYDIR
 10
0.0
 20
1.0
 30
0.0
  9
$USERI1
 70
     0
  9
$USERI2
 70
     0
  9
$USERI3
 70
     0
  9
$USERI4
 70
     0
  9
$USERI5
 70
     0
  9
$USERR1
 40
0.0
  9
$USERR2
 40
0.0
  9
$USERR3
 40
0.0
  9
$USERR4
 40
0.0
  9
$USERR5
 40
0.0
  9
$WORLDVIEW
 70
     1
  9
$SHADEDGE
 70
     3
  9
$SHADEDIF
 70
    70
  9
$TILEMODE
 70
     1
  9
$MAXACTVP
 70
    64
  9
$PLIMCHECK
 70
     0
  9
$PEXTMIN
 10
1.0000000000000000E+20
 20
1.0000000000000000E+20
 30
1.0000000000000000E+20
  9
$PEXTMAX
 10
-1.0000000000000000E+20
 20
-1.0000000000000000E+20
 30
-1.0000000000000000E+20
  9
$PLIMMIN
 10
0.0
 20
0.0
  9
$PLIMMAX
 10
12.0
 20
9.0
  9
$UNITMODE
 70
     0
  9
$VISRETAIN
 70
     1
  9
$PLINEGEN
 70
     0
  9
$PSLTSCALE
 70
     1
  0
ENDSEC
  0
SECTION
  2
TABLES
  0
TABLE
  2
VPORT
 70
     1
  0
VPORT
  2
*ACTIVE
 70
     0
 10
0.0
 20
0.0
 11
1.0
 21
1.0
 12
-38.2084141139341682
 22
-32.7330868730289666
 13
0.0
 23
0.0
 14
1.0
 24
1.0
 15
0.0
 25
0.0
 16
0.0
 26
0.0
 36
50.1863853749498219
 17
3869.302490234375
 27
130.1713453559245863
 37
0.0
 40
31.7215717964400916
 41
2.2831541218637992
 42
50.0
 43
0.0
 44
0.0
 50
0.0
 51
0.0
 71
     0
 72
   100
 73
     1
 74
     1
 75
     0
 76
     0
 77
     0
 78
     0
  0
ENDTAB
  0
TABLE
  2
LTYPE
 70
     2
  0
LTYPE
  2
CONTINUOUS
 70
     0
  3
Solid line
 72
    65
 73
     0
 40
0.0
  0
LTYPE
  2
PHANTOM2
 70
     0
  3
___ _ _ ___ _ _ ___ _ _ ___ _ _
 72
    65
 73
     6
 40
1.25
 49
0.625
 49
-0.125
 49
0.125
 49
-0.125
 49
0.125
 49
-0.125
  0
ENDTAB
  0
TABLE
  2
LAYER
 70
     2
  0
LAYER
  2
0
 70
     0
 62
   255
  6
CONTINUOUS
  0
LAYER
  2
DEFPOINTS
 70
     0
 62
     7
  6
CONTINUOUS
  0
ENDTAB
  0
TABLE
  2
STYLE
 70
     1
  0
STYLE
  2
STANDARD
 70
     0
 40
0.0
 41
0.8
 50
0.0
 71
     0
 42
0.2
  3
txt
  4

  0
ENDTAB
  0
TABLE
  2
VIEW
 70
     0
  0
ENDTAB
  0
TABLE
  2
UCS
 70
     0
  0
ENDTAB
  0
TABLE
  2
APPID
 70
     9
  0
APPID
  2
ACAD
 70
     0
  0
APPID
  2
ACAD_MLEADERVER
 70
     0
  0
APPID
  2
ACAD_EXEMPT_FROM_CAD_STANDARDS
 70
     0
  0
APPID
  2
ACAD_NAV_VCDISPLAY
 70
     0
  0
APPID
  2
ACAECLAYERSTANDARD
 70
     0
  0
APPID
  2
ACCMTRANSPARENCY
 70
     0
  0
APPID
  2
ACAD_DSTYLE_DIMJAG
 70
     0
  0
APPID
  2
ACAD_DSTYLE_DIMTALN
 70
     0
  0
APPID
  2
ACDBATTR
 70
     0
  0
ENDTAB
  0
TABLE
  2
DIMSTYLE
 70
     1
  0
DIMSTYLE
  2
STANDARD
 70
     0
  3

  4

  5

  6

  7

 40
1.0
 41
0.1875
 42
0.0625
 43
0.38
 44
0.125
 45
0.0
 46
0.0
 47
0.01
 48
0.01
140
0.15625
141
0.09
142
0.0
143
25.3999999999999986
144
1.0
145
0.0
146
1.0
147
0.09
 71
     1
 72
     0
 73
     1
 74
     1
 75
     0
 76
     0
 77
     0
 78
     4
170
     0
171
     2
172
     0
173
     0
174
     0
175
     0
176
     0
177
     0
178
     0
  0
ENDTAB
  0
ENDSEC
  0
SECTION
  2
BLOCKS
  0
BLOCK
  8
0
  2
$MODEL_SPACE
 70
     0
 10
0.0
 20
0.0
 30
0.0
  3
$MODEL_SPACE
  1

  0
ENDBLK
  5
21
  8
0
  0
BLOCK
 67
     1
  8
0
  2
$PAPER_SPACE
 70
     0
 10
0.0
 20
0.0
 30
0.0
  3
$PAPER_SPACE
  1

  0
ENDBLK
  5
1D
 67
     1
  8
0
  0
BLOCK
  8
0
  2
_FILLED
 70
     0
 10
0.0
 20
0.0
 30
0.0
  3
_FILLED
  1

  0
SOLID
  5
8AF9
  8
0
  6
BYBLOCK
 62
     0
 10
0.0
 20
0.0
 30
0.0
 11
-1.0
 21
0.1666666667
 31
0.0
 12
-1.0
 22
-0.1666666667
 32
0.0
 13
-1.0
 23
-0.1666666667
 33
0.0
  0
ENDBLK
  5
8AFA
  8
0
  6
BYBLOCK
 62
     0
  0
ENDSEC
  0
SECTION
  2
ENTITIES
  0
ATTDEF
  5
88E6
  8
DEFPOINTS
 10
3833.5496969394830558
 20
97.4427329790358385
 30
0.0
 40
0.001
  1
K-26380T
  3

  2
MODELNUMBER
 70
     0
1001
ACDBATTR
1070
     0
1070
     1
  0
ATTDEF
  5
88E7
  8
DEFPOINTS
 10
3833.5496969394830558
 20
97.4410663123691734
 30
0.0
 40
0.001
  1

  3

  2
TRADENAME
 70
     0
1001
ACDBATTR
1070
     0
1070
     1
  0
ATTDEF
  5
88E8
  8
DEFPOINTS
 10
3833.5496969394830558
 20
97.4393996457025224
 30
0.0
 40
0.001
  1
MEDICINE CABINET
  3

  2
PRODUCT
 70
     0
1001
ACDBATTR
1070
     0
1070
     1
  0
LINE
  5
8B28
  8
0
 10
3828.6612532017311423
 20
113.1862899789957027
 30
0.0
 11
3833.4309382410310718
 21
113.1862899789957027
 31
0.0
  0
LINE
  5
8B29
  8
0
 10
3828.6277886347311323
 20
113.1272348607956957
 30
0.0
 11
3830.2025917843311618
 21
113.1272348607956957
 31
0.0
  0
LINE
  5
8B2A
  8
0
 10
3828.6612532017311423
 20
81.6902269867957074
 30
0.0
 11
3833.4309382410310718
 21
81.6902269867957074
 31
0.0
  0
LINE
  5
8B2B
  8
0
 10
3828.6277886347311323
 20
81.7492821048957126
 30
0.0
 11
3830.2025917843311618
 21
81.7492821048957126
 31
0.0
  0
LINE
  5
8B2C
  8
0
 10
3828.6336941465319796
 20
113.1272348607956957
 30
0.0
 11
3828.6337700836611475
 21
113.1607753648252981
 31
0.0
  0
ARC
  5
8B2D
  8
0
 10
3828.6612532019121318
 20
113.1587309237085037
 30
0.0
 40
0.0275590552871741
 50
90.0000003767307533
 51
175.7456613329069057
  0
LINE
  5
8B2E
  8
0
 10
3828.6337700836611475
 20
113.1607753648252981
 30
0.0
 11
3828.6277886347311323
 21
113.1547939159956968
 31
0.0
  0
LINE
  5
8B2F
  8
0
 10
3828.6277886347311323
 20
113.1547939159956968
 30
0.0
 11
3828.6277886347311323
 21
81.7217230497957132
 31
0.0
  0
LINE
  5
8B30
  8
0
 10
3828.6277886347311323
 20
81.7217230497957132
 30
0.0
 11
3828.6337735244310352
 21
81.7157381600957109
 31
0.0
  0
LINE
  5
8B31
  8
0
 10
3828.6336941465319796
 20
81.7492821048957126
 30
0.0
 11
3828.6336941466311146
 21
81.7177860418081963
 31
0.0
  0
ARC
  5
8B32
  8
0
 10
3828.6612532017311423
 20
81.7177860418957067
 30
0.0
 40
0.0275590550999994
 50
180.000000181911787
 51
270.0
  0
ARC
  5
8B33
  8
0
 10
3830.1664043882060469
 20
81.7205124008910246
 30
0.0
 40
0.030404367312347
 50
275.0699004988618981
 51
354.8553784527712764
  0
LINE
  5
8B34
  8
0
 10
3830.1966862725312239
 20
81.7177860418957067
 30
0.0
 11
3830.1966862989329456
 21
81.7492821048956984
 31
0.0
  0
LINE
  5
8B35
  8
0
 10
3830.1947177686311079
 20
81.7094318756076774
 30
0.0
 11
3830.1947177686311079
 21
81.6902269867957074
 31
0.0
  0
LINE
  5
8B36
  8
0
 10
3830.2025917843311618
 20
81.6902269867957074
 30
0.0
 11
3830.2025917843311618
 21
113.146919900195698
 31
0.0
  0
LINE
  5
8B37
  8
0
 10
3830.2025917843311618
 20
113.146919900195698
 30
0.0
 11
3830.2419618631461162
 21
113.1862899789957027
 31
0.0
  0
LINE
  5
8B38
  8
0
 10
3830.1966862725312239
 20
113.1272348607956957
 30
0.0
 11
3830.1966862725312239
 21
113.1587309237957015
 31
0.0
  0
ARC
  5
8B39
  8
0
 10
3830.1691272172602112
 20
113.1587309237250025
 30
0.0
 40
0.0275590552707144
 50
0.0000001470216236
 51
89.9999996450773665
  0
LINE
  5
8B3A
  8
0
 10
3830.1632217056308036
 20
113.1272348607956957
 30
0.0
 11
3830.1632217056308036
 21
81.7492821048957126
 31
0.0
  0
LINE
  5
8B3B
  8
0
 10
3830.2025917843311618
 20
81.7295970655956978
 30
0.0
 11
3830.2419618631302001
 21
81.6902269867957074
 31
0.0
  0
LINE
  5
8B3C
  8
0
 10
3830.2222768237311357
 20
81.7099120261957097
 30
0.0
 11
3830.2419618631302001
 21
81.7295970655956978
 31
0.0
  0
LINE
  5
8B3D
  8
0
 10
3830.2419618631302001
 20
81.7295970655956978
 30
0.0
 11
3830.2419618631302001
 21
113.146919900195698
 31
0.0
  0
LINE
  5
8B3E
  8
0
 10
3830.2419618631302001
 20
113.146919900195698
 30
0.0
 11
3830.2222768237311357
 21
113.1666049395457065
 31
0.0
  0
LINE
  5
8B3F
  8
0
 10
3830.2419618631302001
 20
113.146919900195698
 30
0.0
 11
3833.4309382410310718
 21
113.146919900195698
 31
0.0
  0
LINE
  5
8B40
  8
0
 10
3833.4309382410310718
 20
113.146919900195698
 30
0.0
 11
3833.4506232804310457
 21
113.1666049395457065
 31
0.0
  0
LINE
  5
8B41
  8
0
 10
3833.4309382410310718
 20
113.1862899789957027
 30
0.0
 11
3833.4703083198319291
 21
113.146919900195698
 31
0.0
  0
LINE
  5
8B42
  8
0
 10
3833.4703083198319291
 20
113.146919900195698
 30
0.0
 11
3833.4703083198319291
 21
81.7295970655956978
 31
0.0
  0
LINE
  5
8B43
  8
0
 10
3833.4703083198319291
 20
81.7295970655956978
 30
0.0
 11
3833.4309382410310718
 21
81.6902269867957074
 31
0.0
  0
LINE
  5
8B44
  8
0
 10
3833.4506232804310457
 20
81.7099120261957097
 30
0.0
 11
3833.4309382410310718
 21
81.7295970655956978
 31
0.0
  0
LINE
  5
8B45
  8
0
 10
3833.4309382410310718
 20
81.7295970655956978
 30
0.0
 11
3830.2419618631302001
 21
81.7295970655956978
 31
0.0
  0
LINE
  5
8B46
  8
0
 10
3833.4309382410310718
 20
81.7295970655956978
 30
0.0
 11
3833.4309382410310718
 21
113.146919900195698
 31
0.0
  0
LINE
  5
8B47
  8
0
 10
3833.4703083198319291
 20
113.0347151757956965
 30
0.0
 11
3833.5352689497308347
 21
113.0347151757956965
 31
0.0
  0
ARC
  5
8B48
  8
0
 10
3833.5352689497308347
 20
113.0150301363956942
 30
0.0
 40
0.0196850393999988
 50
0.0
 51
90.0
  0
LINE
  5
8B49
  8
0
 10
3833.5490484773308708
 20
81.9264474592957015
 30
0.0
 11
3833.4703083198319291
 21
81.9264474592957015
 31
0.0
  0
LINE
  5
8B4A
  8
0
 10
3833.4703083198319291
 20
112.9500695064956943
 30
0.0
 11
3833.5490484773308708
 21
112.9500695064956943
 31
0.0
  0
ARC
  5
8B4B
  8
0
 10
3833.5173698648882237
 20
112.5814189630893054
 30
0.0
 40
0.0375696184207938
 50
327.5799946589896763
 51
358.7555843023665147
  0
LINE
  5
8B4C
  8
0
 10
3833.5490484773308708
 20
81.9264474592957015
 30
0.0
 11
3833.5490484773308708
 21
112.9500695064956943
 31
0.0
  0
LINE
  5
8B4D
  8
0
 10
3833.5549539891308086
 20
113.0150301363956942
 30
0.0
 11
3833.5549306224579595
 21
112.580603047017803
 31
0.0
  0
ENDSEC
  0
EOF
