  0
SECTION
  2
HEADER
  9
$ACADVER
  1
AC1009
  9
$INSBASE
 10
4096.911750494212356
 20
112.3208801215547936
 30
0.0
  9
$EXTMIN
 10
4087.3113693701229749
 20
107.3948871558367983
 30
-0.0000000000112498
  9
$EXTMAX
 10
4106.4232485156508119
 20
112.3225945775154031
 30
0.0000000000002956
  9
$LIMMIN
 10
0.0
 20
0.0
  9
$LIMMAX
 10
11.6929133858000007
 20
8.2677165353999982
  9
$ORTHOMODE
 70
     0
  9
$REGENMODE
 70
     1
  9
$FILLMODE
 70
     1
  9
$QTEXTMODE
 70
     0
  9
$MIRRTEXT
 70
     0
  9
$DRAGMODE
 70
     2
  9
$LTSCALE
 40
0.6431102362
  9
$OSMODE
 70
  4095
  9
$ATTMODE
 70
     1
  9
$TEXTSIZE
 40
0.2
  9
$TRACEWID
 40
0.05
  9
$TEXTSTYLE
  7
STANDARD
  9
$CLAYER
  8
0
  9
$CELTYPE
  6
BYLAYER
  9
$CECOLOR
 62
   256
  9
$DIMSCALE
 40
1.0
  9
$DIMASZ
 40
0.1875
  9
$DIMEXO
 40
0.0625
  9
$DIMDLI
 40
0.4443307087
  9
$DIMRND
 40
0.0
  9
$DIMDLE
 40
0.0
  9
$DIMEXE
 40
0.125
  9
$DIMTP
 40
0.01
  9
$DIMTM
 40
0.01
  9
$DIMTXT
 40
2.0
  9
$DIMCEN
 40
0.1052362205
  9
$DIMTSZ
 40
0.0
  9
$DIMTOL
 70
     1
  9
$DIMLIM
 70
     0
  9
$DIMTIH
 70
     1
  9
$DIMTOH
 70
     1
  9
$DIMSE1
 70
     0
  9
$DIMSE2
 70
     0
  9
$DIMTAD
 70
     0
  9
$DIMZIN
 70
     0
  9
$DIMBLK
  1

  9
$DIMASO
 70
     1
  9
$DIMSHO
 70
     1
  9
$DIMPOST
  1
\X
  9
$DIMAPOST
  1

  9
$DIMALT
 70
     1
  9
$DIMALTD
 70
     2
  9
$DIMALTF
 40
25.3999999999999986
  9
$DIMLFAC
 40
1.0
  9
$DIMTOFL
 70
     0
  9
$DIMTVP
 40
0.0
  9
$DIMTIX
 70
     0
  9
$DIMSOXD
 70
     0
  9
$DIMSAH
 70
     0
  9
$DIMBLK1
  1

  9
$DIMBLK2
  1

  9
$DIMSTYLE
  2
STANDARD
  9
$DIMCLRD
 70
     0
  9
$DIMCLRE
 70
     0
  9
$DIMCLRT
 70
     0
  9
$DIMTFAC
 40
1.0
  9
$DIMGAP
 40
0.09
  9
$LUNITS
 70
     2
  9
$LUPREC
 70
     4
  9
$SKETCHINC
 40
0.1
  9
$FILLETRAD
 40
0.0
  9
$AUNITS
 70
     0
  9
$AUPREC
 70
     0
  9
$MENU
  1
.
  9
$ELEVATION
 40
0.0
  9
$PELEVATION
 40
0.0
  9
$THICKNESS
 40
0.0
  9
$LIMCHECK
 70
     0
  9
$BLIPMODE
 70
     0
  9
$CHAMFERA
 40
0.0
  9
$CHAMFERB
 40
0.0
  9
$SKPOLY
 70
     0
  9
$TDCREATE
 40
2458060.468368056230247
  9
$TDUPDATE
 40
2459822.5005439817905426
  9
$TDINDWG
 40
0.3992778935
  9
$TDUSRTIMER
 40
0.3992778935
  9
$USRTIMER
 70
     1
  9
$ANGBASE
 50
0.0
  9
$ANGDIR
 70
     0
  9
$PDMODE
 70
     0
  9
$PDSIZE
 40
0.3125
  9
$PLINEWID
 40
0.0
  9
$COORDS
 70
     1
  9
$SPLFRAME
 70
     0
  9
$SPLINETYPE
 70
     6
  9
$SPLINESEGS
 70
     8
  9
$ATTDIA
 70
     1
  9
$ATTREQ
 70
     1
  9
$HANDLING
 70
     1
  9
$HANDSEED
  5
B195
  9
$SURFTAB1
 70
     6
  9
$SURFTAB2
 70
     6
  9
$SURFTYPE
 70
     6
  9
$SURFU
 70
     6
  9
$SURFV
 70
     6
  9
$UCSNAME
  2

  9
$UCSORG
 10
0.0
 20
0.0
 30
0.0
  9
$UCSXDIR
 10
1.0
 20
0.0
 30
0.0
  9
$UCSYDIR
 10
0.0
 20
1.0
 30
0.0
  9
$PUCSNAME
  2

  9
$PUCSORG
 10
0.0
 20
0.0
 30
0.0
  9
$PUCSXDIR
 10
1.0
 20
0.0
 30
0.0
  9
$PUCSYDIR
 10
0.0
 20
1.0
 30
0.0
  9
$USERI1
 70
     0
  9
$USERI2
 70
     0
  9
$USERI3
 70
     0
  9
$USERI4
 70
     0
  9
$USERI5
 70
     0
  9
$USERR1
 40
0.0
  9
$USERR2
 40
0.0
  9
$USERR3
 40
0.0
  9
$USERR4
 40
0.0
  9
$USERR5
 40
0.0
  9
$WORLDVIEW
 70
     1
  9
$SHADEDGE
 70
     3
  9
$SHADEDIF
 70
    70
  9
$TILEMODE
 70
     1
  9
$MAXACTVP
 70
    64
  9
$PLIMCHECK
 70
     0
  9
$PEXTMIN
 10
1.0000000000000000E+20
 20
1.0000000000000000E+20
 30
1.0000000000000000E+20
  9
$PEXTMAX
 10
-1.0000000000000000E+20
 20
-1.0000000000000000E+20
 30
-1.0000000000000000E+20
  9
$PLIMMIN
 10
0.0
 20
0.0
  9
$PLIMMAX
 10
12.0
 20
9.0
  9
$UNITMODE
 70
     0
  9
$VISRETAIN
 70
     1
  9
$PLINEGEN
 70
     0
  9
$PSLTSCALE
 70
     1
  0
ENDSEC
  0
SECTION
  2
TABLES
  0
TABLE
  2
VPORT
 70
     1
  0
VPORT
  2
*ACTIVE
 70
     0
 10
0.0
 20
0.0
 11
1.0
 21
1.0
 12
227.564818708512604
 22
-20.3126044892485211
 13
0.0
 23
0.0
 14
1.0
 24
1.0
 15
0.0
 25
0.0
 16
0.0
 26
0.0
 36
50.1863853749498219
 17
3869.302490234375
 27
130.1713453559245863
 37
0.0
 40
9.3842930771793931
 41
2.0416666666666661
 42
50.0
 43
0.0
 44
0.0
 50
0.0
 51
0.0
 71
     0
 72
   100
 73
     1
 74
     1
 75
     0
 76
     0
 77
     0
 78
     0
  0
ENDTAB
  0
TABLE
  2
LTYPE
 70
     2
  0
LTYPE
  2
CONTINUOUS
 70
     0
  3
Solid line
 72
    65
 73
     0
 40
0.0
  0
LTYPE
  2
PHANTOM2
 70
     0
  3
___ _ _ ___ _ _ ___ _ _ ___ _ _
 72
    65
 73
     6
 40
1.25
 49
0.625
 49
-0.125
 49
0.125
 49
-0.125
 49
0.125
 49
-0.125
  0
ENDTAB
  0
TABLE
  2
LAYER
 70
     2
  0
LAYER
  2
0
 70
     0
 62
   255
  6
CONTINUOUS
  0
LAYER
  2
DEFPOINTS
 70
     0
 62
     7
  6
CONTINUOUS
  0
ENDTAB
  0
TABLE
  2
STYLE
 70
     1
  0
STYLE
  2
STANDARD
 70
     0
 40
0.0
 41
0.8
 50
0.0
 71
     0
 42
0.2
  3
txt
  4

  0
ENDTAB
  0
TABLE
  2
VIEW
 70
     0
  0
ENDTAB
  0
TABLE
  2
UCS
 70
     0
  0
ENDTAB
  0
TABLE
  2
APPID
 70
     9
  0
APPID
  2
ACAD
 70
     0
  0
APPID
  2
ACAD_MLEADERVER
 70
     0
  0
APPID
  2
ACAD_EXEMPT_FROM_CAD_STANDARDS
 70
     0
  0
APPID
  2
ACAD_NAV_VCDISPLAY
 70
     0
  0
APPID
  2
ACAECLAYERSTANDARD
 70
     0
  0
APPID
  2
ACCMTRANSPARENCY
 70
     0
  0
APPID
  2
ACAD_DSTYLE_DIMJAG
 70
     0
  0
APPID
  2
ACAD_DSTYLE_DIMTALN
 70
     0
  0
APPID
  2
ACDBATTR
 70
     0
  0
ENDTAB
  0
TABLE
  2
DIMSTYLE
 70
     1
  0
DIMSTYLE
  2
STANDARD
 70
     0
  3

  4

  5

  6

  7

 40
1.0
 41
0.1875
 42
0.0625
 43
0.38
 44
0.125
 45
0.0
 46
0.0
 47
0.01
 48
0.01
140
0.15625
141
0.09
142
0.0
143
25.3999999999999986
144
1.0
145
0.0
146
1.0
147
0.09
 71
     1
 72
     0
 73
     1
 74
     1
 75
     0
 76
     0
 77
     0
 78
     4
170
     0
171
     2
172
     0
173
     0
174
     0
175
     0
176
     0
177
     0
178
     0
  0
ENDTAB
  0
ENDSEC
  0
SECTION
  2
BLOCKS
  0
BLOCK
  8
0
  2
$MODEL_SPACE
 70
     0
 10
0.0
 20
0.0
 30
0.0
  3
$MODEL_SPACE
  1

  0
ENDBLK
  5
21
  8
0
  0
BLOCK
 67
     1
  8
0
  2
$PAPER_SPACE
 70
     0
 10
0.0
 20
0.0
 30
0.0
  3
$PAPER_SPACE
  1

  0
ENDBLK
  5
1D
 67
     1
  8
0
  0
ENDSEC
  0
SECTION
  2
ENTITIES
  0
ATTDEF
  5
A4C0
  8
DEFPOINTS
 10
4096.9071949344643144
 20
112.3180381381494044
 30
0.0
 40
0.001
  1
K-26381T-L
  3

  2
MODELNUMBER
 70
     0
1001
ACDBATTR
1070
     0
1070
     1
  0
ATTDEF
  5
A4C1
  8
DEFPOINTS
 10
4096.9071949344643144
 20
112.3163714714826966
 30
0.0
 40
0.001
  1
VERDERA 2.0
  3

  2
TRADENAME
 70
     0
1001
ACDBATTR
1070
     0
1070
     1
  0
ATTDEF
  5
A4C2
  8
DEFPOINTS
 10
4096.9071949344643144
 20
112.3147048048161025
 30
0.0
 40
0.001
  1
MEDICINE CABINET
  3

  2
PRODUCT
 70
     0
1001
ACDBATTR
1070
     0
1070
     1
  0
LINE
  5
ADF7
  8
0
 10
4087.4629315965130445
 20
108.9350533498547975
 30
0.0
 11
4087.4629315965130445
 21
107.438990357754804
 31
0.0
  0
LINE
  5
ADF8
  8
0
 10
4087.4629315965130445
 20
109.013793507354805
 30
0.0
 11
4087.4629315965130445
 21
112.2027698852547957
 31
0.0
  0
LINE
  5
ADF9
  8
0
 10
4087.4688371084130267
 20
107.4527698852547957
 30
0.0
 11
4087.4688371084130267
 21
108.9212738223548058
 31
0.0
  0
LINE
  5
ADFA
  8
0
 10
4087.5023016753120828
 20
109.013793507354805
 30
0.0
 11
4087.5023016753120828
 21
112.2027698852547957
 31
0.0
  0
LINE
  5
ADFB
  8
0
 10
4087.5416717540128957
 20
112.2027698852547957
 30
0.0
 11
4087.5416717540128957
 21
109.013793507354805
 31
0.0
  0
LINE
  5
ADFC
  8
0
 10
4087.581041832811934
 20
112.2027698852547957
 30
0.0
 11
4087.581041832811934
 21
109.013793507354805
 31
0.0
  0
LINE
  5
ADFD
  8
0
 10
4087.939309549311929
 20
108.9744234286548021
 30
0.0
 11
4087.939309549311929
 21
109.0334785467547931
 31
0.0
  0
LINE
  5
ADFE
  8
0
 10
4088.0141126989128679
 20
108.9744234286548021
 30
0.0
 11
4088.0141126989128679
 21
109.0531635860547937
 31
0.0
  0
LINE
  5
ADFF
  8
0
 10
4088.0928528564118096
 20
109.0531635860547937
 30
0.0
 11
4088.0928528564118096
 21
109.0925336648547983
 31
0.0
  0
LINE
  5
AE00
  8
0
 10
4088.4078134863120795
 20
109.0933324535547939
 30
0.0
 11
4088.4078134863120795
 21
109.0531635860547937
 31
0.0
  0
LINE
  5
AE01
  8
0
 10
4088.7385221477129562
 20
110.523330999654803
 30
0.0
 11
4088.7385221477129562
 21
110.4076223382547965
 31
0.0
  0
LINE
  5
AE02
  8
0
 10
4088.7385221477129562
 20
110.3925589965547971
 30
0.0
 11
4088.7385221477129562
 21
110.2744487603548009
 31
0.0
  0
LINE
  5
AE03
  8
0
 10
4089.0318292343122266
 20
108.9212738223548058
 30
0.0
 11
4089.0318292343122266
 21
107.4527698852547957
 31
0.0
  0
LINE
  5
AE04
  8
0
 10
4089.0377347462122088
 20
107.438990357754804
 30
0.0
 11
4089.0377347462122088
 21
108.4035572868548059
 31
0.0
  0
LINE
  5
AE05
  8
0
 10
4089.0377347462122088
 20
108.4035572868548059
 30
0.0
 11
4089.0377347462122088
 21
108.5610376018548067
 31
0.0
  0
LINE
  5
AE06
  8
0
 10
4089.0377347462122088
 20
108.5610376018548067
 30
0.0
 11
4089.0377347462122088
 21
108.9350533498547975
 31
0.0
  0
LINE
  5
AE07
  8
0
 10
4089.0967898643129956
 20
107.4311163419548052
 30
0.0
 11
4089.0967898643129956
 21
107.4862344522548057
 31
0.0
  0
LINE
  5
AE08
  8
0
 10
4089.1007268721118635
 20
108.498045475854795
 30
0.0
 11
4089.1007268721118635
 21
108.4665494128548033
 31
0.0
  0
LINE
  5
AE09
  8
0
 10
4089.1361599430119895
 20
107.5177305152547973
 30
0.0
 11
4089.1361599430119895
 21
108.147651775054797
 31
0.0
  0
LINE
  5
AE0A
  8
0
 10
4089.1755300217118929
 20
108.5610376018548067
 30
0.0
 11
4089.1755300217118929
 21
108.5374155545547978
 31
0.0
  0
LINE
  5
AE0B
  8
0
 10
4089.234585139812225
 20
108.6200927199547976
 30
0.0
 11
4089.234585139812225
 21
112.0846596490547995
 31
0.0
  0
LINE
  5
AE0C
  8
0
 10
4089.3115929372129358
 20
108.2628655790548038
 30
0.0
 11
4089.3115929372129358
 21
108.147651775054797
 31
0.0
  0
LINE
  5
AE0D
  8
0
 10
4089.3288916419128327
 20
108.2628655790548038
 30
0.0
 11
4089.3288916419128327
 21
108.2431805396548015
 31
0.0
  0
LINE
  5
AE0E
  8
0
 10
4089.5495457698120845
 20
112.0846596490547995
 30
0.0
 11
4089.5495457698120845
 21
112.3011950821548055
 31
0.0
  0
LINE
  5
AE0F
  8
0
 10
4089.6125378958131478
 20
112.3011950821548055
 30
0.0
 11
4089.6125378958131478
 21
112.0846596490547995
 31
0.0
  0
LINE
  5
AE10
  8
0
 10
4089.9589945887119029
 20
108.6200927199547976
 30
0.0
 11
4089.9589945887119029
 21
108.4665494128548033
 31
0.0
  0
LINE
  5
AE11
  8
0
 10
4090.0219867147120567
 20
108.3838722474548035
 30
0.0
 11
4090.0219867147120567
 21
108.580722641154793
 31
0.0
  0
LINE
  5
AE12
  8
0
 10
4090.0219867147120567
 20
108.4035572868548059
 30
0.0
 11
4090.0219867147120567
 21
108.6200927199547976
 31
0.0
  0
LINE
  5
AE13
  8
0
 10
4090.1348212836119274
 20
108.2431805396548015
 30
0.0
 11
4090.1348212836119274
 21
108.3612907758547976
 31
0.0
  0
LINE
  5
AE14
  8
0
 10
4087.5023016753120828
 20
112.2421399640548003
 30
0.0
 11
4087.4629315965130445
 21
112.2027698852547957
 31
0.0
  0
LINE
  5
AE15
  8
0
 10
4087.5416717540128957
 20
112.2027698852547957
 30
0.0
 11
4087.5613567934128696
 21
112.222454924654798
 31
0.0
  0
LINE
  5
AE16
  8
0
 10
4090.1791357508132023
 20
108.3612907758547976
 30
0.0
 11
4090.1735750263119371
 21
108.3838722474548035
 31
0.0
  0
LINE
  5
AE17
  8
0
 10
4090.8785220710128669
 20
108.2431805396548015
 30
0.0
 11
4090.8785220710128669
 21
108.147651775054797
 31
0.0
  0
LINE
  5
AE18
  8
0
 10
4091.0009630159129301
 20
108.3612907758547976
 30
0.0
 11
4091.0009630159129301
 21
108.2431805396548015
 31
0.0
  0
LINE
  5
AE19
  8
0
 10
4087.5023016753120828
 20
108.9744234285548004
 30
0.0
 11
4087.4629315965130445
 21
109.013793507354805
 31
0.0
  0
LINE
  5
AE1A
  8
0
 10
4089.0967898643129956
 20
107.4311163419548052
 30
0.0
 11
4089.1282859273119357
 21
107.3996202789547993
 31
0.0
  0
LINE
  5
AE1B
  8
0
 10
4087.5613567934128696
 20
108.9941084679548027
 30
0.0
 11
4087.5416717540128957
 21
109.013793507354805
 31
0.0
  0
LINE
  5
AE1C
  8
0
 10
4087.5023016753120828
 20
109.013793507354805
 30
0.0
 11
4087.4826166359121089
 21
108.9941084679548027
 31
0.0
  0
LINE
  5
AE1D
  8
0
 10
4087.5416717540128957
 20
108.9744234285548004
 30
0.0
 11
4087.581041832811934
 21
109.013793507354805
 31
0.0
  0
LINE
  5
AE1E
  8
0
 10
4087.5023016753120828
 20
112.2027698852547957
 30
0.0
 11
4087.4826166359121089
 21
112.222454924654798
 31
0.0
  0
LINE
  5
AE1F
  8
0
 10
4087.581041832811934
 20
112.2027698852547957
 30
0.0
 11
4087.5416717540128957
 21
112.2421399640548003
 31
0.0
  0
LINE
  5
AE20
  8
0
 10
4089.0967898643129956
 20
107.4862344522548057
 30
0.0
 11
4089.1282859273119357
 21
107.5177305152547973
 31
0.0
  0
LINE
  5
AE21
  8
0
 10
4089.7639877757128488
 20
110.3966281949548005
 30
0.0
 11
4089.7533666746130621
 21
110.3904960993548059
 31
0.0
  0
LINE
  5
AE22
  8
0
 10
4088.1715930139130251
 20
109.0531635860547937
 30
0.0
 11
4088.1912780532129545
 21
109.0452895703547966
 31
0.0
  0
LINE
  5
AE23
  8
0
 10
4089.752431284613067
 20
110.314796317354805
 30
0.0
 11
4089.763982643512918
 21
110.3081271371547984
 31
0.0
  0
LINE
  5
AE24
  8
0
 10
4088.7424591556118685
 20
109.0531635860547937
 30
0.0
 11
4088.7621441950132066
 21
109.0452895703547966
 31
0.0
  0
LINE
  5
AE25
  8
0
 10
4090.0860365715120679
 20
108.2628655790548038
 30
0.0
 11
4090.1348212836119274
 21
108.2897228394547966
 31
0.0
  0
LINE
  5
AE26
  8
0
 10
4088.1912780532129545
 20
109.0452895703547966
 30
0.0
 11
4088.210963092612019
 21
109.0531635860547937
 31
0.0
  0
LINE
  5
AE27
  8
0
 10
4088.7621441950132066
 20
109.0452895703547966
 30
0.0
 11
4088.7818292343131361
 21
109.0531635860547937
 31
0.0
  0
LINE
  5
AE28
  8
0
 10
4106.3211993130116753
 20
107.3996202789547993
 30
0.0
 11
4104.8251363209128613
 21
107.3996202789547993
 31
0.0
  0
LINE
  5
AE29
  8
0
 10
4104.6952150611123216
 20
107.3996202789547993
 30
0.0
 11
4089.1282859273119357
 21
107.3996202789547993
 31
0.0
  0
LINE
  5
AE2A
  8
0
 10
4087.5023016753120828
 20
107.3996202789547993
 30
0.0
 11
4088.9983646674118063
 21
107.3996202789547993
 31
0.0
  0
LINE
  5
AE2B
  8
0
 10
4106.3074197856130922
 20
107.405525790754794
 30
0.0
 11
4104.8389158485124426
 21
107.405525790754794
 31
0.0
  0
LINE
  5
AE2C
  8
0
 10
4088.9845851399131789
 20
107.4055257908547958
 30
0.0
 11
4087.516081202812984
 21
107.4055257908547958
 31
0.0
  0
LINE
  5
AE2D
  8
0
 10
4104.7267111241117163
 20
107.4311163419548052
 30
0.0
 11
4089.0967898643129956
 21
107.4311163419548052
 31
0.0
  0
LINE
  5
AE2E
  8
0
 10
4089.0967898643129956
 20
107.4862344522548057
 30
0.0
 11
4104.7267111241117163
 21
107.4862344522548057
 31
0.0
  0
LINE
  5
AE2F
  8
0
 10
4089.1282859273119357
 20
107.5177305152547973
 30
0.0
 11
4104.6952150611123216
 21
107.5177305152547973
 31
0.0
  0
LINE
  5
AE30
  8
0
 10
4103.1715930139125703
 20
107.5767856333548025
 30
0.0
 11
4089.1361599430119895
 21
107.5767856333548025
 31
0.0
  0
LINE
  5
AE31
  8
0
 10
4104.6303200745123831
 20
107.6161557120548053
 30
0.0
 11
4103.2109630926115642
 21
107.6161557120548053
 31
0.0
  0
LINE
  5
AE32
  8
0
 10
4089.1361599430119895
 20
107.6161557120548053
 30
0.0
 11
4103.1715930139125703
 21
107.6161557120548053
 31
0.0
  0
LINE
  5
AE33
  8
0
 10
4089.1361599430119895
 20
107.6555257908547958
 30
0.0
 11
4103.1715930139125703
 21
107.6555257908547958
 31
0.0
  0
LINE
  5
AE34
  8
0
 10
4104.6676560060122938
 20
108.147651775054797
 30
0.0
 11
4104.6617503557117743
 21
108.147651775054797
 31
0.0
  0
LINE
  5
AE35
  8
0
 10
4104.6617503557117743
 20
108.147651775054797
 30
0.0
 11
4103.191278053312999
 21
108.147651775054797
 31
0.0
  0
LINE
  5
AE36
  8
0
 10
4089.1361599430119895
 20
108.147651775054797
 30
0.0
 11
4103.1715930139125703
 21
108.147651775054797
 31
0.0
  0
LINE
  5
AE37
  8
0
 10
4104.6676560060122938
 20
108.147651775054797
 30
0.0
 11
4104.687341045411813
 21
108.147651775054797
 31
0.0
  0
LINE
  5
AE38
  8
0
 10
4089.3288916423121009
 20
108.2431805396548015
 30
0.0
 11
4091.0009630159129301
 21
108.2431805396548015
 31
0.0
  0
LINE
  5
AE39
  8
0
 10
4102.8225379724126469
 20
108.2431805396548015
 30
0.0
 11
4104.4946093460130214
 21
108.2431805396548015
 31
0.0
  0
LINE
  5
AE3A
  8
0
 10
4104.511908051113096
 20
108.2628655790548038
 30
0.0
 11
4103.6886797047118307
 21
108.2628655790548038
 31
0.0
  0
LINE
  5
AE3B
  8
0
 10
4090.1348212836119274
 20
108.2628655790548038
 30
0.0
 11
4089.3115929372129358
 21
108.2628655790548038
 31
0.0
  0
LINE
  5
AE3C
  8
0
 10
4090.1348212836119274
 20
108.3612907758547976
 30
0.0
 11
4091.0009630159129301
 21
108.3612907758547976
 31
0.0
  0
LINE
  5
AE3D
  8
0
 10
4102.8225379724126469
 20
108.3612907758547976
 30
0.0
 11
4103.6886797047118307
 21
108.3612907758547976
 31
0.0
  0
LINE
  5
AE3E
  8
0
 10
4103.80151427371311
 20
108.3838722474548035
 30
0.0
 11
4090.0219867147120567
 21
108.3838722474548035
 31
0.0
  0
LINE
  5
AE3F
  8
0
 10
4090.0023016753120828
 20
108.3838722474548035
 30
0.0
 11
4089.0574197855121383
 21
108.3838722474548035
 31
0.0
  0
LINE
  5
AE40
  8
0
 10
4103.8211993130125848
 20
108.3838722474548035
 30
0.0
 11
4104.7660812028134387
 21
108.3838722474548035
 31
0.0
  0
LINE
  5
AE41
  8
0
 10
4104.7030890768128302
 20
108.446864373454801
 30
0.0
 11
4103.8841914390122838
 21
108.446864373454801
 31
0.0
  0
LINE
  5
AE42
  8
0
 10
4089.1204119115132016
 20
108.446864373454801
 30
0.0
 11
4089.9393095493128385
 21
108.446864373454801
 31
0.0
  0
LINE
  5
AE43
  8
0
 10
4089.1558449824128729
 20
108.5177305152547973
 30
0.0
 11
4089.1204119115132016
 21
108.5177305152547973
 31
0.0
  0
LINE
  5
AE44
  8
0
 10
4104.6676560059131589
 20
108.5177305152547973
 30
0.0
 11
4104.7030890768128302
 21
108.5177305152547973
 31
0.0
  0
LINE
  5
AE45
  8
0
 10
4104.7660812028134387
 20
108.580722641154793
 30
0.0
 11
4104.6676560059131589
 21
108.580722641154793
 31
0.0
  0
LINE
  5
AE46
  8
0
 10
4089.0574197855121383
 20
108.580722641154793
 30
0.0
 11
4089.1558449824128729
 21
108.580722641154793
 31
0.0
  0
LINE
  5
AE47
  8
0
 10
4089.9589945887119029
 20
108.580722641154793
 30
0.0
 11
4090.0219867147120567
 21
108.580722641154793
 31
0.0
  0
LINE
  5
AE48
  8
0
 10
4103.80151427371311
 20
108.580722641154793
 30
0.0
 11
4103.8645063996118552
 21
108.580722641154793
 31
0.0
  0
LINE
  5
AE49
  8
0
 10
4104.5889158485124426
 20
108.6200927199547976
 30
0.0
 11
4089.234585139812225
 21
108.6200927199547976
 31
0.0
  0
LINE
  5
AE4A
  8
0
 10
4087.5160812027129396
 20
108.9685179167548057
 30
0.0
 11
4088.9845851399131789
 21
108.9685179167548057
 31
0.0
  0
LINE
  5
AE4B
  8
0
 10
4104.8389158483123538
 20
108.9685179167548057
 30
0.0
 11
4106.3074197855130478
 21
108.9685179167548057
 31
0.0
  0
LINE
  5
AE4C
  8
0
 10
4089.234585139812225
 20
108.9744234286548021
 30
0.0
 11
4087.5416717540128957
 21
108.9744234286548021
 31
0.0
  0
LINE
  5
AE4D
  8
0
 10
4087.5416717540128957
 20
108.9744234285548004
 30
0.0
 11
4087.5023016753120828
 21
108.9744234285548004
 31
0.0
  0
LINE
  5
AE4E
  8
0
 10
4104.5889158485124426
 20
108.9744234285548004
 30
0.0
 11
4106.3211993130116753
 21
108.9744234285548004
 31
0.0
  0
LINE
  5
AE4F
  8
0
 10
4087.5416717540128957
 20
109.013793507354805
 30
0.0
 11
4087.5023016753120828
 21
109.013793507354805
 31
0.0
  0
LINE
  5
AE50
  8
0
 10
4106.2818292343126814
 20
109.013793507354805
 30
0.0
 11
4106.3211993130116753
 21
109.013793507354805
 31
0.0
  0
LINE
  5
AE51
  8
0
 10
4087.9511205721128135
 20
109.0452895703547966
 30
0.0
 11
4088.0141126989128679
 21
109.0452895703547966
 31
0.0
  0
LINE
  5
AE52
  8
0
 10
4105.8093882894117996
 20
109.0531635860547937
 30
0.0
 11
4105.6519079744120972
 21
109.0531635860547937
 31
0.0
  0
LINE
  5
AE53
  8
0
 10
4105.6125378957131034
 20
109.0531635860547937
 30
0.0
 11
4105.0810418327127991
 21
109.0531635860547937
 31
0.0
  0
LINE
  5
AE54
  8
0
 10
4105.0416717540128957
 20
109.0531635860547937
 30
0.0
 11
4104.5889158485124426
 21
109.0531635860547937
 31
0.0
  0
LINE
  5
AE55
  8
0
 10
4088.0141126989128679
 20
109.0531635860547937
 30
0.0
 11
4088.1715930139130251
 21
109.0531635860547937
 31
0.0
  0
LINE
  5
AE56
  8
0
 10
4088.210963092612019
 20
109.0531635860547937
 30
0.0
 11
4088.7424591556118685
 21
109.0531635860547937
 31
0.0
  0
LINE
  5
AE57
  8
0
 10
4088.7818292343131361
 20
109.0531635860547937
 30
0.0
 11
4089.234585139812225
 21
109.0531635860547937
 31
0.0
  0
LINE
  5
AE58
  8
0
 10
4105.7852066531413584
 20
109.0610376018548067
 30
0.0
 11
4105.6997116579841531
 21
109.0610376018548067
 31
0.0
  0
LINE
  5
AE59
  8
0
 10
4088.5220186205128812
 20
109.0610376018548067
 30
0.0
 11
4088.4078134863120795
 21
109.0610376018548067
 31
0.0
  0
LINE
  5
AE5A
  8
0
 10
4088.0928528564118096
 20
109.0610376018548067
 30
0.0
 11
4087.9787637432132215
 21
109.0610376018548067
 31
0.0
  0
LINE
  5
AE5B
  8
0
 10
4105.3611289807840876
 20
109.0610376018548067
 30
0.0
 11
4105.4466239759412929
 21
109.0610376018548067
 31
0.0
  0
LINE
  5
AE5C
  8
0
 10
4088.1117391071120437
 20
109.1122187041547988
 30
0.0
 11
4088.3881284469121056
 21
109.1122187041547988
 31
0.0
  0
LINE
  5
AE5D
  8
0
 10
4105.4353725414130167
 20
109.1122187041547988
 30
0.0
 11
4105.7109630926115642
 21
109.1122187041547988
 31
0.0
  0
LINE
  5
AE5E
  8
0
 10
4104.7267111241117163
 20
107.4862344522548057
 30
0.0
 11
4104.6952150611123216
 21
107.5177305152547973
 31
0.0
  0
LINE
  5
AE5F
  8
0
 10
4103.1715930139125703
 20
107.5177305152547973
 30
0.0
 11
4103.1715930139125703
 21
108.147651775054797
 31
0.0
  0
LINE
  5
AE60
  8
0
 10
4089.234585139812225
 20
110.2744487603548009
 30
0.0
 11
4088.7385221477129562
 21
110.2744487603548009
 31
0.0
  0
LINE
  5
AE61
  8
0
 10
4089.7294783775118958
 20
110.3925589965547971
 30
0.0
 11
4089.6442828993131116
 21
110.3925589965547971
 31
0.0
  0
LINE
  5
AE62
  8
0
 10
4089.234585139812225
 20
110.3925589965547971
 30
0.0
 11
4088.7385221477129562
 21
110.3925589965547971
 31
0.0
  0
LINE
  5
AE63
  8
0
 10
4089.234585139812225
 20
110.4076223382547965
 30
0.0
 11
4088.7385221477129562
 21
110.4076223382547965
 31
0.0
  0
LINE
  5
AE64
  8
0
 10
4089.234585139812225
 20
110.523330999654803
 30
0.0
 11
4088.7385221477129562
 21
110.523330999654803
 31
0.0
  0
LINE
  5
AE65
  8
0
 10
4104.6814355336118751
 20
107.5374164727547992
 30
0.0
 11
4104.6814355336118751
 21
107.547258074254799
 31
0.0
  0
LINE
  5
AE66
  8
0
 10
4104.6814355336118751
 20
108.1181242160547953
 30
0.0
 11
4104.6814355336118751
 21
108.1279667356548941
 31
0.0
  0
LINE
  5
AE67
  8
0
 10
4104.687341045411813
 20
107.5177305152547973
 30
0.0
 11
4104.687341045411813
 21
108.1181242159547935
 31
0.0
  0
LINE
  5
AE68
  8
0
 10
4104.687341045411813
 20
108.1181242159547935
 30
0.0
 11
4104.687341045411813
 21
108.1279667356548941
 31
0.0
  0
LINE
  5
AE69
  8
0
 10
4104.687341045411813
 20
108.1279667356548941
 30
0.0
 11
4104.687341045411813
 21
108.147651775054797
 31
0.0
  0
LINE
  5
AE6A
  8
0
 10
4104.7267111241117163
 20
107.4862344522548057
 30
0.0
 11
4104.7267111241117163
 21
107.4311163419548052
 31
0.0
  0
LINE
  5
AE6B
  8
0
 10
4104.6153672419122813
 20
107.833242326154803
 30
0.0
 11
4104.6153669847117271
 21
107.8326911451547971
 31
0.0
  0
LINE
  5
AE6C
  8
0
 10
4103.1912780529119118
 20
107.5177305152547973
 30
0.0
 11
4103.1913412080120906
 21
107.5178607278547958
 31
0.0
  0
LINE
  5
AE6D
  8
0
 10
4104.6952150611123216
 20
107.3996202789547993
 30
0.0
 11
4104.7267111241117163
 21
107.4311163419548052
 31
0.0
  0
LINE
  5
AE6E
  8
0
 10
4089.234585139812225
 20
112.0846596490547995
 30
0.0
 11
4104.5889158485124426
 21
112.0846596490547995
 31
0.0
  0
LINE
  5
AE6F
  8
0
 10
4087.5416717540128957
 20
112.2027698852547957
 30
0.0
 11
4087.5023016753120828
 21
112.2027698852547957
 31
0.0
  0
LINE
  5
AE70
  8
0
 10
4106.2818292343126814
 20
112.2027698852547957
 30
0.0
 11
4106.3211993130116753
 21
112.2027698852547957
 31
0.0
  0
LINE
  5
AE71
  8
0
 10
4087.5416717540128957
 20
112.2421399640548003
 30
0.0
 11
4087.5023016753120828
 21
112.2421399640548003
 31
0.0
  0
LINE
  5
AE72
  8
0
 10
4106.2818292343126814
 20
112.2421399640548003
 30
0.0
 11
4106.3211993130116753
 21
112.2421399640548003
 31
0.0
  0
LINE
  5
AE73
  8
0
 10
4104.2542701792126536
 20
112.3208801215548931
 30
0.0
 11
4104.2306481319119484
 21
112.3208801215548931
 31
0.0
  0
LINE
  5
AE74
  8
0
 10
4089.5692308091129235
 20
112.3208801215548931
 30
0.0
 11
4089.5928528564118096
 21
112.3208801215548931
 31
0.0
  0
LINE
  5
AE75
  8
0
 10
4105.0416717540128957
 20
109.0531635860547937
 30
0.0
 11
4105.0613567933132799
 21
109.0452895703547966
 31
0.0
  0
LINE
  5
AE76
  8
0
 10
4105.6125378957131034
 20
109.0531635860547937
 30
0.0
 11
4105.632222935111713
 21
109.0452895703547966
 31
0.0
  0
LINE
  5
AE77
  8
0
 10
4103.7374644168130544
 20
108.2628655790548038
 30
0.0
 11
4103.6886797047118307
 21
108.2897228394547966
 31
0.0
  0
LINE
  5
AE78
  8
0
 10
4104.0596732733129102
 20
110.3082165852547973
 30
0.0
 11
4104.0701343137116055
 21
110.3142562696548055
 31
0.0
  0
LINE
  5
AE79
  8
0
 10
4105.0613567933132799
 20
109.0452895703547966
 30
0.0
 11
4105.0810418327127991
 21
109.0531635860547937
 31
0.0
  0
LINE
  5
AE7A
  8
0
 10
4105.632222935111713
 20
109.0452895703547966
 30
0.0
 11
4105.6519079744120972
 21
109.0531635860547937
 31
0.0
  0
LINE
  5
AE7B
  8
0
 10
4104.0710697037129648
 20
110.3899560516548064
 30
0.0
 11
4104.0596823864116232
 21
110.3965305223547944
 31
0.0
  0
LINE
  5
AE7C
  8
0
 10
4106.2424591555118241
 20
112.2027698852547957
 30
0.0
 11
4106.2818292343126814
 21
112.2421399640548003
 31
0.0
  0
LINE
  5
AE7D
  8
0
 10
4106.3211993130116753
 20
112.2027698852547957
 30
0.0
 11
4106.3408843524121039
 21
112.222454924654798
 31
0.0
  0
LINE
  5
AE7E
  8
0
 10
4106.2424591555118241
 20
109.013793507354805
 30
0.0
 11
4106.2818292343126814
 21
108.9744234285548004
 31
0.0
  0
LINE
  5
AE7F
  8
0
 10
4106.3211993130116753
 20
109.013793507354805
 30
0.0
 11
4106.3408843524121039
 21
108.9941084679548027
 31
0.0
  0
LINE
  5
AE80
  8
0
 10
4106.2818292343126814
 20
109.013793507354805
 30
0.0
 11
4106.2621441949131622
 21
108.9941084679548027
 31
0.0
  0
LINE
  5
AE81
  8
0
 10
4106.3211993130116753
 20
108.9744234285548004
 30
0.0
 11
4106.3605693918134421
 21
109.013793507354805
 31
0.0
  0
LINE
  5
AE82
  8
0
 10
4102.8225379724126469
 20
108.2431805396548015
 30
0.0
 11
4102.8225379724126469
 21
108.3612907758547976
 31
0.0
  0
LINE
  5
AE83
  8
0
 10
4102.9449789173131649
 20
108.2431805396548015
 30
0.0
 11
4102.9449789173131649
 21
108.147651775054797
 31
0.0
  0
LINE
  5
AE84
  8
0
 10
4106.2621441949131622
 20
112.222454924654798
 30
0.0
 11
4106.2818292343126814
 21
112.2027698852547957
 31
0.0
  0
LINE
  5
AE85
  8
0
 10
4106.3211993130116753
 20
112.2421399640548003
 30
0.0
 11
4106.3605693918134421
 21
112.2027698852547957
 31
0.0
  0
LINE
  5
AE86
  8
0
 10
4103.6886797047118307
 20
108.3612907758547976
 30
0.0
 11
4103.6886797047118307
 21
108.2431805396548015
 31
0.0
  0
LINE
  5
AE87
  8
0
 10
4103.80151427371311
 20
108.6200927199547976
 30
0.0
 11
4103.80151427371311
 21
108.580722641154793
 31
0.0
  0
LINE
  5
AE88
  8
0
 10
4103.80151427371311
 20
108.5485433423548045
 30
0.0
 11
4103.80151427371311
 21
108.4035572868548059
 31
0.0
  0
LINE
  5
AE89
  8
0
 10
4103.80151427371311
 20
108.3838722474548035
 30
0.0
 11
4103.80151427371311
 21
108.580722641154793
 31
0.0
  0
LINE
  5
AE8A
  8
0
 10
4103.8645063996118552
 20
108.4665494128548033
 30
0.0
 11
4103.8645063996118552
 21
108.6200927199547976
 31
0.0
  0
LINE
  5
AE8B
  8
0
 10
4104.2109630926115642
 20
112.3011950821548055
 30
0.0
 11
4104.2109630926115642
 21
112.0846596490547995
 31
0.0
  0
LINE
  5
AE8C
  8
0
 10
4104.2739552185130378
 20
112.0846596490547995
 30
0.0
 11
4104.2739552185130378
 21
112.3011950821548055
 31
0.0
  0
LINE
  5
AE8D
  8
0
 10
4104.4946093464131991
 20
108.2628655790548038
 30
0.0
 11
4104.4946093464131991
 21
108.2431805396548015
 31
0.0
  0
LINE
  5
AE8E
  8
0
 10
4104.511908051113096
 20
108.2628655790548038
 30
0.0
 11
4104.511908051113096
 21
108.147651775054797
 31
0.0
  0
LINE
  5
AE8F
  8
0
 10
4104.5889158485124426
 20
108.6200927199547976
 30
0.0
 11
4104.5889158485124426
 21
112.0846596490547995
 31
0.0
  0
LINE
  5
AE90
  8
0
 10
4103.6499259620122757
 20
108.3838722474548035
 30
0.0
 11
4103.6443652375128295
 21
108.3612907758547976
 31
0.0
  0
LINE
  5
AE91
  8
0
 10
4104.6479709666118652
 20
108.5610376018548067
 30
0.0
 11
4104.6479709666118652
 21
108.5374155545547978
 31
0.0
  0
LINE
  5
AE92
  8
0
 10
4104.7227741162123493
 20
108.498045475854795
 30
0.0
 11
4104.7227741162123493
 21
108.4665494128548033
 31
0.0
  0
LINE
  5
AE93
  8
0
 10
4104.7857662422129579
 20
107.438990357754804
 30
0.0
 11
4104.7857662422129579
 21
108.9350533498547975
 31
0.0
  0
LINE
  5
AE94
  8
0
 10
4104.7916717540128957
 20
107.4527698851547939
 30
0.0
 11
4104.7916717540128957
 21
108.921273822254804
 31
0.0
  0
LINE
  5
AE95
  8
0
 10
4105.4156875020116786
 20
109.0610376018548067
 30
0.0
 11
4105.4156875020116786
 21
109.0925336648547983
 31
0.0
  0
LINE
  5
AE96
  8
0
 10
4105.7306481319119484
 20
109.0925336649548001
 30
0.0
 11
4105.7306481319119484
 21
109.0610376018548067
 31
0.0
  0
LINE
  5
AE97
  8
0
 10
4105.8093882894117996
 20
109.0531635860547937
 30
0.0
 11
4105.8093882894117996
 21
108.9744234285548004
 31
0.0
  0
LINE
  5
AE98
  8
0
 10
4105.8841914390122838
 20
109.0014776243548056
 30
0.0
 11
4105.8841914390122838
 21
108.9744234285548004
 31
0.0
  0
LINE
  5
AE99
  8
0
 10
4106.2424591555118241
 20
109.013793507354805
 30
0.0
 11
4106.2424591555118241
 21
112.2027698852547957
 31
0.0
  0
LINE
  5
AE9A
  8
0
 10
4106.2818292343126814
 20
109.013793507354805
 30
0.0
 11
4106.2818292343126814
 21
112.2027698852547957
 31
0.0
  0
LINE
  5
AE9B
  8
0
 10
4106.3211993130116753
 20
112.2027698852547957
 30
0.0
 11
4106.3211993130116753
 21
109.013793507354805
 31
0.0
  0
LINE
  5
AE9C
  8
0
 10
4106.3546638800116853
 20
108.9212738224547934
 30
0.0
 11
4106.3546638800116853
 21
107.4527698852547957
 31
0.0
  0
LINE
  5
AE9D
  8
0
 10
4106.3605693918134421
 20
112.2027698852547957
 30
0.0
 11
4106.3605693918134421
 21
109.013793507354805
 31
0.0
  0
LINE
  5
AE9E
  8
0
 10
4106.3605693918134421
 20
108.9350533498547975
 30
0.0
 11
4106.3605693918134421
 21
107.438990357754804
 31
0.0
  0
ARC
  5
AE9F
  8
0
 10
4088.9845851399131789
 20
107.4527698852547957
 30
0.0
 40
0.0472440945
 50
270.0
 51
0.0
  0
ARC
  5
AEA0
  8
0
 10
4087.516081202812984
 20
107.4527698852547957
 30
0.0
 40
0.0472440945
 50
180.0
 51
270.0
  0
ARC
  5
AEA1
  8
0
 10
4087.5023016753120828
 20
107.438990357754804
 30
0.0
 40
0.0393700787
 50
180.0
 51
270.0
  0
ARC
  5
AEA2
  8
0
 10
4088.9983646674118063
 20
107.438990357754804
 30
0.0
 40
0.0393700787
 50
270.0
 51
0.0
  0
ARC
  5
AEA3
  8
0
 10
4089.4649374838131735
 20
107.8344140117548022
 30
0.0
 40
0.0275590551
 50
337.1726084904984191
 51
41.44699548309557
  0
ARC
  5
AEA4
  8
0
 10
4089.0574197855121383
 20
108.4035572868548059
 30
0.0
 40
0.0196850394
 50
180.0000000007995027
 51
270.0
  0
ARC
  5
AEA5
  8
0
 10
4087.9826166359121089
 20
109.0413525624548043
 30
0.0
 40
0.0590551181
 50
19.4712206731529101
 51
222.8334280623327004
  0
ARC
  5
AEA6
  8
0
 10
4087.516081202812984
 20
108.9212738223548058
 30
0.0
 40
0.0472440945
 50
89.9999999997915552
 51
180.0000000056002136
  0
ARC
  5
AEA7
  8
0
 10
4087.5023016753120828
 20
108.9350533498547975
 30
0.0
 40
0.0393700787
 50
90.0000000009119248
 51
180.0
  0
ARC
  5
AEA8
  8
0
 10
4088.210963092612019
 20
109.0413525624548043
 30
0.0
 40
0.031496063
 50
22.0243127957780693
 51
164.8633346395793069
  0
ARC
  5
AEA9
  8
0
 10
4088.2897032501118701
 20
109.0413525624548043
 30
0.0
 40
0.031496063
 50
22.0243127957780693
 51
157.9756872042219129
  0
ARC
  5
AEAA
  8
0
 10
4088.1125378958117835
 20
109.0925336648547983
 30
0.0
 40
0.0196850394
 50
92.3254028312984616
 51
179.9999999981997121
  0
ARC
  5
AEAB
  8
0
 10
4087.9511205729118046
 20
109.0334785467547931
 30
0.0
 40
0.0118110236
 50
90.0000039328095056
 51
180.0
  0
ARC
  5
AEAC
  8
0
 10
4089.0574197855121383
 20
108.5610376018548067
 30
0.0
 40
0.0196850394
 50
89.9999999997915552
 51
179.9999999990994013
  0
ARC
  5
AEAD
  8
0
 10
4089.1558449824128729
 20
108.5610376018548067
 30
0.0
 40
0.0196850394
 50
0.0
 51
90.0000000002084306
  0
ARC
  5
AEAE
  8
0
 10
4089.1558449824128729
 20
108.5374155545547978
 30
0.0
 40
0.0196850394
 50
269.999999999791612
 51
0.0
  0
ARC
  5
AEAF
  8
0
 10
4089.1204119115132016
 20
108.498045475854795
 30
0.0
 40
0.0196850394
 50
90.0000000009119248
 51
180.000000000199492
  0
ARC
  5
AEB0
  8
0
 10
4089.1204119115132016
 20
108.4665494128548033
 30
0.0
 40
0.0196850394
 50
179.9999999997997122
 51
270.0
  0
ARC
  5
AEB1
  8
0
 10
4088.5180497068117802
 20
109.0413525624548043
 30
0.0
 40
0.0590551181
 50
11.5369590155220596
 51
160.5287793312054987
  0
ARC
  5
AEB2
  8
0
 10
4088.9845851399131789
 20
108.9212738223548058
 30
0.0
 40
0.0472440945
 50
0.0
 51
90.0
  0
ARC
  5
AEB3
  8
0
 10
4088.9983646674118063
 20
108.9350533498547975
 30
0.0
 40
0.0393700787
 50
0.0
 51
90.0
  0
ARC
  5
AEB4
  8
0
 10
4088.3881284469121056
 20
109.0925336648547983
 30
0.0
 40
0.0196850394
 50
2.3254028262999928
 51
89.999999999400714
  0
ARC
  5
AEB5
  8
0
 10
4091.5162533661127782
 20
108.4420132517548012
 30
0.0
 40
0.7874015748000001
 50
184.2340887793988031
 51
185.8841604183998015
  0
CIRCLE
  5
AEB6
  8
0
 10
4089.5298607304121106
 20
107.8917462632549018
 30
0.0
 40
0.157480315
  0
CIRCLE
  5
AEB7
  8
0
 10
4089.5298607304121106
 20
107.8917462632549018
 30
0.0
 40
0.0787401575
  0
ARC
  5
AEB8
  8
0
 10
4089.5298607304121106
 20
107.8917462632549018
 30
0.0
 40
0.0590551181
 50
318.5530045439056153
 51
221.4469954564007992
  0
ARC
  5
AEB9
  8
0
 10
4090.3832242060120734
 20
108.3376137593547952
 30
0.0
 40
0.0590551181
 50
23.6363810237962291
 51
51.6441649471082727
  0
ARC
  5
AEBA
  8
0
 10
4089.5947839770128667
 20
107.8344140117548022
 30
0.0
 40
0.0275590551
 50
138.5530045163081923
 51
202.8368696693979985
  0
ARC
  5
AEBB
  8
0
 10
4090.0023016753120828
 20
108.4035572868548059
 30
0.0
 40
0.0196850394
 50
270.0
 51
0.0
  0
ARC
  5
AEBC
  8
0
 10
4089.9393095493128385
 20
108.4665494128548033
 30
0.0
 40
0.0196850394
 50
270.0
 51
0.0
  0
ARC
  5
AEBD
  8
0
 10
4089.5928528564118096
 20
112.3011950821548055
 30
0.0
 40
0.0196850394
 50
0.0
 51
89.9999999990880752
  0
ARC
  5
AEBE
  8
0
 10
4089.5692308091129235
 20
112.3011950821548055
 30
0.0
 40
0.0196850394
 50
90.0000000008077023
 51
180.000000000199492
  0
CIRCLE
  5
AEBF
  8
0
 10
4089.687341045411813
 20
110.3523761845547995
 30
0.0
 40
0.0885826772
  0
ARC
  5
AEC0
  8
0
 10
4089.687341045411813
 20
110.3523761845547995
 30
0.0
 40
0.0590551181
 50
42.5344793526945821
 51
315.5224878168995133
  0
ARC
  5
AEC1
  8
0
 10
4089.7435241549128477
 20
110.2972085255547938
 30
0.0
 40
0.0196850394
 50
63.1406039796082581
 51
135.5224878051919859
  0
ARC
  5
AEC2
  8
0
 10
4089.7435241549128477
 20
110.4075438434548033
 30
0.0
 40
0.0196850394
 50
230.3950608131050046
 51
300.0000000043016257
  0
ARC
  5
AEC3
  8
0
 10
4103.2109630926115642
 20
107.5767856333548025
 30
0.0
 40
0.0393700787
 50
90.0
 51
180.0
  0
ARC
  5
AEC4
  8
0
 10
4102.8646075578126329
 20
107.8071875523548044
 30
0.0
 40
0.0255905512
 50
16.92102459399662
 51
87.402663474793755
  0
ARC
  5
AEC5
  8
0
 10
4103.191278053312999
 20
107.5374155545547978
 30
0.0
 40
0.0196850394
 50
180.0
 51
270.0
  0
CIRCLE
  5
AEC6
  8
0
 10
4102.8723804154124082
 20
107.8917462632549018
 30
0.0
 40
0.157480315
  0
CIRCLE
  5
AEC7
  8
0
 10
4102.8723804154124082
 20
107.8917462632549018
 30
0.0
 40
0.0787401575
  0
ARC
  5
AEC8
  8
0
 10
4102.8684434076130856
 20
107.8917462632548023
 30
0.0
 40
0.0590551181
 50
2.5973366048000308
 51
267.402663355912523
  0
ARC
  5
AEC9
  8
0
 10
4103.191278053312999
 20
108.1279667356548941
 30
0.0
 40
0.0196850394
 50
90.0
 51
180.0
  0
ARC
  5
AECA
  8
0
 10
4105.2059181658123634
 20
107.8326911451547971
 30
0.0
 40
0.5905511811000002
 50
153.9347815144874119
 51
179.9465239391003024
  0
ARC
  5
AECB
  8
0
 10
4105.2059181658123634
 20
107.8326911451547971
 30
0.0
 40
0.5905511811000002
 50
180.0
 51
206.0652184820991124
  0
ARC
  5
AECC
  8
0
 10
4105.2118236776123013
 20
107.8326911451547971
 30
0.0
 40
0.5905511811000002
 50
153.9347815224155056
 51
206.0652184842979011
  0
ARC
  5
AECD
  8
0
 10
4104.6223804155124526
 20
107.547258074254799
 30
0.0
 40
0.0590551181
 50
0.0
 51
26.0652184791983998
  0
ARC
  5
AECE
  8
0
 10
4104.6282859273123904
 20
107.547258074254799
 30
0.0
 40
0.0590551181
 50
0.0
 51
26.0652184654992602
  0
ARC
  5
AECF
  8
0
 10
4104.6303200745123831
 20
107.5767856333548025
 30
0.0
 40
0.0393700787
 50
23.9694823187036796
 51
90.0
  0
ARC
  5
AED0
  8
0
 10
4104.350719940513045
 20
107.8292418699547994
 30
0.0
 40
0.0255905512
 50
76.2731745971046138
 51
132.4026634038987993
  0
ARC
  5
AED1
  8
0
 10
4104.661750494212356
 20
107.5374155545547978
 30
0.0
 40
0.0196850394
 50
269.9997265221895759
 51
0.0015907884004013
  0
ARC
  5
AED2
  8
0
 10
4104.6676560060122938
 20
107.5374155545547978
 30
0.0
 40
0.0196850394
 50
270.0
 51
0.0
  0
CIRCLE
  5
AED3
  8
0
 10
4104.2877347462126636
 20
107.8917462632548023
 30
0.0
 40
0.157480315
  0
CIRCLE
  5
AED4
  8
0
 10
4104.2877347462126636
 20
107.8917462632548023
 30
0.0
 40
0.0787401575
  0
ARC
  5
AED5
  8
0
 10
4104.2936402580126014
 20
107.8917462632548023
 30
0.0
 40
0.0590551181
 50
47.5973366036088876
 51
312.4026633871017111
  0
ARC
  5
AED6
  8
0
 10
4104.350719940513045
 20
107.9542506565548052
 30
0.0
 40
0.0255905512
 50
227.5973366180072901
 51
283.8014131985934796
  0
ARC
  5
AED7
  8
0
 10
4104.6223804155124526
 20
108.1181242160547953
 30
0.0
 40
0.0590551181
 50
333.9347815144852234
 51
0.0
  0
ARC
  5
AED8
  8
0
 10
4104.6282859273123904
 20
108.1181242159547935
 30
0.0
 40
0.0590551181
 50
333.9347815224163014
 51
0.0
  0
ARC
  5
AED9
  8
0
 10
4104.661750494212356
 20
108.1279667356548941
 30
0.0
 40
0.0196850394
 50
0.0
 51
90.0002394770982193
  0
ARC
  5
AEDA
  8
0
 10
4104.6676560060122938
 20
108.1279667356548941
 30
0.0
 40
0.0196850394
 50
0.0
 51
89.9999999990880752
  0
ARC
  5
AEDB
  8
0
 10
4104.8389158485124426
 20
107.4527698852547957
 30
0.0
 40
0.0472440945
 50
180.000000000199492
 51
270.0000000057061129
  0
ARC
  5
AEDC
  8
0
 10
4104.8251363209128613
 20
107.438990357754804
 30
0.0
 40
0.0393700787
 50
180.0
 51
270.0
  0
ARC
  5
AEDD
  8
0
 10
4106.3074197855130478
 20
107.4527698852547957
 30
0.0
 40
0.0472440945
 50
270.0000000003907985
 51
0.0
  0
ARC
  5
AEDE
  8
0
 10
4106.3211993130116753
 20
107.438990357754804
 30
0.0
 40
0.0393700787
 50
270.0
 51
0.0
  0
ARC
  5
AEDF
  8
0
 10
4102.3072476222132536
 20
108.4420132517548012
 30
0.0
 40
0.7874015748000001
 50
354.1158395816001985
 51
355.7659112206004011
  0
ARC
  5
AEE0
  8
0
 10
4103.4402767823130489
 20
108.3376137593547952
 30
0.0
 40
0.0590551181
 50
128.3558350530915959
 51
156.36361897620381
  0
ARC
  5
AEE1
  8
0
 10
4103.8841914390122838
 20
108.4665494128548033
 30
0.0
 40
0.0196850394
 50
180.0
 51
270.0
  0
ARC
  5
AEE2
  8
0
 10
4103.8211993130125848
 20
108.4035572868548059
 30
0.0
 40
0.0196850394
 50
180.0
 51
270.0
  0
ARC
  5
AEE3
  8
0
 10
4104.7030890768128302
 20
108.4665494128548033
 30
0.0
 40
0.0196850394
 50
270.0
 51
0.0
  0
ARC
  5
AEE4
  8
0
 10
4104.7030890768128302
 20
108.498045475854795
 30
0.0
 40
0.0196850394
 50
0.0
 51
89.9999999991922977
  0
ARC
  5
AEE5
  8
0
 10
4104.6676560059131589
 20
108.5374155545547978
 30
0.0
 40
0.0196850394
 50
179.9999999997997122
 51
270.000000000208388
  0
ARC
  5
AEE6
  8
0
 10
4104.6676560059131589
 20
108.5610376018548067
 30
0.0
 40
0.0196850394
 50
89.9999999997915552
 51
180.000000000199492
  0
ARC
  5
AEE7
  8
0
 10
4104.7660812028134387
 20
108.5610376018548067
 30
0.0
 40
0.0196850394
 50
0.0000000008003802
 51
90.0000000002084306
  0
ARC
  5
AEE8
  8
0
 10
4104.7660812028134387
 20
108.4035572868548059
 30
0.0
 40
0.0196850394
 50
270.0
 51
359.9999999991002824
  0
ARC
  5
AEE9
  8
0
 10
4105.8408843524130134
 20
109.0413525624548043
 30
0.0
 40
0.0590551181
 50
237.7690473492199033
 51
160.5287793268431926
  0
ARC
  5
AEEA
  8
0
 10
4105.3054512815124326
 20
109.0413525624548043
 30
0.0
 40
0.0590551181
 50
19.4712206731598201
 51
168.4630409844739063
  0
ARC
  5
AEEB
  8
0
 10
4105.5023016752129479
 20
109.0413525624548043
 30
0.0
 40
0.0590551181
 50
11.5369590155260493
 51
160.5287793268456085
  0
ARC
  5
AEEC
  8
0
 10
4105.6440339587134076
 20
109.0413525624548043
 30
0.0
 40
0.0590551181
 50
19.4712206731598201
 51
168.4630409844739063
  0
ARC
  5
AEED
  8
0
 10
4106.3074197855130478
 20
108.921273822254804
 30
0.0
 40
0.0472440945
 50
0.0000000009005295
 51
90.0000000044033186
  0
ARC
  5
AEEE
  8
0
 10
4104.8389158485124426
 20
108.921273822254804
 30
0.0
 40
0.0472440945
 50
90.0000000007034942
 51
180.0000000045995137
  0
ARC
  5
AEEF
  8
0
 10
4104.8251363209128613
 20
108.9350533498547975
 30
0.0
 40
0.0393700787
 50
90.0000000009119248
 51
179.9999999990994013
  0
ARC
  5
AEF0
  8
0
 10
4106.3211993130116753
 20
108.9350533498547975
 30
0.0
 40
0.0393700787
 50
0.0
 51
90.0
  0
ARC
  5
AEF1
  8
0
 10
4105.7109630926115642
 20
109.0925336648547983
 30
0.0
 40
0.0196850394
 50
0.0
 51
90.0
  0
ARC
  5
AEF2
  8
0
 10
4105.4353725414130167
 20
109.0925336648547983
 30
0.0
 40
0.0196850394
 50
90.0
 51
180.0
  0
CIRCLE
  5
AEF3
  8
0
 10
4104.1361599429128546
 20
110.3523761845547995
 30
0.0
 40
0.0885826772
  0
ARC
  5
AEF4
  8
0
 10
4104.1361599429128546
 20
110.3523761845547995
 30
0.0
 40
0.0590551181
 50
222.5344793524978968
 51
135.5224878161965023
  0
ARC
  5
AEF5
  8
0
 10
4104.0799768334118198
 20
110.2972085255547938
 30
0.0
 40
0.0196850394
 50
50.3950608139928633
 51
120.0000000043015973
  0
ARC
  5
AEF6
  8
0
 10
4104.0799768334118198
 20
110.4075438434548033
 30
0.0
 40
0.0196850394
 50
243.1406039791112903
 51
315.5224878074072876
  0
ARC
  5
AEF7
  8
0
 10
4104.2542701792126536
 20
112.3011950821548055
 30
0.0
 40
0.0196850394
 50
0.0
 51
89.9999999990880752
  0
ARC
  5
AEF8
  8
0
 10
4104.2306481319119484
 20
112.3011950821548055
 30
0.0
 40
0.0196850394
 50
90.0000000008077023
 51
180.000000000199492
  0
ARC
  5
AEF9
  8
0
 10
4087.9782016712870245
 20
109.0436947209481957
 30
0.0
 40
0.0173519867159824
 50
88.1437293543638134
 51
174.7264085893714878
  0
ARC
  5
AEFA
  8
0
 10
4088.5227698646181125
 20
109.0467101253642994
 30
0.0
 40
0.0143471582654106
 50
26.7313398305898211
 51
93.0014870667830138
  0
ARC
  5
AEFC
  8
0
 10
4102.9530021184127691
 20
107.8955821129547985
 30
0.0
 40
0.0255905512000158
 50
182.5973366046210913
 51
259.1515200034173176
  0
ENDSEC
  0
EOF
