  0
SECTION
  2
HEADER
  9
$ACADVER
  1
AC1009
  9
$INSBASE
 10
4208.1928943874218021
 20
186.9400917149717998
 30
0.0
  9
$EXTMIN
 10
4188.7042708514400147
 20
171.1862341667784051
 30
-0.0000000000000058
  9
$EXTMAX
 10
4227.7316646009549004
 20
202.7029594014740042
 30
0.0000000000000104
  9
$LIMMIN
 10
0.0
 20
0.0
  9
$LIMMAX
 10
11.6929133858000007
 20
8.2677165353999982
  9
$ORTHOMODE
 70
     0
  9
$REGENMODE
 70
     1
  9
$FILLMODE
 70
     1
  9
$QTEXTMODE
 70
     0
  9
$MIRRTEXT
 70
     0
  9
$DRAGMODE
 70
     2
  9
$LTSCALE
 40
0.6431102362
  9
$OSMODE
 70
  4095
  9
$ATTMODE
 70
     1
  9
$TEXTSIZE
 40
0.2
  9
$TRACEWID
 40
0.05
  9
$TEXTSTYLE
  7
STANDARD
  9
$CLAYER
  8
0
  9
$CELTYPE
  6
BYLAYER
  9
$CECOLOR
 62
   256
  9
$DIMSCALE
 40
1.0
  9
$DIMASZ
 40
0.1875
  9
$DIMEXO
 40
0.0625
  9
$DIMDLI
 40
0.4443307087
  9
$DIMRND
 40
0.0
  9
$DIMDLE
 40
0.0
  9
$DIMEXE
 40
0.125
  9
$DIMTP
 40
0.01
  9
$DIMTM
 40
0.01
  9
$DIMTXT
 40
2.0
  9
$DIMCEN
 40
0.1052362205
  9
$DIMTSZ
 40
0.0
  9
$DIMTOL
 70
     1
  9
$DIMLIM
 70
     0
  9
$DIMTIH
 70
     1
  9
$DIMTOH
 70
     1
  9
$DIMSE1
 70
     0
  9
$DIMSE2
 70
     0
  9
$DIMTAD
 70
     0
  9
$DIMZIN
 70
     0
  9
$DIMBLK
  1

  9
$DIMASO
 70
     1
  9
$DIMSHO
 70
     1
  9
$DIMPOST
  1
\X
  9
$DIMAPOST
  1

  9
$DIMALT
 70
     1
  9
$DIMALTD
 70
     2
  9
$DIMALTF
 40
25.3999999999999986
  9
$DIMLFAC
 40
1.0
  9
$DIMTOFL
 70
     0
  9
$DIMTVP
 40
0.0
  9
$DIMTIX
 70
     0
  9
$DIMSOXD
 70
     0
  9
$DIMSAH
 70
     0
  9
$DIMBLK1
  1

  9
$DIMBLK2
  1

  9
$DIMSTYLE
  2
STANDARD
  9
$DIMCLRD
 70
     0
  9
$DIMCLRE
 70
     0
  9
$DIMCLRT
 70
     0
  9
$DIMTFAC
 40
1.0
  9
$DIMGAP
 40
0.09
  9
$LUNITS
 70
     2
  9
$LUPREC
 70
     4
  9
$SKETCHINC
 40
0.1
  9
$FILLETRAD
 40
0.0
  9
$AUNITS
 70
     0
  9
$AUPREC
 70
     0
  9
$MENU
  1
.
  9
$ELEVATION
 40
0.0
  9
$PELEVATION
 40
0.0
  9
$THICKNESS
 40
0.0
  9
$LIMCHECK
 70
     0
  9
$BLIPMODE
 70
     0
  9
$CHAMFERA
 40
0.0
  9
$CHAMFERB
 40
0.0
  9
$SKPOLY
 70
     0
  9
$TDCREATE
 40
2458060.468368056230247
  9
$TDUPDATE
 40
2460094.4776273150928319
  9
$TDINDWG
 40
0.6104700231
  9
$TDUSRTIMER
 40
0.6104700231
  9
$USRTIMER
 70
     1
  9
$ANGBASE
 50
0.0
  9
$ANGDIR
 70
     0
  9
$PDMODE
 70
     0
  9
$PDSIZE
 40
0.3125
  9
$PLINEWID
 40
0.0
  9
$COORDS
 70
     1
  9
$SPLFRAME
 70
     0
  9
$SPLINETYPE
 70
     6
  9
$SPLINESEGS
 70
     8
  9
$ATTDIA
 70
     1
  9
$ATTREQ
 70
     1
  9
$HANDLING
 70
     1
  9
$HANDSEED
  5
14B6C
  9
$SURFTAB1
 70
     6
  9
$SURFTAB2
 70
     6
  9
$SURFTYPE
 70
     6
  9
$SURFU
 70
     6
  9
$SURFV
 70
     6
  9
$UCSNAME
  2

  9
$UCSORG
 10
0.0
 20
0.0
 30
0.0
  9
$UCSXDIR
 10
1.0
 20
0.0
 30
0.0
  9
$UCSYDIR
 10
0.0
 20
1.0
 30
0.0
  9
$PUCSNAME
  2

  9
$PUCSORG
 10
0.0
 20
0.0
 30
0.0
  9
$PUCSXDIR
 10
1.0
 20
0.0
 30
0.0
  9
$PUCSYDIR
 10
0.0
 20
1.0
 30
0.0
  9
$USERI1
 70
     0
  9
$USERI2
 70
     0
  9
$USERI3
 70
     0
  9
$USERI4
 70
     0
  9
$USERI5
 70
     0
  9
$USERR1
 40
0.0
  9
$USERR2
 40
0.0
  9
$USERR3
 40
0.0
  9
$USERR4
 40
0.0
  9
$USERR5
 40
0.0
  9
$WORLDVIEW
 70
     1
  9
$SHADEDGE
 70
     3
  9
$SHADEDIF
 70
    70
  9
$TILEMODE
 70
     1
  9
$MAXACTVP
 70
    64
  9
$PLIMCHECK
 70
     0
  9
$PEXTMIN
 10
1.0000000000000000E+20
 20
1.0000000000000000E+20
 30
1.0000000000000000E+20
  9
$PEXTMAX
 10
-1.0000000000000000E+20
 20
-1.0000000000000000E+20
 30
-1.0000000000000000E+20
  9
$PLIMMIN
 10
0.0
 20
0.0
  9
$PLIMMAX
 10
12.0
 20
9.0
  9
$UNITMODE
 70
     0
  9
$VISRETAIN
 70
     1
  9
$PLINEGEN
 70
     0
  9
$PSLTSCALE
 70
     1
  0
ENDSEC
  0
SECTION
  2
TABLES
  0
TABLE
  2
VPORT
 70
     1
  0
VPORT
  2
*ACTIVE
 70
     0
 10
0.0
 20
0.0
 11
1.0
 21
1.0
 12
-80.6201670394275425
 22
-38.3575806450730283
 13
0.0
 23
0.0
 14
1.0
 24
1.0
 15
0.0
 25
0.0
 16
0.0
 26
0.0
 36
29.845499460437189
 17
4288.838134765625
 27
225.3021774291991903
 37
0.0
 40
31.7481822131633997
 41
2.3419117647058818
 42
50.0
 43
0.0
 44
0.0
 50
0.0
 51
0.0
 71
     0
 72
   100
 73
     1
 74
     1
 75
     0
 76
     0
 77
     0
 78
     0
  0
ENDTAB
  0
TABLE
  2
LTYPE
 70
     2
  0
LTYPE
  2
CONTINUOUS
 70
     0
  3
Solid line
 72
    65
 73
     0
 40
0.0
  0
LTYPE
  2
PHANTOM2
 70
     0
  3
___ _ _ ___ _ _ ___ _ _ ___ _ _
 72
    65
 73
     6
 40
1.25
 49
0.625
 49
-0.125
 49
0.125
 49
-0.125
 49
0.125
 49
-0.125
  0
ENDTAB
  0
TABLE
  2
LAYER
 70
     2
  0
LAYER
  2
0
 70
     0
 62
   255
  6
CONTINUOUS
  0
LAYER
  2
DEFPOINTS
 70
     0
 62
     7
  6
CONTINUOUS
  0
ENDTAB
  0
TABLE
  2
STYLE
 70
     1
  0
STYLE
  2
STANDARD
 70
     0
 40
0.0
 41
0.8
 50
0.0
 71
     0
 42
0.2
  3
txt
  4

  0
ENDTAB
  0
TABLE
  2
VIEW
 70
     0
  0
ENDTAB
  0
TABLE
  2
UCS
 70
     0
  0
ENDTAB
  0
TABLE
  2
APPID
 70
     9
  0
APPID
  2
ACAD
 70
     0
  0
APPID
  2
ACAD_MLEADERVER
 70
     0
  0
APPID
  2
ACAD_EXEMPT_FROM_CAD_STANDARDS
 70
     0
  0
APPID
  2
ACAD_NAV_VCDISPLAY
 70
     0
  0
APPID
  2
ACAECLAYERSTANDARD
 70
     0
  0
APPID
  2
ACCMTRANSPARENCY
 70
     0
  0
APPID
  2
ACAD_DSTYLE_DIMJAG
 70
     0
  0
APPID
  2
ACAD_DSTYLE_DIMTALN
 70
     0
  0
APPID
  2
ACDBATTR
 70
     0
  0
ENDTAB
  0
TABLE
  2
DIMSTYLE
 70
     1
  0
DIMSTYLE
  2
STANDARD
 70
     0
  3

  4

  5

  6

  7

 40
1.0
 41
0.1875
 42
0.0625
 43
0.38
 44
0.125
 45
0.0
 46
0.0
 47
0.01
 48
0.01
140
0.15625
141
0.09
142
0.0
143
25.3999999999999986
144
1.0
145
0.0
146
1.0
147
0.09
 71
     1
 72
     0
 73
     1
 74
     1
 75
     0
 76
     0
 77
     0
 78
     4
170
     0
171
     2
172
     0
173
     0
174
     0
175
     0
176
     0
177
     0
178
     0
  0
ENDTAB
  0
ENDSEC
  0
SECTION
  2
BLOCKS
  0
BLOCK
  8
0
  2
$MODEL_SPACE
 70
     0
 10
0.0
 20
0.0
 30
0.0
  3
$MODEL_SPACE
  1

  0
ENDBLK
  5
21
  8
0
  0
BLOCK
 67
     1
  8
0
  2
$PAPER_SPACE
 70
     0
 10
0.0
 20
0.0
 30
0.0
  3
$PAPER_SPACE
  1

  0
ENDBLK
  5
1D
 67
     1
  8
0
  0
BLOCK
  8
0
  2
_FILLED
 70
     0
 10
0.0
 20
0.0
 30
0.0
  3
_FILLED
  1

  0
SOLID
  5
12CB9
  8
0
  6
BYBLOCK
 62
     0
 10
0.0
 20
0.0
 30
0.0
 11
-1.0
 21
0.1666666667
 31
0.0
 12
-1.0
 22
-0.1666666667
 32
0.0
 13
-1.0
 23
-0.1666666667
 33
0.0
  0
ENDBLK
  5
12CBA
  8
0
  6
BYBLOCK
 62
     0
  0
ENDSEC
  0
SECTION
  2
ENTITIES
  0
ATTDEF
  5
14183
  8
DEFPOINTS
 10
4208.193185312076821
 20
186.9444031985771062
 30
0.0
 40
0.001
  1
K-26383T
  3

  2
MODELNUMBER
 70
     0
1001
ACDBATTR
1070
     0
1070
     1
  0
ATTDEF
  5
14184
  8
DEFPOINTS
 10
4208.193185312076821
 20
186.9427365319104126
 30
0.0
 40
0.001
  1
VERDERA
  3

  2
TRADENAME
 70
     0
1001
ACDBATTR
1070
     0
1070
     1
  0
ATTDEF
  5
14185
  8
DEFPOINTS
 10
4208.193185312076821
 20
186.9410698652436906
 30
0.0
 40
0.001
  1
MEDICINE CABINET
  3

  2
PRODUCT
 70
     0
1001
ACDBATTR
1070
     0
1070
     1
  0
LINE
  5
1477B
  8
0
 10
4190.4428943874208926
 20
171.1920602188718021
 30
0.0
 11
4188.9350203717212935
 21
171.1920602188718021
 31
0.0
  0
LINE
  5
1477C
  8
0
 10
4190.4763589544218121
 20
171.1920602188718021
 30
0.0
 11
4227.4507684032223551
 21
171.1920602188718021
 31
0.0
  0
LINE
  5
1477D
  8
0
 10
4190.4763589544218121
 20
171.1920602188718021
 30
0.0
 11
4190.4763589544218121
 21
202.6881232110717974
 31
0.0
  0
ARC
  5
1477E
  8
0
 10
4190.4428943874208926
 20
171.2196192739718015
 30
0.0
 40
0.0275590550999927
 50
269.9998456941183917
 51
0.000000000014656
  0
LINE
  5
1477F
  8
0
 10
4190.4704534425218299
 20
171.2196192739718015
 30
0.0
 11
4190.4704534425218299
 21
171.2511153369717931
 31
0.0
  0
LINE
  5
14780
  8
0
 10
4190.4763589544218121
 20
171.2511153369717931
 30
0.0
 11
4188.9074613166221752
 21
171.2511153369717931
 31
0.0
  0
LINE
  5
14781
  8
0
 10
4188.9074613166221752
 20
171.2511153369717931
 30
0.0
 11
4188.9074613166221752
 21
171.2196192739718015
 31
0.0
  0
ARC
  5
14782
  8
0
 10
4188.9350203717212935
 20
171.2196192739718015
 30
0.0
 40
0.0275590550999994
 50
180.0
 51
270.0
  0
LINE
  5
14783
  8
0
 10
4188.9074613166221752
 20
171.2255247858718121
 30
0.0
 11
4188.9015558047212835
 21
171.2314302976718068
 31
0.0
  0
LINE
  5
14784
  8
0
 10
4188.9015558047212835
 20
171.2314302976718068
 30
0.0
 11
4188.9015558047212835
 21
202.6487531322717928
 31
0.0
  0
LINE
  5
14785
  8
0
 10
4188.9015558047212835
 20
202.6487531322717928
 30
0.0
 11
4188.9074613166221752
 21
202.6546586440717874
 31
0.0
  0
LINE
  5
14786
  8
0
 10
4188.9074613166221752
 20
202.6290680928717904
 30
0.0
 11
4190.4763589544218121
 21
202.6290680928717904
 31
0.0
  0
LINE
  5
14787
  8
0
 10
4190.4704534425218299
 20
202.6290680928717904
 30
0.0
 11
4190.4704534425218299
 21
202.6605641558718105
 31
0.0
  0
ARC
  5
14788
  8
0
 10
4190.4428943874208926
 20
202.6605641558718105
 30
0.0
 40
0.0275590550999994
 50
0.0
 51
90.0
  0
LINE
  5
14789
  8
0
 10
4190.4428943874208926
 20
202.6881232109718098
 30
0.0
 11
4188.9350204459424276
 21
202.6881232109718098
 31
0.0
  0
ARC
  5
1478A
  8
0
 10
4188.9350204459424276
 20
202.6605640816513016
 30
0.0
 40
0.0275591293205153
 50
90.0
 51
179.9998456949082026
  0
LINE
  5
1478B
  8
0
 10
4188.9074613166221752
 20
202.6605641558716968
 30
0.0
 11
4188.9074612317981519
 21
202.6290680928717904
 31
0.0
  0
LINE
  5
1478C
  8
0
 10
4190.4763589544218121
 20
202.6881232110717974
 30
0.0
 11
4225.909429820520927
 21
202.6881232110717974
 31
0.0
  0
LINE
  5
1478D
  8
0
 10
4225.9428943874208926
 20
202.6881232110717974
 30
0.0
 11
4227.4507684032223551
 21
202.6881232110717974
 31
0.0
  0
LINE
  5
1478E
  8
0
 10
4190.5354140725221441
 20
202.6881232110717974
 30
0.0
 11
4190.5669101355224484
 21
202.6566271480718058
 31
0.0
  0
LINE
  5
1478F
  8
0
 10
4190.5669101355224484
 20
202.6566271480718058
 30
0.0
 11
4214.0078550173220719
 21
202.6566271480718058
 31
0.0
  0
LINE
  5
14790
  8
0
 10
4214.1889573796206605
 20
202.6566271480718058
 30
0.0
 11
4225.8188786394212002
 21
202.6566271480718058
 31
0.0
  0
LINE
  5
14791
  8
0
 10
4190.5669101355224484
 20
202.6566271480718058
 30
0.0
 11
4190.5669101355224484
 21
179.2944224235718025
 31
0.0
  0
LINE
  5
14792
  8
0
 10
4190.5669101355224484
 20
179.2944224235718025
 30
0.0
 11
4190.5354140725221441
 21
179.2629263606717984
 31
0.0
  0
LINE
  5
14793
  8
0
 10
4190.5669101355224484
 20
179.2944224236717901
 30
0.0
 11
4214.0078550173220719
 21
179.2944224236717901
 31
0.0
  0
LINE
  5
14794
  8
0
 10
4214.1889573796206605
 20
179.2944224236717901
 30
0.0
 11
4225.8188786394212002
 21
179.2944224236717901
 31
0.0
  0
LINE
  5
14795
  8
0
 10
4190.5354140725221441
 20
179.2629263606717984
 30
0.0
 11
4225.850374702420595
 21
179.2629263606717984
 31
0.0
  0
LINE
  5
14796
  8
0
 10
4190.5354140725221441
 20
179.2629263606717984
 30
0.0
 11
4190.5354140725221441
 21
202.6881232110717974
 31
0.0
  0
LINE
  5
14797
  8
0
 10
4191.4606109229216599
 20
179.2629263606717984
 30
0.0
 11
4191.4606109229216599
 21
171.1920602188718021
 31
0.0
  0
LINE
  5
14798
  8
0
 10
4224.9251778520210792
 20
179.1448161243718005
 30
0.0
 11
4191.4606109229216599
 21
179.1448161243718005
 31
0.0
  0
LINE
  5
14799
  8
0
 10
4191.4606109229216599
 20
172.1566271480718058
 30
0.0
 11
4224.9251778520210792
 21
172.1566271480718058
 31
0.0
  0
LINE
  5
1479A
  8
0
 10
4191.4606109229216599
 20
172.4322176991717868
 30
0.0
 11
4224.9251778520210792
 21
172.4322176991717868
 31
0.0
  0
LINE
  5
1479B
  8
0
 10
4224.9251778520210792
 20
171.1920602188718021
 30
0.0
 11
4224.9251778520210792
 21
179.2629263606717984
 31
0.0
  0
LINE
  5
1479C
  8
0
 10
4225.850374702420595
 20
179.2629263606717984
 30
0.0
 11
4225.850374702420595
 21
202.6881232110717974
 31
0.0
  0
LINE
  5
1479D
  8
0
 10
4225.8188786394212002
 20
179.2944224236717901
 30
0.0
 11
4225.8188786394212002
 21
202.6566271480718058
 31
0.0
  0
LINE
  5
1479E
  8
0
 10
4225.8188786394212002
 20
179.2944224236717901
 30
0.0
 11
4225.850374702420595
 21
179.2629263606717984
 31
0.0
  0
LINE
  5
147AC
  8
0
 10
4225.850374702420595
 20
202.6881232110717974
 30
0.0
 11
4225.8188786394212002
 21
202.6566271480718058
 31
0.0
  0
ARC
  5
147AD
  8
0
 10
4227.4507684032223551
 20
202.6605641558718105
 30
0.0
 40
0.0275590551000007
 50
0.0000000051996217
 51
90.0747698254128721
  0
LINE
  5
147AE
  8
0
 10
4227.4783274583205639
 20
202.6605641558743116
 30
0.0
 11
4227.4783274583242019
 21
202.6290680928717904
 31
0.0
  0
LINE
  5
147AF
  8
0
 10
4227.4783274583223829
 20
202.6546586440713043
 30
0.0
 11
4227.4842329701214112
 21
202.6487531322717928
 31
0.0
  0
LINE
  5
147B0
  8
0
 10
4227.4842329701214112
 20
202.6487531322717928
 30
0.0
 11
4227.4842329701214112
 21
171.2314302976718068
 31
0.0
  0
LINE
  5
147B1
  8
0
 10
4227.4842329701214112
 20
171.2314302976718068
 30
0.0
 11
4227.4783274583205639
 21
171.2255247858718121
 31
0.0
  0
LINE
  5
147B2
  8
0
 10
4227.4783274583205639
 20
171.2511153369717931
 30
0.0
 11
4227.4783274583205639
 21
171.2196192739718015
 31
0.0
  0
ARC
  5
147B3
  8
0
 10
4227.4507684032223551
 20
171.2196192739718015
 30
0.0
 40
0.0275590550999994
 50
270.0
 51
359.9999999999902229
  0
LINE
  5
147B4
  8
0
 10
4227.4842329701214112
 20
171.2511153369717931
 30
0.0
 11
4225.909429820520927
 21
171.2511153369717931
 31
0.0
  0
LINE
  5
147B5
  8
0
 10
4225.909429820520927
 20
171.1920602188718021
 30
0.0
 11
4225.909429820520927
 21
202.6881232110717974
 31
0.0
  0
LINE
  5
147B6
  8
0
 10
4225.909429820520927
 20
202.6290680928717904
 30
0.0
 11
4227.4842329701214112
 21
202.6290680928717904
 31
0.0
  0
LINE
  5
147B7
  8
0
 10
4225.9153353323217743
 20
202.6290680928717904
 30
0.0
 11
4225.9153353323217743
 21
202.6605641558716968
 31
0.0
  0
ARC
  5
147B8
  8
0
 10
4225.9428943874208926
 20
202.6605641558716968
 30
0.0
 40
0.0275590551000953
 50
89.999845694326865
 51
179.9999999999984084
  0
LINE
  5
147B9
  8
0
 10
4214.0393510803205572
 20
179.2629263606717984
 30
0.0
 11
4214.0393510803205572
 21
202.6881232110717974
 31
0.0
  0
LINE
  5
147BA
  8
0
 10
4214.1574613166221752
 20
179.2629263606717984
 30
0.0
 11
4214.1574613166221752
 21
202.6881232110717974
 31
0.0
  0
LINE
  5
147BB
  8
0
 10
4214.0078550173220719
 20
179.2944224236717901
 30
0.0
 11
4214.0078550173220719
 21
202.6566271480718058
 31
0.0
  0
LINE
  5
147BC
  8
0
 10
4214.1889573796206605
 20
179.2944224236717901
 30
0.0
 11
4214.1889573796206605
 21
202.6566271480718058
 31
0.0
  0
LINE
  5
147BD
  8
0
 10
4214.0078550173220719
 20
179.2944224236717901
 30
0.0
 11
4214.0393510803205572
 21
179.2629263606717984
 31
0.0
  0
LINE
  5
147BE
  8
0
 10
4214.1574613166221752
 20
179.2629263606717984
 30
0.0
 11
4214.1889573796206605
 21
179.2944224236717901
 31
0.0
  0
LINE
  5
147BF
  8
0
 10
4214.0393510803205572
 20
180.2274932897717861
 30
0.0
 11
4214.1574613166221752
 21
180.2274932897717861
 31
0.0
  0
LINE
  5
147C0
  8
0
 10
4214.0393510803205572
 20
180.2471783291717884
 30
0.0
 11
4214.1574613166221752
 21
180.2471783291717884
 31
0.0
  0
LINE
  5
147C1
  8
0
 10
4214.1574613166221752
 20
180.3456035259717964
 30
0.0
 11
4214.0393510803205572
 21
180.3456035259717964
 31
0.0
  0
LINE
  5
147C2
  8
0
 10
4214.0393510803205572
 20
180.3652885653717988
 30
0.0
 11
4214.1574613166221752
 21
180.3652885653717988
 31
0.0
  0
LINE
  5
147C3
  8
0
 10
4214.0393510803205572
 20
194.6044617936717884
 30
0.0
 11
4214.1574613166221752
 21
194.6044617936717884
 31
0.0
  0
LINE
  5
147C4
  8
0
 10
4214.1574613166221752
 20
194.5650917149717998
 30
0.0
 11
4214.0393510803205572
 21
194.5650917149717998
 31
0.0
  0
LINE
  5
147C5
  8
0
 10
4214.0393510803205572
 20
194.4076113999718132
 30
0.0
 11
4214.1574613166221752
 21
194.4076113999718132
 31
0.0
  0
LINE
  5
147C6
  8
0
 10
4214.1574613166221752
 20
194.3682413212717961
 30
0.0
 11
4214.0393510803205572
 21
194.3682413212717961
 31
0.0
  0
LINE
  5
147C7
  8
0
 10
4214.0393510803205572
 20
201.6841862031718051
 30
0.0
 11
4214.1574613166221752
 21
201.6841862031718051
 31
0.0
  0
LINE
  5
147C8
  8
0
 10
4214.1574613166221752
 20
201.7038712425718074
 30
0.0
 11
4214.0393510803205572
 21
201.7038712425718074
 31
0.0
  0
LINE
  5
147C9
  8
0
 10
4214.0393510803205572
 20
201.4479657306717968
 30
0.0
 11
4214.1574613166221752
 21
201.4479657306717968
 31
0.0
  0
LINE
  5
147CA
  8
0
 10
4214.1574613166221752
 20
201.4282806913718105
 30
0.0
 11
4214.0393510803205572
 21
201.4282806913718105
 31
0.0
  0
LINE
  5
147CB
  8
0
 10
4214.0078550173220719
 20
202.6566271480718058
 30
0.0
 11
4214.0393510803205572
 21
202.6881232110717974
 31
0.0
  0
LINE
  5
147CC
  8
0
 10
4214.1574613166221752
 20
202.6881232110717974
 30
0.0
 11
4214.1889573796206605
 21
202.6566271480718058
 31
0.0
  0
ENDSEC
  0
EOF
