  0
SECTION
  2
HEADER
  9
$ACADVER
  1
AC1009
  9
$INSBASE
 10
4958.1690185381994525
 20
339.0418431428760755
 30
0.0
  9
$EXTMIN
 10
4947.5456234998582659
 20
334.4224190746367071
 30
-0.0015258207003583
  9
$EXTMAX
 10
4968.670274966643774
 20
342.6111207057430761
 30
0.0000000349246037
  9
$LIMMIN
 10
0.0
 20
0.0
  9
$LIMMAX
 10
11.6929133858000007
 20
8.2677165353999982
  9
$ORTHOMODE
 70
     0
  9
$REGENMODE
 70
     1
  9
$FILLMODE
 70
     1
  9
$QTEXTMODE
 70
     0
  9
$MIRRTEXT
 70
     0
  9
$DRAGMODE
 70
     2
  9
$LTSCALE
 40
0.6431102362
  9
$OSMODE
 70
  4095
  9
$ATTMODE
 70
     1
  9
$TEXTSIZE
 40
0.2
  9
$TRACEWID
 40
0.05
  9
$TEXTSTYLE
  7
STANDARD
  9
$CLAYER
  8
0
  9
$CELTYPE
  6
BYLAYER
  9
$CECOLOR
 62
   256
  9
$DIMSCALE
 40
1.0
  9
$DIMASZ
 40
0.1875
  9
$DIMEXO
 40
0.0625
  9
$DIMDLI
 40
0.4443307087
  9
$DIMRND
 40
0.0
  9
$DIMDLE
 40
0.0
  9
$DIMEXE
 40
0.125
  9
$DIMTP
 40
0.01
  9
$DIMTM
 40
0.01
  9
$DIMTXT
 40
2.0
  9
$DIMCEN
 40
0.1052362205
  9
$DIMTSZ
 40
0.0
  9
$DIMTOL
 70
     1
  9
$DIMLIM
 70
     0
  9
$DIMTIH
 70
     1
  9
$DIMTOH
 70
     1
  9
$DIMSE1
 70
     0
  9
$DIMSE2
 70
     0
  9
$DIMTAD
 70
     0
  9
$DIMZIN
 70
     0
  9
$DIMBLK
  1

  9
$DIMASO
 70
     1
  9
$DIMSHO
 70
     1
  9
$DIMPOST
  1
\X
  9
$DIMAPOST
  1

  9
$DIMALT
 70
     1
  9
$DIMALTD
 70
     2
  9
$DIMALTF
 40
25.3999999999999986
  9
$DIMLFAC
 40
1.0
  9
$DIMTOFL
 70
     0
  9
$DIMTVP
 40
0.0
  9
$DIMTIX
 70
     0
  9
$DIMSOXD
 70
     0
  9
$DIMSAH
 70
     0
  9
$DIMBLK1
  1

  9
$DIMBLK2
  1

  9
$DIMSTYLE
  2
STANDARD
  9
$DIMCLRD
 70
     0
  9
$DIMCLRE
 70
     0
  9
$DIMCLRT
 70
     0
  9
$DIMTFAC
 40
1.0
  9
$DIMGAP
 40
0.09
  9
$LUNITS
 70
     2
  9
$LUPREC
 70
     4
  9
$SKETCHINC
 40
0.1
  9
$FILLETRAD
 40
0.0
  9
$AUNITS
 70
     0
  9
$AUPREC
 70
     0
  9
$MENU
  1
.
  9
$ELEVATION
 40
0.0
  9
$PELEVATION
 40
0.0
  9
$THICKNESS
 40
0.0
  9
$LIMCHECK
 70
     0
  9
$BLIPMODE
 70
     0
  9
$CHAMFERA
 40
0.0
  9
$CHAMFERB
 40
0.0
  9
$SKPOLY
 70
     0
  9
$TDCREATE
 40
2458060.468368056230247
  9
$TDUPDATE
 40
2459431.5365046290680766
  9
$TDINDWG
 40
0.597784838
  9
$TDUSRTIMER
 40
0.597784838
  9
$USRTIMER
 70
     1
  9
$ANGBASE
 50
0.0
  9
$ANGDIR
 70
     0
  9
$PDMODE
 70
     0
  9
$PDSIZE
 40
0.3125
  9
$PLINEWID
 40
0.0
  9
$COORDS
 70
     1
  9
$SPLFRAME
 70
     0
  9
$SPLINETYPE
 70
     6
  9
$SPLINESEGS
 70
     8
  9
$ATTDIA
 70
     1
  9
$ATTREQ
 70
     1
  9
$HANDLING
 70
     1
  9
$HANDSEED
  5
22092
  9
$SURFTAB1
 70
     6
  9
$SURFTAB2
 70
     6
  9
$SURFTYPE
 70
     6
  9
$SURFU
 70
     6
  9
$SURFV
 70
     6
  9
$UCSNAME
  2

  9
$UCSORG
 10
0.0
 20
0.0
 30
0.0
  9
$UCSXDIR
 10
1.0
 20
0.0
 30
0.0
  9
$UCSYDIR
 10
0.0
 20
1.0
 30
0.0
  9
$PUCSNAME
  2

  9
$PUCSORG
 10
0.0
 20
0.0
 30
0.0
  9
$PUCSXDIR
 10
1.0
 20
0.0
 30
0.0
  9
$PUCSYDIR
 10
0.0
 20
1.0
 30
0.0
  9
$USERI1
 70
     0
  9
$USERI2
 70
     0
  9
$USERI3
 70
     0
  9
$USERI4
 70
     0
  9
$USERI5
 70
     0
  9
$USERR1
 40
0.0
  9
$USERR2
 40
0.0
  9
$USERR3
 40
0.0
  9
$USERR4
 40
0.0
  9
$USERR5
 40
0.0
  9
$WORLDVIEW
 70
     1
  9
$SHADEDGE
 70
     3
  9
$SHADEDIF
 70
    70
  9
$TILEMODE
 70
     1
  9
$MAXACTVP
 70
    64
  9
$PLIMCHECK
 70
     0
  9
$PEXTMIN
 10
1.0000000000000000E+20
 20
1.0000000000000000E+20
 30
1.0000000000000000E+20
  9
$PEXTMAX
 10
-1.0000000000000000E+20
 20
-1.0000000000000000E+20
 30
-1.0000000000000000E+20
  9
$PLIMMIN
 10
0.0
 20
0.0
  9
$PLIMMAX
 10
12.0
 20
9.0
  9
$UNITMODE
 70
     0
  9
$VISRETAIN
 70
     1
  9
$PLINEGEN
 70
     0
  9
$PSLTSCALE
 70
     1
  0
ENDSEC
  0
SECTION
  2
TABLES
  0
TABLE
  2
VPORT
 70
     1
  0
VPORT
  2
*ACTIVE
 70
     0
 10
0.0
 20
0.0
 11
1.0
 21
1.0
 12
1046.7425927879380652
 22
205.9371647876508007
 13
0.0
 23
0.0
 14
1.0
 24
1.0
 15
0.0
 25
0.0
 16
0.0
 26
0.0
 36
60.4960186965801583
 17
3911.3653564453120453
 27
132.5796051025390057
 37
0.0
 40
10.3956651063890497
 41
2.0410052910052912
 42
50.0
 43
0.0
 44
0.0
 50
0.0
 51
0.0
 71
     0
 72
   100
 73
     1
 74
     1
 75
     0
 76
     0
 77
     0
 78
     0
  0
ENDTAB
  0
TABLE
  2
LTYPE
 70
     2
  0
LTYPE
  2
CONTINUOUS
 70
     0
  3
Solid line
 72
    65
 73
     0
 40
0.0
  0
LTYPE
  2
PHANTOM2
 70
     0
  3
___ _ _ ___ _ _ ___ _ _ ___ _ _
 72
    65
 73
     6
 40
1.25
 49
0.625
 49
-0.125
 49
0.125
 49
-0.125
 49
0.125
 49
-0.125
  0
ENDTAB
  0
TABLE
  2
LAYER
 70
     2
  0
LAYER
  2
0
 70
     0
 62
   255
  6
CONTINUOUS
  0
LAYER
  2
DEFPOINTS
 70
     0
 62
     7
  6
CONTINUOUS
  0
ENDTAB
  0
TABLE
  2
STYLE
 70
     1
  0
STYLE
  2
STANDARD
 70
     0
 40
0.0
 41
0.8
 50
0.0
 71
     0
 42
0.2
  3
txt
  4

  0
ENDTAB
  0
TABLE
  2
VIEW
 70
     0
  0
ENDTAB
  0
TABLE
  2
UCS
 70
     0
  0
ENDTAB
  0
TABLE
  2
APPID
 70
    11
  0
APPID
  2
ACAD
 70
     0
  0
APPID
  2
ACAD_MLEADERVER
 70
     0
  0
APPID
  2
ACAD_EXEMPT_FROM_CAD_STANDARDS
 70
     0
  0
APPID
  2
ACAD_NAV_VCDISPLAY
 70
     0
  0
APPID
  2
ACAECLAYERSTANDARD
 70
     0
  0
APPID
  2
ACCMTRANSPARENCY
 70
     0
  0
APPID
  2
ACAD_DSTYLE_DIMJAG
 70
     0
  0
APPID
  2
ACAD_DSTYLE_DIMTALN
 70
     0
  0
APPID
  2
ACDBATTR
 70
     0
  0
APPID
  2
ACADANNOTATIVE
 70
     0
  0
APPID
  2
DCO15
 70
     0
  0
ENDTAB
  0
TABLE
  2
DIMSTYLE
 70
     1
  0
DIMSTYLE
  2
STANDARD
 70
     0
  3

  4

  5

  6

  7

 40
1.0
 41
0.1875
 42
0.0625
 43
0.38
 44
0.125
 45
0.0
 46
0.0
 47
0.01
 48
0.01
140
0.15625
141
0.09
142
0.0
143
25.3999999999999986
144
1.0
145
0.0
146
1.0
147
0.09
 71
     1
 72
     0
 73
     1
 74
     1
 75
     0
 76
     0
 77
     0
 78
     4
170
     0
171
     2
172
     0
173
     0
174
     0
175
     0
176
     0
177
     0
178
     0
  0
ENDTAB
  0
ENDSEC
  0
SECTION
  2
BLOCKS
  0
BLOCK
  8
0
  2
$MODEL_SPACE
 70
     0
 10
0.0
 20
0.0
 30
0.0
  3
$MODEL_SPACE
  1

  0
ENDBLK
  5
21
  8
0
  0
BLOCK
 67
     1
  8
0
  2
$PAPER_SPACE
 70
     0
 10
0.0
 20
0.0
 30
0.0
  3
$PAPER_SPACE
  1

  0
ENDBLK
  5
1D
 67
     1
  8
0
  0
ENDSEC
  0
SECTION
  2
ENTITIES
  0
ATTDEF
  5
20106
  8
DEFPOINTS
 10
4958.165818856844453
 20
339.0464811811389723
 30
0.0
 40
0.001
  1
K-26406T-X
  3

  2
MODELNUMBER
 70
     0
1001
ACDBATTR
1070
     0
1070
     1
  0
ATTDEF
  5
20107
  8
DEFPOINTS
 10
4958.1656930471872329
 20
339.0448143407598991
 30
0.0
 40
0.001
  1
VEIL
  3

  2
TRADENAME
 70
     0
1001
ACDBATTR
1070
     0
1070
     1
  0
ATTDEF
  5
20108
  8
DEFPOINTS
 10
4958.165818856844453
 20
339.0431478478056988
 30
0.0
 40
0.001
  1
BATHROOM SINK
  3

  2
PRODUCT
 70
     0
1001
ACDBATTR
1070
     0
1070
     1
  0
LINE
  5
21FD8
  8
0
 10
4959.8249907303934378
 20
334.4355439302760828
 30
0.0
 11
4956.5130463460036481
 21
334.4355439302760828
 31
0.0
  0
LINE
  5
21FD9
  8
0
 10
4965.9187157576407117
 20
338.3331817255760825
 30
0.0
 11
4949.1997133111181029
 21
338.3331817255760825
 31
0.0
  0
LINE
  5
21FDA
  8
0
 10
4966.4951190457386474
 20
339.0418431428760755
 30
0.0
 11
4948.6288371268419723
 21
339.0418431428760755
 31
0.0
  0
LINE
  5
21FDB
  8
0
 10
4949.5527590628125836
 20
338.2150714893763848
 30
0.0
 11
4965.5608230880616247
 21
338.2150714893746226
 31
0.0
  0
LINE
  5
21FDC
  8
0
 10
4956.368337252877609
 20
335.0562954377761002
 30
0.0
 11
4956.3933870432765616
 21
334.5478423178353751
 31
0.0
  0
LINE
  5
21FDD
  8
0
 10
4955.9221479482403083
 20
335.9376172022761011
 30
0.0
 11
4955.9328005543638938
 21
335.5972734636761174
 31
0.0
  0
LINE
  5
21FDE
  8
0
 10
4949.1565859692400409
 20
339.0041000405261116
 30
0.0
 11
4949.179366895739804
 21
338.3519267779261099
 31
0.0
  0
ARC
  5
21FDF
  8
0
 10
4956.5102702529457019
 20
334.5524864190742278
 30
0.0
 40
0.1169754349381719
 50
182.275326883630612
 51
271.3598868040521097
  0
ARC
  5
21FE0
  8
0
 10
4956.1717253232400253
 20
335.0466090233761065
 30
0.0
 40
0.1968503936999955
 50
2.8204915758741311
 51
74.8539858610526352
  0
ARC
  5
21FE1
  8
0
 10
4956.3386999930826278
 20
335.6268512912138249
 30
0.0
 40
0.4069756777391246
 50
184.1677679127153908
 51
253.5067097366026019
  0
ARC
  5
21FE2
  8
0
 10
4955.5205627999130229
 20
335.9308231564991729
 30
0.0
 40
0.4016426152869948
 50
0.9692415611561106
 51
80.5105543411652746
  0
ARC
  5
21FE3
  8
0
 10
4957.4037816777263288
 20
349.9822697475099744
 30
0.0
 40
13.7756566031589909
 50
238.6953044008319011
 51
262.4206312121131077
  0
LINE
  5
21FE4
  8
0
 10
4949.5343610422387428
 20
338.3132437010261242
 30
0.0
 11
4949.5343610422387428
 21
338.2345035435261025
 31
0.0
  0
ARC
  5
21FE5
  8
0
 10
4949.1986677975819475
 20
338.3524617117683988
 30
0.0
 40
0.0193083133944878
 50
181.5875738642556882
 51
273.1039906907861905
  0
ARC
  5
21FE6
  8
0
 10
4949.1166410189362068
 20
339.0019524935374875
 30
0.0
 40
0.0400026375732491
 50
3.0774110840606501
 51
85.7117422037206182
  0
ARC
  5
21FE7
  8
0
 10
4953.0171929938842368
 20
342.4054700442133026
 30
0.0
 40
5.5758196791047041
 50
199.2521226032147013
 51
216.495802894047614
  0
ARC
  5
21FE8
  8
0
 10
4948.6273233639567479
 20
339.1559391954805278
 30
0.0
 40
0.1141060940439895
 50
215.8112520727972026
 51
270.7601238945586033
  0
ARC
  5
21FE9
  8
0
 10
4959.8249907303934378
 20
334.5536554407574954
 30
0.0
 40
0.1181115104823565
 50
270.0
 51
353.5485037034849825
  0
ARC
  5
21FEA
  8
0
 10
4947.9030136149176542
 20
340.6161308280089202
 30
0.0
 40
0.1576790610695533
 50
129.0500730339954885
 51
198.1627894827628893
  0
ARC
  5
21FEB
  8
0
 10
4977.8241132499997548
 20
95.3126696340280546
 30
0.0
 40
247.5440125252561927
 50
93.6388033449477035
 51
95.7730541769714847
  0
ARC
  5
21FEC
  8
0
 10
4948.3851479005379588
 20
339.9797055951182756
 30
0.0
 40
0.9560364318894343
 50
105.2832874960631955
 51
127.4602673361664955
  0
ARC
  5
21FED
  8
0
 10
4956.3416911325366527
 20
301.4225088118823237
 30
0.0
 40
40.3237526214045516
 50
94.8619286404029225
 51
101.7455690450547934
  0
ARC
  5
21FEE
  8
0
 10
4949.5536349356252686
 20
338.2343262870360263
 30
0.0
 40
0.0192747084567559
 50
179.4730819426908113
 51
267.3954933242617926
  0
ARC
  5
21FEF
  8
0
 10
4949.5141224223189056
 20
338.3130246803893897
 30
0.0
 40
0.0202398049979506
 50
0.6200258864596455
 51
84.8168675183563039
  0
LINE
  5
21FF0
  8
0
 10
4956.2231583535367463
 20
335.2366214463760912
 30
0.0
 11
4960.109342770969306
 21
335.2366257058744168
 31
0.0
  0
ARC
  5
21FF1
  8
0
 10
4960.0104560613790454
 20
335.6134796604325743
 30
0.0
 40
0.3896119664481821
 50
284.702976531193201
 51
358.1659697177382213
  0
ARC
  5
21FF2
  8
0
 10
4960.1541878920488671
 20
335.0519374196020976
 30
0.0
 40
0.1900548551626703
 50
103.6481491950727047
 51
177.5756523683012063
  0
ARC
  5
21FF3
  8
0
 10
4955.8924769675086281
 20
335.9159518730720038
 30
0.0
 40
4.5183809097619561
 50
356.0031119005928986
 51
0.8700533317013547
  0
ARC
  5
21FF4
  8
0
 10
4960.8048584212983769
 20
335.9843284824617058
 30
0.0
 40
0.3945215571764362
 50
102.7271274477352989
 51
179.9660597872135952
  0
ARC
  5
21FF5
  8
0
 10
4950.2338304939603404
 20
338.1893348843505009
 30
0.0
 40
0.0258829812592963
 50
61.7028838096635468
 51
83.9036394351609687
  0
LINE
  5
21FF6
  8
0
 10
4959.9423542798631388
 20
334.5403841874542081
 30
0.0
 11
4959.9643031464365777
 21
335.0599767824572268
 31
0.0
  0
ARC
  5
21FF7
  8
0
 10
4957.8728697008737072
 20
348.8072648185191724
 30
0.0
 40
12.7593482883964597
 50
282.884090846119193
 51
303.8592500450058083
  0
ARC
  5
21FF8
  8
0
 10
4964.9930120897552115
 20
338.1946781620785032
 30
0.0
 40
0.0204582164347653
 50
94.5646196643888857
 51
123.2336250141142955
  0
LINE
  5
21FF9
  8
0
 10
4965.5820177606910875
 20
338.314347637426124
 30
0.0
 11
4965.5820177607001824
 21
338.2347565306761226
 31
0.0
  0
ARC
  5
21FFA
  8
0
 10
4965.5622009223779969
 20
338.2348405488551748
 30
0.0
 40
0.0198170164289816
 50
266.0131315727116998
 51
359.7570824295476086
  0
ARC
  5
21FFB
  8
0
 10
4965.6016903762001675
 20
338.3134904508452223
 30
0.0
 40
0.0196912815692258
 50
90.0477501508744069
 51
177.5050533019798991
  0
ARC
  5
21FFC
  8
0
 10
4958.6486233889008872
 20
346.2568412820609183
 30
0.0
 40
10.6922702969000092
 50
317.8421571330222832
 51
338.0841576614660084
  0
ARC
  5
21FFD
  8
0
 10
4967.5653035672539772
 20
338.8799490303055109
 30
0.0
 40
3.697482948157814
 50
76.6165653066584014
 51
89.879674875917587
  0
ARC
  5
21FFE
  8
0
 10
4968.3584655914301038
 20
342.2466878134783883
 30
0.0
 40
0.2387077930146613
 50
32.5759396289221286
 51
74.7762823556542031
  0
ARC
  5
21FFF
  8
0
 10
4968.4615869220288005
 20
342.3125756569942837
 30
0.0
 40
0.1163345249047577
 50
336.4058725819830897
 51
32.5759396289221286
  0
ARC
  5
22000
  8
0
 10
4964.9232849202580837
 20
164.7887743314446993
 30
0.0
 40
177.8083947453783935
 50
89.1461199685312522
 51
89.4395809783776343
  0
ARC
  5
22001
  8
0
 10
4971.5427079477804
 20
201.5969246837381945
 30
0.0
 40
141.0761764492580141
 50
91.9824409145642505
 51
93.8324233675008799
  0
ARC
  5
22002
  8
0
 10
4966.4863837728062208
 20
339.1613700477705038
 30
0.0
 40
0.1198456757119913
 50
274.179862871770581
 51
317.5322004785326726
  0
ARC
  5
22003
  8
0
 10
4965.9171768784954111
 20
338.3529429156217816
 30
0.0
 40
0.0198210186682084
 50
274.4528539280772179
 51
357.7934377924714227
  0
ARC
  5
22004
  8
0
 10
4965.999406558332339
 20
339.002337265086112
 30
0.0
 40
0.0396953472344007
 50
95.6002873817202641
 51
177.8202635394856941
  0
LINE
  5
22005
  8
0
 10
4965.9597399334452348
 20
339.0038470538760862
 30
0.0
 11
4965.9369832001402756
 21
338.3521797616760978
 31
0.0
  0
ARC
  5
22007
  8
0
 10
4948.0084582120489358
 20
340.7652096565652187
 30
0.0
 40
0.3231974429730682
 50
217.8314665518587958
 51
255.4678440510733139
  0
ARC
  5
22008
  8
0
 10
4949.6282312093562723
 20
346.396330173392812
 30
0.0
 40
6.1825427277280189
 50
254.0315129492585129
 51
266.0419480858537895
  0
ARC
  5
22009
  8
0
 10
4952.2452722829366394
 20
414.4023730470980809
 30
0.0
 40
74.2906689913591975
 50
269.2837662030294723
 51
274.5823010678673199
  0
ARC
  5
2200A
  8
0
 10
4951.9860532377078925
 20
411.1993616009737025
 30
0.0
 40
71.1204643564028203
 50
274.9966186963636119
 51
280.4162995626938937
  0
ARC
  5
2200B
  8
0
 10
4960.8477295551256248
 20
365.0559832408629859
 30
0.0
 40
24.1382251123497689
 50
279.5309808070772988
 51
288.2347958707912881
  0
ARC
  5
2200C
  8
0
 10
4952.9814615660397976
 20
392.0377932535178047
 30
0.0
 40
51.9469698574665273
 50
265.8271118018359971
 51
268.1634159162662172
  0
ARC
  5
2200D
  8
0
 10
4968.2458638642638107
 20
342.5036195676306079
 30
0.0
 40
0.4045633308904632
 50
291.69520728036332
 51
321.4895163568274938
  0
ENDSEC
  0
EOF
