  0
SECTION
  2
HEADER
  9
$ACADVER
  1
AC1009
  9
$INSBASE
 10
8945.9277276140419417
 20
2526.1018739606520285
 30
0.0
  9
$EXTMIN
 10
8938.9114318179235852
 20
2526.0937887072659578
 30
-0.0000000349181948
  9
$EXTMAX
 10
8952.4947417365401634
 20
2560.7548940205410872
 30
0.0000000814935746
  9
$LIMMIN
 10
0.0
 20
0.0
  9
$LIMMAX
 10
11.6929133858000007
 20
8.2677165353999982
  9
$ORTHOMODE
 70
     0
  9
$REGENMODE
 70
     1
  9
$FILLMODE
 70
     1
  9
$QTEXTMODE
 70
     0
  9
$MIRRTEXT
 70
     0
  9
$DRAGMODE
 70
     2
  9
$LTSCALE
 40
0.6431102362
  9
$OSMODE
 70
  4095
  9
$ATTMODE
 70
     1
  9
$TEXTSIZE
 40
0.2
  9
$TRACEWID
 40
0.05
  9
$TEXTSTYLE
  7
STANDARD
  9
$CLAYER
  8
0
  9
$CELTYPE
  6
BYLAYER
  9
$CECOLOR
 62
   256
  9
$DIMSCALE
 40
1.0
  9
$DIMASZ
 40
0.1875
  9
$DIMEXO
 40
0.0625
  9
$DIMDLI
 40
0.4443307087
  9
$DIMRND
 40
0.0
  9
$DIMDLE
 40
0.0
  9
$DIMEXE
 40
0.125
  9
$DIMTP
 40
0.01
  9
$DIMTM
 40
0.01
  9
$DIMTXT
 40
2.0
  9
$DIMCEN
 40
0.1052362205
  9
$DIMTSZ
 40
0.0
  9
$DIMTOL
 70
     1
  9
$DIMLIM
 70
     0
  9
$DIMTIH
 70
     1
  9
$DIMTOH
 70
     1
  9
$DIMSE1
 70
     0
  9
$DIMSE2
 70
     0
  9
$DIMTAD
 70
     0
  9
$DIMZIN
 70
     0
  9
$DIMBLK
  1

  9
$DIMASO
 70
     1
  9
$DIMSHO
 70
     1
  9
$DIMPOST
  1
\X
  9
$DIMAPOST
  1

  9
$DIMALT
 70
     1
  9
$DIMALTD
 70
     2
  9
$DIMALTF
 40
25.3999999999999986
  9
$DIMLFAC
 40
1.0
  9
$DIMTOFL
 70
     0
  9
$DIMTVP
 40
0.0
  9
$DIMTIX
 70
     0
  9
$DIMSOXD
 70
     0
  9
$DIMSAH
 70
     0
  9
$DIMBLK1
  1

  9
$DIMBLK2
  1

  9
$DIMSTYLE
  2
STANDARD
  9
$DIMCLRD
 70
     0
  9
$DIMCLRE
 70
     0
  9
$DIMCLRT
 70
     0
  9
$DIMTFAC
 40
1.0
  9
$DIMGAP
 40
0.09
  9
$LUNITS
 70
     2
  9
$LUPREC
 70
     4
  9
$SKETCHINC
 40
0.1
  9
$FILLETRAD
 40
0.0
  9
$AUNITS
 70
     0
  9
$AUPREC
 70
     0
  9
$MENU
  1
.
  9
$ELEVATION
 40
0.0
  9
$PELEVATION
 40
0.0
  9
$THICKNESS
 40
0.0
  9
$LIMCHECK
 70
     0
  9
$BLIPMODE
 70
     0
  9
$CHAMFERA
 40
0.0
  9
$CHAMFERB
 40
0.0
  9
$SKPOLY
 70
     0
  9
$TDCREATE
 40
2458060.468368056230247
  9
$TDUPDATE
 40
2460558.7221527779474854
  9
$TDINDWG
 40
0.4908403935
  9
$TDUSRTIMER
 40
0.4908403935
  9
$USRTIMER
 70
     1
  9
$ANGBASE
 50
0.0
  9
$ANGDIR
 70
     0
  9
$PDMODE
 70
     0
  9
$PDSIZE
 40
0.3125
  9
$PLINEWID
 40
0.0
  9
$COORDS
 70
     0
  9
$SPLFRAME
 70
     0
  9
$SPLINETYPE
 70
     6
  9
$SPLINESEGS
 70
     8
  9
$ATTDIA
 70
     1
  9
$ATTREQ
 70
     1
  9
$HANDLING
 70
     1
  9
$HANDSEED
  5
181FE
  9
$SURFTAB1
 70
     6
  9
$SURFTAB2
 70
     6
  9
$SURFTYPE
 70
     6
  9
$SURFU
 70
     6
  9
$SURFV
 70
     6
  9
$UCSNAME
  2

  9
$UCSORG
 10
0.0
 20
0.0
 30
0.0
  9
$UCSXDIR
 10
1.0
 20
0.0
 30
0.0
  9
$UCSYDIR
 10
0.0
 20
1.0
 30
0.0
  9
$PUCSNAME
  2

  9
$PUCSORG
 10
0.0
 20
0.0
 30
0.0
  9
$PUCSXDIR
 10
1.0
 20
0.0
 30
0.0
  9
$PUCSYDIR
 10
0.0
 20
1.0
 30
0.0
  9
$USERI1
 70
     0
  9
$USERI2
 70
     0
  9
$USERI3
 70
     0
  9
$USERI4
 70
     0
  9
$USERI5
 70
     0
  9
$USERR1
 40
0.0
  9
$USERR2
 40
0.0
  9
$USERR3
 40
0.0
  9
$USERR4
 40
0.0
  9
$USERR5
 40
0.0
  9
$WORLDVIEW
 70
     1
  9
$SHADEDGE
 70
     3
  9
$SHADEDIF
 70
    70
  9
$TILEMODE
 70
     1
  9
$MAXACTVP
 70
    64
  9
$PLIMCHECK
 70
     0
  9
$PEXTMIN
 10
1.0000000000000000E+20
 20
1.0000000000000000E+20
 30
1.0000000000000000E+20
  9
$PEXTMAX
 10
-1.0000000000000000E+20
 20
-1.0000000000000000E+20
 30
-1.0000000000000000E+20
  9
$PLIMMIN
 10
0.0
 20
0.0
  9
$PLIMMAX
 10
12.0
 20
9.0
  9
$UNITMODE
 70
     0
  9
$VISRETAIN
 70
     1
  9
$PLINEGEN
 70
     0
  9
$PSLTSCALE
 70
     1
  0
ENDSEC
  0
SECTION
  2
TABLES
  0
TABLE
  2
VPORT
 70
     1
  0
VPORT
  2
*ACTIVE
 70
     0
 10
0.0
 20
0.0
 11
1.0
 21
1.0
 12
4130.4047469334809648
 22
2295.6157170963251701
 13
0.0
 23
0.0
 14
1.0
 24
1.0
 15
0.0
 25
0.0
 16
0.0
 26
0.0
 36
9.5192988075487186
 17
4815.2983398437490905
 27
247.8086242675780966
 37
0.0
 40
34.9066385268279191
 41
2.2423167848699759
 42
50.0
 43
0.0
 44
0.0
 50
0.0
 51
0.0
 71
     0
 72
   100
 73
     1
 74
     1
 75
     0
 76
     0
 77
     0
 78
     0
  0
ENDTAB
  0
TABLE
  2
LTYPE
 70
     2
  0
LTYPE
  2
CONTINUOUS
 70
     0
  3
Solid line
 72
    65
 73
     0
 40
0.0
  0
LTYPE
  2
PHANTOM2
 70
     0
  3
___ _ _ ___ _ _ ___ _ _ ___ _ _
 72
    65
 73
     6
 40
1.25
 49
0.625
 49
-0.125
 49
0.125
 49
-0.125
 49
0.125
 49
-0.125
  0
ENDTAB
  0
TABLE
  2
LAYER
 70
     2
  0
LAYER
  2
0
 70
     0
 62
   255
  6
CONTINUOUS
  0
LAYER
  2
DEFPOINTS
 70
     0
 62
     7
  6
CONTINUOUS
  0
ENDTAB
  0
TABLE
  2
STYLE
 70
     1
  0
STYLE
  2
STANDARD
 70
     0
 40
0.0
 41
0.8
 50
0.0
 71
     0
 42
0.2
  3
txt
  4

  0
ENDTAB
  0
TABLE
  2
VIEW
 70
     0
  0
ENDTAB
  0
TABLE
  2
UCS
 70
     0
  0
ENDTAB
  0
TABLE
  2
APPID
 70
    10
  0
APPID
  2
ACAD
 70
     0
  0
APPID
  2
ACAD_MLEADERVER
 70
     0
  0
APPID
  2
ACAD_EXEMPT_FROM_CAD_STANDARDS
 70
     0
  0
APPID
  2
ACAD_NAV_VCDISPLAY
 70
     0
  0
APPID
  2
ACAECLAYERSTANDARD
 70
     0
  0
APPID
  2
ACCMTRANSPARENCY
 70
     0
  0
APPID
  2
ACAD_DSTYLE_DIMJAG
 70
     0
  0
APPID
  2
ACAD_DSTYLE_DIMTALN
 70
     0
  0
APPID
  2
ACDBATTR
 70
     0
  0
APPID
  2
ACADANNOTATIVE
 70
     0
  0
ENDTAB
  0
TABLE
  2
DIMSTYLE
 70
     2
  0
DIMSTYLE
  2
STANDARD
 70
     0
  3

  4

  5

  6

  7

 40
1.0
 41
0.1875
 42
0.0625
 43
0.38
 44
0.125
 45
0.0
 46
0.0
 47
0.01
 48
0.01
140
0.15625
141
0.09
142
0.0
143
25.3999999999999986
144
1.0
145
0.0
146
1.0
147
0.09
 71
     1
 72
     0
 73
     1
 74
     1
 75
     0
 76
     0
 77
     0
 78
     4
170
     0
171
     2
172
     0
173
     0
174
     0
175
     0
176
     0
177
     0
178
     0
  0
DIMSTYLE
  2
ANNOTATIVE
 70
     0
  3

  4

  5

  6

  7

 40
0.0
 41
0.18
 42
0.0625
 43
0.38
 44
0.18
 45
0.0
 46
0.0
 47
0.0
 48
0.0
140
0.18
141
0.09
142
0.0
143
25.3999999999999986
144
1.0
145
0.0
146
1.0
147
0.09
 71
     0
 72
     0
 73
     1
 74
     1
 75
     0
 76
     0
 77
     0
 78
     0
170
     0
171
     2
172
     0
173
     0
174
     0
175
     0
176
     0
177
     0
178
     0
  0
ENDTAB
  0
ENDSEC
  0
SECTION
  2
BLOCKS
  0
BLOCK
  8
0
  2
$MODEL_SPACE
 70
     0
 10
0.0
 20
0.0
 30
0.0
  3
$MODEL_SPACE
  1

  0
ENDBLK
  5
21
  8
0
  0
BLOCK
 67
     1
  8
0
  2
$PAPER_SPACE
 70
     0
 10
0.0
 20
0.0
 30
0.0
  3
$PAPER_SPACE
  1

  0
ENDBLK
  5
1D
 67
     1
  8
0
  0
BLOCK
  8
0
  2
_FILLED
 70
     0
 10
0.0
 20
0.0
 30
0.0
  3
_FILLED
  1

  0
SOLID
  5
D8EA
  8
0
  6
BYBLOCK
 62
     0
 10
0.0
 20
0.0
 30
0.0
 11
-1.0
 21
0.1666666667
 31
0.0
 12
-1.0
 22
-0.1666666667
 32
0.0
 13
-1.0
 23
-0.1666666667
 33
0.0
  0
ENDBLK
  5
D8EB
  8
0
  6
BYBLOCK
 62
     0
  0
ENDSEC
  0
SECTION
  2
ENTITIES
  0
ATTDEF
  5
3930
  8
DEFPOINTS
 10
8945.9285864974572178
 20
2526.1000446354091764
 30
0.0
 40
0.001
  1
K-26475IN-ER
  3

  2
MODELNUMBER
 70
     0
1001
ACDBATTR
1070
     0
1070
     1
  0
ATTDEF
  5
3931
  8
DEFPOINTS
 10
8945.9285864974572178
 20
2526.0983779687430797
 30
0.0
 40
0.001
  1
SPAN
  3

  2
TRADENAME
 70
     0
1001
ACDBATTR
1070
     0
1070
     1
  0
ATTDEF
  5
3932
  8
DEFPOINTS
 10
8945.9285864974572178
 20
2526.0967113020760735
 30
0.0
 40
0.001
  1
URINAL
  3

  2
PRODUCT
 70
     0
1001
ACDBATTR
1070
     0
1070
     1
  0
ARC
  5
18005
  8
0
 10
8945.997827808774673
 20
2554.0225086596901747
 30
0.0
 40
6.6381041153557723
 50
90.6050703465160012
 51
105.9520655193753953
  0
ARC
  5
18006
  8
0
 10
8946.0742357122180692
 20
2553.8916550213489245
 30
0.0
 40
6.7850218988309203
 50
106.2687566448367988
 51
118.7352977585162961
  0
ARC
  5
18007
  8
0
 10
8945.8705890887504211
 20
2554.2630797806159535
 30
0.0
 40
6.3614321219871419
 50
118.7352977585162961
 51
136.2943712951683892
  0
ARC
  5
18008
  8
0
 10
8945.1622603930918558
 20
2554.9401065296251545
 30
0.0
 40
5.3815878690733934
 50
136.2943712951683892
 51
158.5790403005883888
  0
LINE
  5
18009
  8
0
 10
8939.5150854870717012
 20
2552.1747888633540242
 30
0.0
 11
8939.5150854870717012
 21
2544.8023227603698615
 31
0.0
  0
ARC
  5
1800A
  8
0
 10
8947.1821658374792605
 20
2554.1771274811139847
 30
0.0
 40
7.5406659235044033
 50
158.7874629628630032
 51
171.0576023583354868
  0
ARC
  5
1800B
  8
0
 10
8952.2504245561922289
 20
2553.310444008954164
 30
0.0
 40
12.6822231201502902
 50
170.7488915741772928
 51
175.8916547316711956
  0
ARC
  5
1800C
  8
0
 10
8987.2540843715451047
 20
2551.1972551496260166
 30
0.0
 40
47.7490061326224335
 50
176.3716335294762132
 51
178.8269395793714125
  0
ARC
  5
1800D
  8
0
 10
9105.9843183897610288
 20
2549.703454504965066
 30
0.0
 40
166.541366019339506
 50
181.6863961190076111
 51
182.0221523375213053
  0
ARC
  5
1800E
  8
0
 10
8958.1941030207162839
 20
2544.485295693029002
 30
0.0
 40
18.6590582870935506
 50
182.0221523375213053
 51
185.6257098666766012
  0
ARC
  5
1800F
  8
0
 10
8948.9569917435983371
 20
2543.4995943092740163
 30
0.0
 40
9.3701133901472762
 50
185.1643807426584942
 51
193.8236948822886063
  0
ARC
  5
18010
  8
0
 10
8945.6749299624007108
 20
2542.7287172413889493
 30
0.0
 40
5.9990311000483212
 50
194.1641897257308074
 51
208.6089248157659028
  0
ARC
  5
18011
  8
0
 10
8945.6022940628627111
 20
2542.7102192529519016
 30
0.0
 40
5.9264350693710259
 50
208.7881725906048871
 51
234.7947018176897984
  0
ARC
  5
18012
  8
0
 10
8945.9880040305124567
 20
2543.1927678395331895
 30
0.0
 40
6.5431907247838152
 50
234.4709939741242977
 51
247.0310183099572896
  0
ARC
  5
18013
  8
0
 10
8945.9314048868454847
 20
2543.0543263531972116
 30
0.0
 40
6.3936388461303428
 50
247.0138783519055039
 51
259.2831117047987277
  0
ARC
  5
18014
  8
0
 10
8945.9757267434688401
 20
2543.4128680788071506
 30
0.0
 40
6.7542084077709097
 50
259.4792747267943014
 51
269.5928211687531757
  0
ARC
  5
18015
  8
0
 10
8946.0116289904872247
 20
2554.4306726186578089
 30
0.0
 40
6.1542800592130709
 50
90.7811382715371593
 51
106.8259221708524933
  0
ARC
  5
18016
  8
0
 10
8946.0545660535244679
 20
2553.8727646943971195
 30
0.0
 40
6.7018134785554739
 50
105.7965668839750037
 51
121.8384694481495956
  0
ARC
  5
18017
  8
0
 10
8944.7498745512584719
 20
2555.9468159138568808
 30
0.0
 40
4.2515915664745556
 50
121.6461711674703992
 51
148.152679540180003
  0
ARC
  5
18018
  8
0
 10
8944.8160919343281421
 20
2555.9249130762591449
 30
0.0
 40
4.3194284821033442
 50
148.369352798273809
 51
170.1221912540488859
  0
ARC
  5
18019
  8
0
 10
8947.2232534095128358
 20
2555.5765321317621783
 30
0.0
 40
6.7510297944826299
 50
170.7139654318825137
 51
178.7962129917748939
  0
ARC
  5
1801A
  8
0
 10
8868.7140602158779075
 20
2556.6868340506130153
 30
0.0
 40
71.7661883598591857
 50
357.3755066750990181
 51
359.2267794143339188
  0
ARC
  5
1801B
  8
0
 10
8944.2430370100191794
 20
2553.3728687869420355
 30
0.0
 40
3.8381655714596521
 50
179.5851628853870068
 51
200.3681766330624896
  0
ARC
  5
1801C
  8
0
 10
8944.0849583068447828
 20
2553.3003253622277953
 30
0.0
 40
3.6647448427933451
 50
200.1651151332023915
 51
226.5322719624500962
  0
ARC
  5
1801D
  8
0
 10
8944.632740303839455
 20
2554.0802810443519775
 30
0.0
 40
4.609747780124513
 50
228.2603008931565967
 51
250.1573981964201039
  0
ARC
  5
1801E
  8
0
 10
8945.9090603443382861
 20
2557.2056364270579252
 30
0.0
 40
7.983999297805612
 50
249.1549532178106858
 51
261.9367292342056999
  0
ARC
  5
1801F
  8
0
 10
8946.1078471909368091
 20
2559.4261626061270363
 30
0.0
 40
10.2110996050098102
 50
262.5800245756161075
 51
268.9892737090517016
  0
ARC
  5
18020
  8
0
 10
8946.0484726922823029
 20
2552.9910126470940668
 30
0.0
 40
6.9252021219364508
 50
90.9990371151850326
 51
102.0850758116924055
  0
ARC
  5
18021
  8
0
 10
8946.1163390168439946
 20
2553.0547628744129725
 30
0.0
 40
6.8775354183606501
 50
102.7491372364991946
 51
117.3291537770527952
  0
ARC
  5
18022
  8
0
 10
8944.7676786198317131
 20
2555.6644855202662256
 30
0.0
 40
3.9399280322808061
 50
117.3291537770527952
 51
141.4207105340431951
  0
ARC
  5
18023
  8
0
 10
8944.4208962347711349
 20
2556.0828347980109356
 30
0.0
 40
3.4097513200346299
 50
143.2827050008042988
 51
169.2583195465099948
  0
ARC
  5
18024
  8
0
 10
8947.6941917129151989
 20
2555.5957847825488898
 30
0.0
 40
6.7177559023502074
 50
170.3805155531819935
 51
179.6682766116657035
  0
ARC
  5
18025
  8
0
 10
8975.118111249348658
 20
2554.6383544775208065
 30
0.0
 40
34.1560971799081301
 50
178.3284612958759965
 51
182.0810241028318899
  0
ARC
  5
18026
  8
0
 10
8945.8080703124578577
 20
2553.4853884740941794
 30
0.0
 40
4.8243200328412676
 50
181.0372906316964077
 51
195.589266629581914
  0
ARC
  5
18027
  8
0
 10
8943.8418630298074277
 20
2553.0519817461918137
 30
0.0
 40
2.81615612173466
 50
197.8468531996012132
 51
222.4463945921636991
  0
ARC
  5
18028
  8
0
 10
8943.850323428554475
 20
2553.0063139286198748
 30
0.0
 40
2.7918560625272031
 50
221.6376055116903956
 51
244.3311064879636092
  0
ARC
  5
18029
  8
0
 10
8945.5204939736722736
 20
2555.9588416727119693
 30
0.0
 40
6.1806211377773472
 50
242.2318623478869881
 51
258.4259788900776016
  0
ARC
  5
1802A
  8
0
 10
8946.2887242669112311
 20
2560.5337035447169001
 30
0.0
 40
10.8178545718759302
 50
259.3013097452251827
 51
268.0876591339654169
  0
ARC
  5
1802B
  8
0
 10
8946.0229932299498614
 20
2553.3700213629358586
 30
0.0
 40
5.5250634460733918
 50
90.9879684234296491
 51
108.8863822379778981
  0
ARC
  5
1802C
  8
0
 10
8946.2636276867960987
 20
2552.985961202407907
 30
0.0
 40
5.9672335405852026
 50
109.8788846344450008
 51
122.0861825450566016
  0
ARC
  5
1802D
  8
0
 10
8945.5140501329115068
 20
2554.2929166840140169
 30
0.0
 40
4.4621364386885478
 50
122.8459432173604
 51
137.1564414920439106
  0
ARC
  5
1802E
  8
0
 10
8944.0675502977628639
 20
2555.7278943118799361
 30
0.0
 40
2.426728269698593
 50
138.7745781099370959
 51
167.4567698600990866
  0
ARC
  5
1802F
  8
0
 10
8944.6482340995371487
 20
2555.368792759300959
 30
0.0
 40
3.0797284901676178
 50
163.2779194167817991
 51
179.4178551791883933
  0
ARC
  5
18030
  8
0
 10
8967.4094654307482415
 20
2554.085807734591981
 30
0.0
 40
25.8742016172549896
 50
177.0884178575389001
 51
180.3353391582178915
  0
ARC
  5
18031
  8
0
 10
8965.4257006915686361
 20
2553.9521120441058883
 30
0.0
 40
23.8900003057114212
 50
180.0425443587419068
 51
183.5204896803361123
  0
ARC
  5
18032
  8
0
 10
8948.8547181705762341
 20
2552.8926729905720094
 30
0.0
 40
7.2853426840824627
 50
183.2067670921803995
 51
189.7076901055827989
  0
ARC
  5
18033
  8
0
 10
8943.3316445521741116
 20
2551.9659917799899631
 30
0.0
 40
1.6851913159110421
 50
190.3162263671434005
 51
203.3615543137752013
  0
ARC
  5
18034
  8
0
 10
8943.8410187965910154
 20
2552.2381052719761101
 30
0.0
 40
2.261214985022852
 50
204.5733996687465037
 51
216.3096740276376124
  0
ARC
  5
18035
  8
0
 10
8945.9335379164203914
 20
2556.7440279722059131
 30
0.0
 40
0.5921274788266145
 50
90.5622288418531838
 51
126.2639769002525014
  0
ARC
  5
18036
  8
0
 10
8945.8702376942692354
 20
2556.8384169630821816
 30
0.0
 40
0.4786031175687657
 50
126.8377423850588031
 51
162.0837739108416997
  0
ARC
  5
18037
  8
0
 10
8945.7961188547105849
 20
2556.8648507322509431
 30
0.0
 40
0.3999536918398619
 50
162.4205758991575124
 51
209.0810330726654911
  0
ARC
  5
18038
  8
0
 10
8945.856350932857822
 20
2556.9034756880491841
 30
0.0
 40
0.4713873018172477
 50
209.6255801383103119
 51
240.5556707652407908
  0
ARC
  5
18039
  8
0
 10
8945.9326273612423392
 20
2557.0536837023678345
 30
0.0
 40
0.6397322691875063
 50
241.2197723027034044
 51
269.5611639531380206
  0
ARC
  5
1803A
  8
0
 10
8945.8198404642607784
 20
2557.1166631206269813
 30
0.0
 40
0.4257103088530194
 50
199.2851652287718025
 51
223.5852273467500879
  0
ARC
  5
1803B
  8
0
 10
8945.8845450651242572
 20
2557.1782486753418198
 30
0.0
 40
0.5150381652159634
 50
223.5852273467500879
 51
247.9334556522414061
  0
ARC
  5
1803C
  8
0
 10
8945.9375225410985877
 20
2557.3293924114259426
 30
0.0
 40
0.6750568404528576
 50
248.5857703519075983
 51
269.1686216012163868
  0
ARC
  5
1803D
  8
0
 10
8945.8576274193073914
 20
2554.0225086596901747
 30
0.0
 40
6.6381041153557723
 50
74.0479344806245905
 51
89.394929653484013
  0
ARC
  5
1803E
  8
0
 10
8945.7812195158676332
 20
2553.8916550213489245
 30
0.0
 40
6.7850218988309203
 50
61.2647022414836684
 51
73.7312433551631443
  0
ARC
  5
1803F
  8
0
 10
8945.9848661393316434
 20
2554.2630797806159535
 30
0.0
 40
6.3614321219871419
 50
43.7056287048316108
 51
61.2647022414836684
  0
ARC
  5
18040
  8
0
 10
8946.6931948349902086
 20
2554.9401065296251545
 30
0.0
 40
5.3815878690733934
 50
21.4209596994116112
 51
43.7056287048316108
  0
LINE
  5
18041
  8
0
 10
8952.3403697410103632
 20
2552.1747888633540242
 30
0.0
 11
8952.3403697410103632
 21
2544.8023227603698615
 31
0.0
  0
ARC
  5
18042
  8
0
 10
8944.6732893906028039
 20
2554.1771274811139847
 30
0.0
 40
7.5406659235044033
 50
8.9423976416644635
 51
21.212537037137011
  0
ARC
  5
18043
  8
0
 10
8939.6050306718898355
 20
2553.310444008954164
 30
0.0
 40
12.6822231201502902
 50
4.1083452683287467
 51
9.2511084258226557
  0
ARC
  5
18044
  8
0
 10
8904.6013708565369598
 20
2551.1972551496260166
 30
0.0
 40
47.7490061326224335
 50
1.173060420628578
 51
3.628366470523773
  0
ARC
  5
18045
  8
0
 10
8785.8711368383228546
 20
2549.703454504965066
 30
0.0
 40
166.541366019339506
 50
357.9778476624787231
 51
358.3136038809925026
  0
ARC
  5
18046
  8
0
 10
8933.6613522073639615
 20
2544.485295693029002
 30
0.0
 40
18.6590582870935506
 50
354.3742901333233135
 51
357.9778476624787231
  0
ARC
  5
18047
  8
0
 10
8942.8984634844855464
 20
2543.4995943092740163
 30
0.0
 40
9.3701133901472762
 50
346.1763051177113084
 51
354.8356192573414205
  0
ARC
  5
18048
  8
0
 10
8946.1805252656813536
 20
2542.7287172413889493
 30
0.0
 40
5.9990311000483212
 50
331.3910751842341256
 51
345.8358102742691926
  0
ARC
  5
18049
  8
0
 10
8946.2531611652193533
 20
2542.7102192529519016
 30
0.0
 40
5.9264350693710259
 50
305.2052981823101732
 51
331.2118274093950845
  0
ARC
  5
1804A
  8
0
 10
8945.8674511975714267
 20
2543.1927678395331895
 30
0.0
 40
6.5431907247838152
 50
292.9689816900427104
 51
305.5290060258756171
  0
ARC
  5
1804B
  8
0
 10
8945.9240503412383987
 20
2543.0543263531972116
 30
0.0
 40
6.3936388461303428
 50
280.7168882952012154
 51
292.9861216480945245
  0
ARC
  5
1804C
  8
0
 10
8945.8797284846114053
 20
2543.4128680788071506
 30
0.0
 40
6.7542084077709097
 50
270.4071788312468243
 51
280.5207252732056986
  0
ARC
  5
1804D
  8
0
 10
8945.8438262375948398
 20
2554.4306726186578089
 30
0.0
 40
6.1542800592130709
 50
73.1740778291474498
 51
89.2188617284628265
  0
ARC
  5
1804E
  8
0
 10
8945.8008891745575966
 20
2553.8727646943971195
 30
0.0
 40
6.7018134785554739
 50
58.1615305518503689
 51
74.2034331160250247
  0
ARC
  5
1804F
  8
0
 10
8947.1055806768254115
 20
2555.9468159138568808
 30
0.0
 40
4.2515915664745556
 50
31.8473204598199686
 51
58.3538288325295582
  0
ARC
  5
18050
  8
0
 10
8947.0393632937521033
 20
2555.9249130762591449
 30
0.0
 40
4.3194284821033442
 50
9.8778087459510662
 51
31.6306472017262408
  0
ARC
  5
18051
  8
0
 10
8944.6322018185692286
 20
2555.5765321317621783
 30
0.0
 40
6.7510297944826299
 50
1.203787008225029
 51
9.2860345681174383
  0
ARC
  5
18052
  8
0
 10
9023.1413950122059759
 20
2556.6868340506130153
 30
0.0
 40
71.7661883598591857
 50
180.7732205856661096
 51
182.6244933249010955
  0
ARC
  5
18053
  8
0
 10
8947.612418218062885
 20
2553.3728687869420355
 30
0.0
 40
3.8381655714596521
 50
339.6318233669373967
 51
0.4148371146129274
  0
ARC
  5
18054
  8
0
 10
8947.7704969212354627
 20
2553.3003253622277953
 30
0.0
 40
3.6647448427933451
 50
313.4677280375498754
 51
339.8348848667974949
  0
ARC
  5
18055
  8
0
 10
8947.2227149242426094
 20
2554.0802810443519775
 30
0.0
 40
4.609747780124513
 50
289.8426018035798961
 51
311.7396991068433749
  0
ARC
  5
18056
  8
0
 10
8945.9463948837437783
 20
2557.2056364270579252
 30
0.0
 40
7.983999297805612
 50
278.0632707657943001
 51
290.8450467821892858
  0
ARC
  5
18057
  8
0
 10
8945.7476080371434364
 20
2559.4261626061270363
 30
0.0
 40
10.2110996050098102
 50
271.010726290948412
 51
277.4199754243838925
  0
ARC
  5
18058
  8
0
 10
8945.8069825357997615
 20
2552.9910126470940668
 30
0.0
 40
6.9252021219364508
 50
77.9149241883075661
 51
89.0009628848149674
  0
ARC
  5
18059
  8
0
 10
8945.7391162112398888
 20
2553.0547628744129725
 30
0.0
 40
6.8775354183606501
 50
62.6708462229471408
 51
77.2508627635007912
  0
ARC
  5
1805A
  8
0
 10
8947.0877766082521703
 20
2555.6644855202662256
 30
0.0
 40
3.9399280322808061
 50
38.5792894659567907
 51
62.6708462229471408
  0
ARC
  5
1805B
  8
0
 10
8947.4345589933127485
 20
2556.0828347980109356
 30
0.0
 40
3.4097513200346299
 50
10.7416804534899999
 51
36.7172949991957012
  0
ARC
  5
1805C
  8
0
 10
8944.1612635151686845
 20
2555.5957847825488898
 30
0.0
 40
6.7177559023502074
 50
0.3317233883342578
 51
9.6194844468180065
  0
ARC
  5
1805D
  8
0
 10
8916.7373439787352254
 20
2554.6383544775208065
 30
0.0
 40
34.1560971799081301
 50
357.9189758971680249
 51
1.6715387041240011
  0
ARC
  5
1805E
  8
0
 10
8946.0473849156242068
 20
2553.4853884740941794
 30
0.0
 40
4.8243200328412676
 50
344.410733370418086
 51
358.9627093683034786
  0
ARC
  5
1805F
  8
0
 10
8948.0135921982728178
 20
2553.0519817461918137
 30
0.0
 40
2.81615612173466
 50
317.5536054078364145
 51
342.1531468003987015
  0
ARC
  5
18060
  8
0
 10
8948.0051317995312274
 20
2553.0063139286198748
 30
0.0
 40
2.7918560625272031
 50
295.6688935120363908
 51
318.362394488309576
  0
ARC
  5
18061
  8
0
 10
8946.3349612544097909
 20
2555.9588416727119693
 30
0.0
 40
6.1806211377773472
 50
281.5740211099223984
 51
297.7681376521130119
  0
ARC
  5
18062
  8
0
 10
8945.5667309611708333
 20
2560.5337035447169001
 30
0.0
 40
10.8178545718759302
 50
271.9123408660346968
 51
280.6986902547748173
  0
ARC
  5
18063
  8
0
 10
8945.832461998130384
 20
2553.3700213629358586
 30
0.0
 40
5.5250634460733918
 50
71.1136177620221019
 51
89.0120315765703651
  0
ARC
  5
18064
  8
0
 10
8945.5918275412841467
 20
2552.985961202407907
 30
0.0
 40
5.9672335405852026
 50
57.9138174549433629
 51
70.1211153655549424
  0
ARC
  5
18065
  8
0
 10
8946.3414050951705576
 20
2554.2929166840140169
 30
0.0
 40
4.4621364386885478
 50
42.8435585079561321
 51
57.1540567826395431
  0
ARC
  5
18066
  8
0
 10
8947.7879049303192005
 20
2555.7278943118799361
 30
0.0
 40
2.426728269698593
 50
12.5432301399009098
 51
41.2254218900628828
  0
ARC
  5
18067
  8
0
 10
8947.2072211285430967
 20
2555.368792759300959
 30
0.0
 40
3.0797284901676178
 50
0.5821448208116013
 51
16.7220805832181405
  0
ARC
  5
18068
  8
0
 10
8924.4459897973356419
 20
2554.085807734591981
 30
0.0
 40
25.8742016172549896
 50
359.6646608417821085
 51
2.9115821424610488
  0
ARC
  5
18069
  8
0
 10
8926.4297545365134283
 20
2553.9521120441058883
 30
0.0
 40
23.8900003057114212
 50
356.4795103196638024
 51
359.9574556412580932
  0
ARC
  5
1806A
  8
0
 10
8943.0007370575058303
 20
2552.8926729905720094
 30
0.0
 40
7.2853426840824627
 50
350.2923098944170874
 51
356.7932329078196858
  0
ARC
  5
1806B
  8
0
 10
8948.5238106759079528
 20
2551.9659917799899631
 30
0.0
 40
1.6851913159110421
 50
336.6384456862248271
 51
349.683773632856628
  0
ARC
  5
1806C
  8
0
 10
8948.01443643148923
 20
2552.2381052719761101
 30
0.0
 40
2.261214985022852
 50
323.690325972362416
 51
335.4266003312534963
  0
ARC
  5
1806D
  8
0
 10
8945.921917311663492
 20
2556.7440279722059131
 30
0.0
 40
0.5921274788266145
 50
53.7360230997474488
 51
89.4377711581468162
  0
ARC
  5
1806E
  8
0
 10
8945.9852175338110101
 20
2556.8384169630821816
 30
0.0
 40
0.4786031175687657
 50
17.9162260891583003
 51
53.1622576149412112
  0
ARC
  5
1806F
  8
0
 10
8946.0593363733714796
 20
2556.8648507322509431
 30
0.0
 40
0.3999536918398619
 50
330.9189669273345089
 51
17.5794241008425409
  0
ARC
  5
18070
  8
0
 10
8945.9991042952278804
 20
2556.9034756880491841
 30
0.0
 40
0.4713873018172477
 50
299.4443292347592092
 51
330.3744198616897165
  0
ARC
  5
18071
  8
0
 10
8945.9228278668433632
 20
2557.0536837023678345
 30
0.0
 40
0.6397322691875063
 50
270.4388360468619794
 51
298.7802276972965956
  0
ARC
  5
18072
  8
0
 10
8946.035614763819467
 20
2557.1166631206269813
 30
0.0
 40
0.4257103088530194
 50
316.4147726532498837
 51
340.7148347712281975
  0
ARC
  5
18073
  8
0
 10
8945.9709101629596262
 20
2557.1782486753418198
 30
0.0
 40
0.5150381652159634
 50
292.0665443477586223
 51
316.4147726532498837
  0
ARC
  5
18074
  8
0
 10
8945.9179326869834767
 20
2557.3293924114259426
 30
0.0
 40
0.6750568404528576
 50
270.8313783987834995
 51
291.4142296480923733
  0
ENDSEC
  0
EOF
