  0
SECTION
  2
HEADER
  9
$ACADVER
  1
AC1009
  9
$INSBASE
 10
4678.5631461093589678
 20
-29.3981186216527703
 30
0.0
  9
$EXTMIN
 10
4671.8532500783940122
 20
-29.3988774831954913
 30
-0.0000000349181948
  9
$EXTMAX
 10
4685.079247703605688
 20
5.1421014522960169
 30
0.0000000814935746
  9
$LIMMIN
 10
0.0
 20
0.0
  9
$LIMMAX
 10
11.6929133858000007
 20
8.2677165353999982
  9
$ORTHOMODE
 70
     0
  9
$REGENMODE
 70
     1
  9
$FILLMODE
 70
     1
  9
$QTEXTMODE
 70
     0
  9
$MIRRTEXT
 70
     0
  9
$DRAGMODE
 70
     2
  9
$LTSCALE
 40
0.6431102362
  9
$OSMODE
 70
  4095
  9
$ATTMODE
 70
     1
  9
$TEXTSIZE
 40
0.2
  9
$TRACEWID
 40
0.05
  9
$TEXTSTYLE
  7
STANDARD
  9
$CLAYER
  8
0
  9
$CELTYPE
  6
BYLAYER
  9
$CECOLOR
 62
   256
  9
$DIMSCALE
 40
1.0
  9
$DIMASZ
 40
0.1875
  9
$DIMEXO
 40
0.0625
  9
$DIMDLI
 40
0.4443307087
  9
$DIMRND
 40
0.0
  9
$DIMDLE
 40
0.0
  9
$DIMEXE
 40
0.125
  9
$DIMTP
 40
0.01
  9
$DIMTM
 40
0.01
  9
$DIMTXT
 40
2.0
  9
$DIMCEN
 40
0.1052362205
  9
$DIMTSZ
 40
0.0
  9
$DIMTOL
 70
     1
  9
$DIMLIM
 70
     0
  9
$DIMTIH
 70
     1
  9
$DIMTOH
 70
     1
  9
$DIMSE1
 70
     0
  9
$DIMSE2
 70
     0
  9
$DIMTAD
 70
     0
  9
$DIMZIN
 70
     0
  9
$DIMBLK
  1

  9
$DIMASO
 70
     1
  9
$DIMSHO
 70
     1
  9
$DIMPOST
  1
\X
  9
$DIMAPOST
  1

  9
$DIMALT
 70
     1
  9
$DIMALTD
 70
     2
  9
$DIMALTF
 40
25.3999999999999986
  9
$DIMLFAC
 40
1.0
  9
$DIMTOFL
 70
     0
  9
$DIMTVP
 40
0.0
  9
$DIMTIX
 70
     0
  9
$DIMSOXD
 70
     0
  9
$DIMSAH
 70
     0
  9
$DIMBLK1
  1

  9
$DIMBLK2
  1

  9
$DIMSTYLE
  2
STANDARD
  9
$DIMCLRD
 70
     0
  9
$DIMCLRE
 70
     0
  9
$DIMCLRT
 70
     0
  9
$DIMTFAC
 40
1.0
  9
$DIMGAP
 40
0.09
  9
$LUNITS
 70
     2
  9
$LUPREC
 70
     4
  9
$SKETCHINC
 40
0.1
  9
$FILLETRAD
 40
0.0
  9
$AUNITS
 70
     0
  9
$AUPREC
 70
     0
  9
$MENU
  1
.
  9
$ELEVATION
 40
0.0
  9
$PELEVATION
 40
0.0
  9
$THICKNESS
 40
0.0
  9
$LIMCHECK
 70
     0
  9
$BLIPMODE
 70
     0
  9
$CHAMFERA
 40
0.0
  9
$CHAMFERB
 40
0.0
  9
$SKPOLY
 70
     0
  9
$TDCREATE
 40
2458060.468368056230247
  9
$TDUPDATE
 40
2460580.5034837969578803
  9
$TDINDWG
 40
0.4758982639
  9
$TDUSRTIMER
 40
0.4758982639
  9
$USRTIMER
 70
     1
  9
$ANGBASE
 50
0.0
  9
$ANGDIR
 70
     0
  9
$PDMODE
 70
     0
  9
$PDSIZE
 40
0.3125
  9
$PLINEWID
 40
0.0
  9
$COORDS
 70
     1
  9
$SPLFRAME
 70
     0
  9
$SPLINETYPE
 70
     6
  9
$SPLINESEGS
 70
     8
  9
$ATTDIA
 70
     1
  9
$ATTREQ
 70
     1
  9
$HANDLING
 70
     1
  9
$HANDSEED
  5
14A52
  9
$SURFTAB1
 70
     6
  9
$SURFTAB2
 70
     6
  9
$SURFTYPE
 70
     6
  9
$SURFU
 70
     6
  9
$SURFV
 70
     6
  9
$UCSNAME
  2

  9
$UCSORG
 10
0.0
 20
0.0
 30
0.0
  9
$UCSXDIR
 10
1.0
 20
0.0
 30
0.0
  9
$UCSYDIR
 10
0.0
 20
1.0
 30
0.0
  9
$PUCSNAME
  2

  9
$PUCSORG
 10
0.0
 20
0.0
 30
0.0
  9
$PUCSXDIR
 10
1.0
 20
0.0
 30
0.0
  9
$PUCSYDIR
 10
0.0
 20
1.0
 30
0.0
  9
$USERI1
 70
     0
  9
$USERI2
 70
     0
  9
$USERI3
 70
     0
  9
$USERI4
 70
     0
  9
$USERI5
 70
     0
  9
$USERR1
 40
0.0
  9
$USERR2
 40
0.0
  9
$USERR3
 40
0.0
  9
$USERR4
 40
0.0
  9
$USERR5
 40
0.0
  9
$WORLDVIEW
 70
     1
  9
$SHADEDGE
 70
     3
  9
$SHADEDIF
 70
    70
  9
$TILEMODE
 70
     1
  9
$MAXACTVP
 70
    64
  9
$PLIMCHECK
 70
     0
  9
$PEXTMIN
 10
1.0000000000000000E+20
 20
1.0000000000000000E+20
 30
1.0000000000000000E+20
  9
$PEXTMAX
 10
-1.0000000000000000E+20
 20
-1.0000000000000000E+20
 30
-1.0000000000000000E+20
  9
$PLIMMIN
 10
0.0
 20
0.0
  9
$PLIMMAX
 10
12.0
 20
9.0
  9
$UNITMODE
 70
     0
  9
$VISRETAIN
 70
     1
  9
$PLINEGEN
 70
     0
  9
$PSLTSCALE
 70
     1
  0
ENDSEC
  0
SECTION
  2
TABLES
  0
TABLE
  2
VPORT
 70
     1
  0
VPORT
  2
*ACTIVE
 70
     0
 10
0.0
 20
0.0
 11
1.0
 21
1.0
 12
886.1083387347506459
 22
-132.3090444485551984
 13
0.0
 23
0.0
 14
1.0
 24
1.0
 15
0.0
 25
0.0
 16
0.0
 26
0.0
 36
5.1040778033513332
 17
3792.35791015625
 27
120.1806564331053977
 37
0.0
 40
34.7786462217448928
 41
2.180252583237658
 42
50.0
 43
0.0
 44
0.0
 50
0.0
 51
0.0
 71
     0
 72
   100
 73
     1
 74
     1
 75
     0
 76
     0
 77
     0
 78
     0
  0
ENDTAB
  0
TABLE
  2
LTYPE
 70
     2
  0
LTYPE
  2
CONTINUOUS
 70
     0
  3
Solid line
 72
    65
 73
     0
 40
0.0
  0
LTYPE
  2
PHANTOM2
 70
     0
  3
___ _ _ ___ _ _ ___ _ _ ___ _ _
 72
    65
 73
     6
 40
1.25
 49
0.625
 49
-0.125
 49
0.125
 49
-0.125
 49
0.125
 49
-0.125
  0
ENDTAB
  0
TABLE
  2
LAYER
 70
     2
  0
LAYER
  2
0
 70
     0
 62
   255
  6
CONTINUOUS
  0
LAYER
  2
DEFPOINTS
 70
     0
 62
     7
  6
CONTINUOUS
  0
ENDTAB
  0
TABLE
  2
STYLE
 70
     1
  0
STYLE
  2
STANDARD
 70
     0
 40
0.0
 41
0.8
 50
0.0
 71
     0
 42
0.2
  3
txt
  4

  0
ENDTAB
  0
TABLE
  2
VIEW
 70
     0
  0
ENDTAB
  0
TABLE
  2
UCS
 70
     0
  0
ENDTAB
  0
TABLE
  2
APPID
 70
     9
  0
APPID
  2
ACAD
 70
     0
  0
APPID
  2
ACAD_MLEADERVER
 70
     0
  0
APPID
  2
ACAD_EXEMPT_FROM_CAD_STANDARDS
 70
     0
  0
APPID
  2
ACAD_NAV_VCDISPLAY
 70
     0
  0
APPID
  2
ACAECLAYERSTANDARD
 70
     0
  0
APPID
  2
ACCMTRANSPARENCY
 70
     0
  0
APPID
  2
ACAD_DSTYLE_DIMJAG
 70
     0
  0
APPID
  2
ACAD_DSTYLE_DIMTALN
 70
     0
  0
APPID
  2
ACDBATTR
 70
     0
  0
ENDTAB
  0
TABLE
  2
DIMSTYLE
 70
     1
  0
DIMSTYLE
  2
STANDARD
 70
     0
  3

  4

  5

  6

  7

 40
1.0
 41
0.1875
 42
0.0625
 43
0.38
 44
0.125
 45
0.0
 46
0.0
 47
0.01
 48
0.01
140
0.15625
141
0.09
142
0.0
143
25.3999999999999986
144
1.0
145
0.0
146
1.0
147
0.09
 71
     1
 72
     0
 73
     1
 74
     1
 75
     0
 76
     0
 77
     0
 78
     4
170
     0
171
     2
172
     0
173
     0
174
     0
175
     0
176
     0
177
     0
178
     0
  0
ENDTAB
  0
ENDSEC
  0
SECTION
  2
BLOCKS
  0
BLOCK
  8
0
  2
$MODEL_SPACE
 70
     0
 10
0.0
 20
0.0
 30
0.0
  3
$MODEL_SPACE
  1

  0
ENDBLK
  5
21
  8
0
  0
BLOCK
 67
     1
  8
0
  2
$PAPER_SPACE
 70
     0
 10
0.0
 20
0.0
 30
0.0
  3
$PAPER_SPACE
  1

  0
ENDBLK
  5
1D
 67
     1
  8
0
  0
ENDSEC
  0
SECTION
  2
ENTITIES
  0
ATTDEF
  5
3930
  8
DEFPOINTS
 10
4678.5595649801225591
 20
-29.3939787809356403
 30
0.0
 40
0.001
  1
K-26475T-ER
  3

  2
MODELNUMBER
 70
     0
1001
ACDBATTR
1070
     0
1070
     1
  0
ATTDEF
  5
3931
  8
DEFPOINTS
 10
4678.5595649801225591
 20
-29.3956454476022984
 30
0.0
 40
0.001
  1
SPAN
  3

  2
TRADENAME
 70
     0
1001
ACDBATTR
1070
     0
1070
     1
  0
ATTDEF
  5
3932
  8
DEFPOINTS
 10
4678.5595649801225591
 20
-29.3973121142689706
 30
0.0
 40
0.001
  1
URINAL
  3

  2
PRODUCT
 70
     0
1001
ACDBATTR
1070
     0
1070
     1
  0
LINE
  5
14933
  8
0
 10
4672.1465101633020822
 20
-10.5877299864360594
 30
0.0
 11
4672.1465101633020822
 21
-4.4080748627964272
 31
0.0
  0
ARC
  5
14934
  8
0
 10
4695.4858683438642402
 20
-10.1099838583787704
 30
0.0
 40
23.3442472922864788
 50
181.1726549835051117
 51
191.2348400606221901
  0
ARC
  5
14935
  8
0
 10
4678.629622025736353
 20
-11.7829461501710497
 30
0.0
 40
7.0798339036758087
 50
235.7949958868175884
 51
269.4264929003899738
  0
ARC
  5
14936
  8
0
 10
4678.1696087257669205
 20
-13.0016567549990398
 30
0.0
 40
5.821300501558575
 50
196.5325125480696045
 51
232.7950333712452959
  0
ARC
  5
14937
  8
0
 10
4757.9668521897401661
 20
-4.9514959062601882
 30
0.0
 40
85.8220625012317555
 50
177.7718434491868038
 51
179.6372035413450874
  0
ARC
  5
14938
  8
0
 10
4682.1167045436832268
 20
-1.976711836589029
 30
0.0
 40
9.9136345764572766
 50
161.3020551954145105
 51
177.9080497280700115
  0
ARC
  5
14939
  8
0
 10
4678.5569437639069292
 20
-1.2783896067999441
 30
0.0
 40
6.4202709851440538
 50
89.9838183683055064
 51
97.6838970402678655
  0
ARC
  5
1493A
  8
0
 10
4678.5525532489909892
 20
-1.5308102934798979
 30
0.0
 40
6.6699469225250789
 50
97.3565965522717249
 51
106.2207789148252033
  0
ARC
  5
1493B
  8
0
 10
4678.3158193521294379
 20
-0.8160197168993157
 30
0.0
 40
5.9424524700436701
 50
150.3174039413067078
 51
160.1541139635174886
  0
ARC
  5
1493C
  8
0
 10
4678.0232905223028865
 20
-0.5517794385560501
 30
0.0
 40
5.5581038242012299
 50
128.397398866331713
 51
151.1906556802111936
  0
ARC
  5
1493D
  8
0
 10
4678.3914855820230514
 20
-1.1306532372478519
 30
0.0
 40
6.240873891090887
 50
105.8271396580768027
 51
127.7457077787694004
  0
ARC
  5
1493E
  8
0
 10
4705.2369801145159727
 20
-0.2213036890659872
 30
0.0
 40
32.0760898137721711
 50
177.8334365649076858
 51
180.2790883831970064
  0
ARC
  5
1493F
  8
0
 10
4677.0072370617190245
 20
0.8200398208533989
 30
0.0
 40
3.8272517558089709
 50
162.3157024219266873
 51
177.4349704724054106
  0
ARC
  5
14940
  8
0
 10
4676.8170376940970527
 20
0.784361193581308
 30
0.0
 40
3.6580297773406349
 50
135.728230377073487
 51
160.8781587889851039
  0
ARC
  5
14941
  8
0
 10
4678.5653197597193866
 20
-1.6563611094269071
 30
0.0
 40
6.7334822582418541
 50
90.0558431425848056
 51
104.7183857069772017
  0
ARC
  5
14942
  8
0
 10
4678.4421758688040427
 20
-1.240818860098865
 30
0.0
 40
6.3003030583533386
 50
104.5953696679930971
 51
113.0097607021675969
  0
ARC
  5
14943
  8
0
 10
4678.021943593927972
 20
-0.3346903539185426
 30
0.0
 40
5.3021042119475448
 50
112.6574410077046053
 51
136.158513360903811
  0
ARC
  5
14944
  8
0
 10
4678.5543054605859652
 20
0.5754424104360149
 30
0.0
 40
6.898157992625185
 50
248.2474307688324018
 51
270.0369742360725809
  0
ARC
  5
14945
  8
0
 10
4678.0419572043447261
 20
-0.6998917981723274
 30
0.0
 40
5.5237617365503162
 50
226.9867976273224883
 51
248.2809109186617889
  0
ARC
  5
14946
  8
0
 10
4678.9212094620606877
 20
-1.844054937702676
 30
0.0
 40
5.7733958529241542
 50
177.7931293629303013
 51
194.9627012137680993
  0
ARC
  5
14947
  8
0
 10
4676.4138453245741402
 20
-2.3108403823454431
 30
0.0
 40
3.2364923769029752
 50
198.4420390381364996
 51
228.6074448244484074
  0
LINE
  5
14948
  8
0
 10
4673.1612708306738568
 20
-0.3775460636524279
 30
0.0
 11
4673.1520957025322787
 21
-1.621735113664353
 31
0.0
  0
ARC
  5
14949
  8
0
 10
4678.532524333722904
 20
-1.393754132168421
 30
0.0
 40
4.9495341182923509
 50
89.6963294428251032
 51
111.9649733373942979
  0
ARC
  5
1494A
  8
0
 10
4678.2764402080229047
 20
-0.7619095434021937
 30
0.0
 40
4.2677679550505392
 50
111.9493906344307987
 51
131.5249925741030097
  0
ARC
  5
1494B
  8
0
 10
4677.5036092142372581
 20
0.1214783039364171
 30
0.0
 40
3.1556278038318681
 50
156.3029539406761046
 51
178.1473159948928071
  0
ARC
  5
1494C
  8
0
 10
4677.7308970980257072
 20
-0.2443268419436571
 30
0.0
 40
3.5192109584385372
 50
130.4617885293567099
 51
152.3335252777262951
  0
LINE
  5
1494D
  8
0
 10
4674.3365540288850752
 20
-0.2363672999597632
 30
0.0
 11
4674.3371201751442641
 21
-2.2021473009674781
 31
0.0
  0
ARC
  5
1494E
  8
0
 10
4682.0318981448281193
 20
-0.2250764338299653
 30
0.0
 40
7.6953523991070378
 50
176.6582344104114952
 51
180.0840662226808888
  0
ARC
  5
1494F
  8
0
 10
4694.6266026760313252
 20
-2.1527381855802008
 30
0.0
 40
20.2895426615412617
 50
180.139526879752907
 51
181.9283934912677978
  0
ARC
  5
14950
  8
0
 10
4679.6971163997195617
 20
-2.6685725860866358
 30
0.0
 40
5.3511696198028638
 50
181.7875069756177027
 51
188.8246815701373862
  0
ARC
  5
14951
  8
0
 10
4677.8703625335356264
 20
-2.9367246895685311
 30
0.0
 40
3.5049357867652322
 50
189.0742590949593875
 51
195.2564884696375884
  0
ARC
  5
14952
  8
0
 10
4677.0143898381620602
 20
-3.181637597701378
 30
0.0
 40
2.6147064942838192
 50
195.0145581469998888
 51
206.6043480549089111
  0
ARC
  5
14953
  8
0
 10
4677.2293053852308731
 20
-3.0195721030937319
 30
0.0
 40
2.8798552765383749
 50
207.5725239893399134
 51
222.5095839151817927
  0
ARC
  5
14954
  8
0
 10
4678.5682827743994494
 20
0.5969721292025021
 30
0.0
 40
6.5915638047827967
 50
251.8025435849000928
 51
269.9171991363257916
  0
ARC
  5
14955
  8
0
 10
4678.3935165131351823
 20
-0.1272639442489343
 30
0.0
 40
5.8492807596055822
 50
235.8076480853939074
 51
251.2133604002530944
  0
LINE
  5
14956
  8
0
 10
4684.9813581787120711
 20
-10.5877299864360594
 30
0.0
 11
4684.9813581787120711
 21
-4.4080748627964246
 31
0.0
  0
ARC
  5
14957
  8
0
 10
4656.8580307173569963
 20
-9.519560551706542
 30
0.0
 40
28.1436055515280188
 50
349.4796314775300061
 51
357.8248592357505231
  0
ARC
  5
14958
  8
0
 10
4678.5171431586295512
 20
-11.8763482047174698
 30
0.0
 40
6.9862011203953269
 50
270.3412886663418817
 51
304.437222546470025
  0
ARC
  5
14959
  8
0
 10
4678.9479052631895684
 20
-13.0016567549990398
 30
0.0
 40
5.821300501558575
 50
307.2049666287546188
 51
343.4674874519301966
  0
ARC
  5
1495A
  8
0
 10
5359.9539786298373656
 20
13.9483372337483598
 30
0.0
 40
675.2221828581419913
 50
181.308370642919499
 51
181.5578198719240106
  0
ARC
  5
1495B
  8
0
 10
4676.8956145582869794
 20
-1.6338681979358911
 30
0.0
 40
8.0139127684239106
 50
1.1768490207860149
 51
20.7194371961364894
  0
ARC
  5
1495C
  8
0
 10
4678.5605702360780924
 20
-1.2783894422152251
 30
0.0
 40
6.420270820562461
 50
82.3161028608775638
 51
90.016181730495461
  0
ARC
  5
1495D
  8
0
 10
4678.5649607399645902
 20
-1.5308102934798979
 30
0.0
 40
6.6699469225250789
 50
73.7792210851747967
 51
82.6434034477282609
  0
ARC
  5
1495E
  8
0
 10
4678.801694636827051
 20
-0.8160197168993157
 30
0.0
 40
5.9424524700436701
 50
19.8458860364824901
 51
29.6825960586933313
  0
ARC
  5
1495F
  8
0
 10
4679.0942234666526929
 20
-0.5517794385560501
 30
0.0
 40
5.5581038242012299
 50
28.8093443197887815
 51
51.6026011336682018
  0
ARC
  5
14960
  8
0
 10
4678.7260284069334375
 20
-1.1306532372478519
 30
0.0
 40
6.240873891090887
 50
52.2542922212305925
 51
74.1728603419231689
  0
ARC
  5
14961
  8
0
 10
4651.8805338744396067
 20
-0.2213036890659872
 30
0.0
 40
32.0760898137721711
 50
359.7209116168027094
 51
2.166563435092316
  0
ARC
  5
14962
  8
0
 10
4680.1102769272365549
 20
0.8200398208533989
 30
0.0
 40
3.8272517558089709
 50
2.5650295275946111
 51
17.6842975780732594
  0
ARC
  5
14963
  8
0
 10
4680.3004762948594362
 20
0.784361193581308
 30
0.0
 40
3.6580297773406349
 50
19.1218412110149316
 51
44.271769622926513
  0
ARC
  5
14964
  8
0
 10
4678.5521942292380118
 20
-1.6563611094269071
 30
0.0
 40
6.7334822582418461
 50
75.2816142930228125
 51
89.9441568574151944
  0
ARC
  5
14965
  8
0
 10
4678.6753381201533557
 20
-1.240818860098865
 30
0.0
 40
6.3003030583533386
 50
66.9902392978323888
 51
75.4046303320069029
  0
ARC
  5
14966
  8
0
 10
4679.0955703950294264
 20
-0.3346903539185426
 30
0.0
 40
5.3021042119475448
 50
43.8414866390962175
 51
67.3425589922953804
  0
ARC
  5
14967
  8
0
 10
4678.5632085283723427
 20
0.5754424104204398
 30
0.0
 40
6.8981579926096099
 50
269.9630257639274191
 51
291.7525692311709236
  0
ARC
  5
14968
  8
0
 10
4679.0755567846108534
 20
-0.6998917981723274
 30
0.0
 40
5.5237617365503162
 50
291.7190890813380975
 51
313.0132023726774264
  0
ARC
  5
14969
  8
0
 10
4678.1963045268948918
 20
-1.844054937702676
 30
0.0
 40
5.7733958529241542
 50
345.0372987862317018
 51
2.2068706370696729
  0
ARC
  5
1496A
  8
0
 10
4680.7036686643832581
 20
-2.3108403823454431
 30
0.0
 40
3.2364923769029752
 50
311.3925551755514789
 51
341.557960961863273
  0
LINE
  5
1496B
  8
0
 10
4683.9562431582817226
 20
-0.3775460636524279
 30
0.0
 11
4683.9654182864251197
 21
-1.621735113664353
 31
0.0
  0
ARC
  5
1496C
  8
0
 10
4678.5849896552335849
 20
-1.393754132168364
 30
0.0
 40
4.9495341182923029
 50
68.0350266626051763
 51
90.3036705571748968
  0
ARC
  5
1496D
  8
0
 10
4678.8410737809326747
 20
-0.7619095434021937
 30
0.0
 40
4.2677679550505392
 50
48.47500742589704
 51
68.0506093655691728
  0
ARC
  5
1496E
  8
0
 10
4679.6139047747183213
 20
0.1214783039364171
 30
0.0
 40
3.1556278038318681
 50
1.852684005107174
 51
23.6970460593238386
  0
ARC
  5
1496F
  8
0
 10
4679.3866168909289627
 20
-0.2443268419436571
 30
0.0
 40
3.5192109584385372
 50
27.6664747222736906
 51
49.5382114706432901
  0
LINE
  5
14970
  8
0
 10
4682.7809599600723232
 20
-0.2363672999597632
 30
0.0
 11
4682.7803938138122248
 21
-2.2021473009674781
 31
0.0
  0
ARC
  5
14971
  8
0
 10
4675.0856158441283696
 20
-0.2250764338299653
 30
0.0
 40
7.6953523991070378
 50
359.9159337773190259
 51
3.341765589588495
  0
ARC
  5
14972
  8
0
 10
4662.4909113129251637
 20
-2.1527381855802008
 30
0.0
 40
20.2895426615412617
 50
358.071606508731918
 51
359.8604731202469225
  0
ARC
  5
14973
  8
0
 10
4677.4203975892360177
 20
-2.6685725860866358
 30
0.0
 40
5.3511696198028638
 50
351.1753184298623864
 51
358.2124930243821836
  0
ARC
  5
14974
  8
0
 10
4679.247151455419953
 20
-2.9367246895685311
 30
0.0
 40
3.5049357867652322
 50
344.7435115303622979
 51
350.9257409050404135
  0
ARC
  5
14975
  8
0
 10
4680.1031241507944287
 20
-3.181637597701378
 30
0.0
 40
2.6147064942838192
 50
333.3956519450911173
 51
344.9854418529998838
  0
ARC
  5
14976
  8
0
 10
4679.8882086037237968
 20
-3.0195721030937319
 30
0.0
 40
2.8798552765383749
 50
317.4904160848182073
 51
332.4274760106599729
  0
ARC
  5
14977
  8
0
 10
4678.5492312145570395
 20
0.5969721292025021
 30
0.0
 40
6.5915638047828402
 50
270.0828008636740947
 51
288.1974564150997935
  0
ARC
  5
14978
  8
0
 10
4678.7239974758222161
 20
-0.1272639442489343
 30
0.0
 40
5.8492807596055822
 50
288.7866395997468771
 51
304.1923519146058084
  0
ARC
  5
1497A
  8
0
 10
4718.2608927972632955
 20
-1.181207328376469
 30
0.0
 40
44.7539663286231288
 50
178.9266396706923103
 51
181.0913318352361898
  0
ARC
  5
1497B
  8
0
 10
4677.3345522354566128
 20
-2.0608478897839531
 30
0.0
 40
3.819604815828467
 50
179.591258782105399
 51
201.479230209728712
  0
ARC
  5
1497C
  8
0
 10
4699.7482542275902233
 20
-0.0430381302798217
 30
0.0
 40
26.2351879378727411
 50
177.6476028947112979
 51
180.6547825413396993
  0
ARC
  5
1497D
  8
0
 10
4677.1181032151489489
 20
-1.8572206547655941
 30
0.0
 40
3.7025150075712938
 50
205.641614416794198
 51
237.0887042929921051
  0
ARC
  5
1497E
  8
0
 10
4677.1052122699411484
 20
0.8784217711383099
 30
0.0
 40
3.5734166005808712
 50
163.3167582211164017
 51
177.5079068357237873
  0
ARC
  5
1497F
  8
0
 10
4677.126168218026578
 20
0.6915838039139182
 30
0.0
 40
3.6512267114489951
 50
130.9883800358960002
 51
160.6016622381301033
  0
ARC
  5
14980
  8
0
 10
4678.5702449417349271
 20
-1.596686410836436
 30
0.0
 40
6.4057170994261776
 50
90.1027644430097041
 51
108.3119090419027941
  0
ARC
  5
14981
  8
0
 10
4678.1661622377896492
 20
-0.4751138371270507
 30
0.0
 40
5.2140756326608617
 50
107.9686935080431027
 51
131.20582310108
  0
ARC
  5
14982
  8
0
 10
4638.8566187934848131
 20
-1.181207328376469
 30
0.0
 40
44.7539663286231288
 50
358.908668164763526
 51
1.0733603293076219
  0
ARC
  5
14983
  8
0
 10
4679.7829593552924052
 20
-2.0608478897839531
 30
0.0
 40
3.819604815828467
 50
338.5207697902711175
 51
0.4087412178945965
  0
ARC
  5
14984
  8
0
 10
4657.3692573631587948
 20
-0.0430381302798217
 30
0.0
 40
26.2351879378727411
 50
359.3452174586602155
 51
2.352397105288766
  0
ARC
  5
14985
  8
0
 10
4679.9993937193021338
 20
-1.857210952726827
 30
0.0
 40
3.7025324189628801
 50
302.9114356911916275
 51
334.3583483789639104
  0
ARC
  5
14986
  8
0
 10
4680.0122993208069602
 20
0.8784217711383099
 30
0.0
 40
3.5734166005808712
 50
2.492093164276195
 51
16.6832417788835592
  0
ARC
  5
14987
  8
0
 10
4679.9913433727224401
 20
0.6915838039139182
 30
0.0
 40
3.6512267114489951
 50
19.3983377618699215
 51
49.0116199641039785
  0
ARC
  5
14988
  8
0
 10
4678.5472666490131814
 20
-1.596686410836436
 30
0.0
 40
6.4057170994261776
 50
71.6880909580971633
 51
89.8972355569902959
  0
ARC
  5
14989
  8
0
 10
4678.9513493529575499
 20
-0.4751138371270507
 30
0.0
 40
5.2140756326608617
 50
48.7941768989199574
 51
72.0313064919568831
  0
ARC
  5
1498A
  8
0
 10
4678.5661817887594225
 20
1.268006513009966
 30
0.0
 40
0.6361513725584631
 50
8.0252842244538982
 51
171.9747157755460023
  0
ARC
  5
1498B
  8
0
 10
4678.5661817919781242
 20
1.0940086486665619
 30
0.0
 40
0.6721318037450316
 50
20.2343272219329009
 51
159.7656727780673123
  0
ARC
  5
1498C
  8
0
 10
4678.5661817919781242
 20
1.3264724297434429
 30
0.0
 40
0.6306518469750118
 50
177.2418379463331917
 51
2.7581605748869409
  0
ENDSEC
  0
EOF
