  0
SECTION
  2
HEADER
  9
$ACADVER
  1
AC1009
  9
$INSBASE
 10
331.6550310964274217
 20
9.2621115595009105
 30
0.0
  9
$EXTMIN
 10
329.6865271594274986
 20
5.6491502823219584
 30
0.0
  9
$EXTMAX
 10
333.6235350334274017
 20
11.23061549650091
 30
0.0
  9
$LIMMIN
 10
0.0
 20
0.0
  9
$LIMMAX
 10
22.0
 20
17.0
  9
$ORTHOMODE
 70
     0
  9
$REGENMODE
 70
     1
  9
$FILLMODE
 70
     1
  9
$QTEXTMODE
 70
     0
  9
$MIRRTEXT
 70
     0
  9
$DRAGMODE
 70
     2
  9
$LTSCALE
 40
1.2099999999999991
  9
$OSMODE
 70
  4095
  9
$ATTMODE
 70
     1
  9
$TEXTSIZE
 40
0.2
  9
$TRACEWID
 40
0.05
  9
$TEXTSTYLE
  7
STANDARD
  9
$CLAYER
  8
0
  9
$CELTYPE
  6
BYLAYER
  9
$CECOLOR
 62
   256
  9
$DIMSCALE
 40
1.0
  9
$DIMASZ
 40
0.1875
  9
$DIMEXO
 40
0.0625
  9
$DIMDLI
 40
0.38
  9
$DIMRND
 40
0.0
  9
$DIMDLE
 40
0.0
  9
$DIMEXE
 40
0.125
  9
$DIMTP
 40
1.5
  9
$DIMTM
 40
1.5
  9
$DIMTXT
 40
1.5
  9
$DIMCEN
 40
0.09
  9
$DIMTSZ
 40
0.0
  9
$DIMTOL
 70
     0
  9
$DIMLIM
 70
     0
  9
$DIMTIH
 70
     1
  9
$DIMTOH
 70
     1
  9
$DIMSE1
 70
     0
  9
$DIMSE2
 70
     0
  9
$DIMTAD
 70
     0
  9
$DIMZIN
 70
     4
  9
$DIMBLK
  1

  9
$DIMASO
 70
     1
  9
$DIMSHO
 70
     1
  9
$DIMPOST
  1

  9
$DIMAPOST
  1

  9
$DIMALT
 70
     0
  9
$DIMALTD
 70
     2
  9
$DIMALTF
 40
25.3999999999999986
  9
$DIMLFAC
 40
1.0
  9
$DIMTOFL
 70
     0
  9
$DIMTVP
 40
0.0
  9
$DIMTIX
 70
     0
  9
$DIMSOXD
 70
     0
  9
$DIMSAH
 70
     0
  9
$DIMBLK1
  1

  9
$DIMBLK2
  1

  9
$DIMSTYLE
  2
STANDARD
  9
$DIMCLRD
 70
     0
  9
$DIMCLRE
 70
     0
  9
$DIMCLRT
 70
     0
  9
$DIMTFAC
 40
1.0
  9
$DIMGAP
 40
0.09
  9
$LUNITS
 70
     2
  9
$LUPREC
 70
     4
  9
$SKETCHINC
 40
0.1
  9
$FILLETRAD
 40
0.0
  9
$AUNITS
 70
     0
  9
$AUPREC
 70
     0
  9
$MENU
  1
.
  9
$ELEVATION
 40
0.0
  9
$PELEVATION
 40
0.0
  9
$THICKNESS
 40
0.0
  9
$LIMCHECK
 70
     0
  9
$BLIPMODE
 70
     0
  9
$CHAMFERA
 40
0.0
  9
$CHAMFERB
 40
0.0
  9
$SKPOLY
 70
     0
  9
$TDCREATE
 40
2457827.4934837957844138
  9
$TDUPDATE
 40
2459968.5301157408393919
  9
$TDINDWG
 40
0.5103028935
  9
$TDUSRTIMER
 40
0.5103028935
  9
$USRTIMER
 70
     1
  9
$ANGBASE
 50
0.0
  9
$ANGDIR
 70
     0
  9
$PDMODE
 70
     0
  9
$PDSIZE
 40
0.3125
  9
$PLINEWID
 40
0.0
  9
$COORDS
 70
     1
  9
$SPLFRAME
 70
     0
  9
$SPLINETYPE
 70
     6
  9
$SPLINESEGS
 70
     8
  9
$ATTDIA
 70
     1
  9
$ATTREQ
 70
     1
  9
$HANDLING
 70
     1
  9
$HANDSEED
  5
6867
  9
$SURFTAB1
 70
     6
  9
$SURFTAB2
 70
     6
  9
$SURFTYPE
 70
     6
  9
$SURFU
 70
     6
  9
$SURFV
 70
     6
  9
$UCSNAME
  2

  9
$UCSORG
 10
0.0
 20
0.0
 30
0.0
  9
$UCSXDIR
 10
1.0
 20
0.0
 30
0.0
  9
$UCSYDIR
 10
0.0
 20
1.0
 30
0.0
  9
$PUCSNAME
  2

  9
$PUCSORG
 10
0.0
 20
0.0
 30
0.0
  9
$PUCSXDIR
 10
1.0
 20
0.0
 30
0.0
  9
$PUCSYDIR
 10
0.0
 20
1.0
 30
0.0
  9
$USERI1
 70
     0
  9
$USERI2
 70
     0
  9
$USERI3
 70
     0
  9
$USERI4
 70
     0
  9
$USERI5
 70
     0
  9
$USERR1
 40
0.0
  9
$USERR2
 40
0.0
  9
$USERR3
 40
0.0
  9
$USERR4
 40
0.0
  9
$USERR5
 40
0.0
  9
$WORLDVIEW
 70
     1
  9
$SHADEDGE
 70
     3
  9
$SHADEDIF
 70
    70
  9
$TILEMODE
 70
     1
  9
$MAXACTVP
 70
    48
  9
$PLIMCHECK
 70
     0
  9
$PEXTMIN
 10
1.0000000000000000E+20
 20
1.0000000000000000E+20
 30
1.0000000000000000E+20
  9
$PEXTMAX
 10
-1.0000000000000000E+20
 20
-1.0000000000000000E+20
 30
-1.0000000000000000E+20
  9
$PLIMMIN
 10
0.0
 20
0.0
  9
$PLIMMAX
 10
12.0
 20
9.0
  9
$UNITMODE
 70
     0
  9
$VISRETAIN
 70
     1
  9
$PLINEGEN
 70
     0
  9
$PSLTSCALE
 70
     1
  0
ENDSEC
  0
SECTION
  2
TABLES
  0
TABLE
  2
VPORT
 70
     1
  0
VPORT
  2
*ACTIVE
 70
     0
 10
0.0
 20
0.0
 11
1.0
 21
1.0
 12
120.682453121946196
 22
2.0632288316275811
 13
0.0
 23
0.0
 14
1.0
 24
1.0
 15
0.0
 25
0.0
 16
-0.0000000000000284
 26
0.0
 36
157.2215818301446859
 17
210.9789276123046875
 27
7.2024491855605604
 37
0.0
 40
0.0209652064629669
 41
2.5251322751322749
 42
50.0
 43
0.0
 44
0.0
 50
0.0
 51
0.0
 71
     0
 72
   100
 73
     1
 74
     1
 75
     0
 76
     0
 77
     0
 78
     0
  0
ENDTAB
  0
TABLE
  2
LTYPE
 70
     2
  0
LTYPE
  2
CONTINUOUS
 70
     0
  3
Solid line
 72
    65
 73
     0
 40
0.0
  0
LTYPE
  2
PHANTOM2
 70
     0
  3
___ _ _ ___ _ _ ___ _ _ ___ _ _
 72
    65
 73
     6
 40
1.25
 49
0.625
 49
-0.125
 49
0.125
 49
-0.125
 49
0.125
 49
-0.125
  0
ENDTAB
  0
TABLE
  2
LAYER
 70
     2
  0
LAYER
  2
0
 70
     0
 62
     7
  6
CONTINUOUS
  0
LAYER
  2
DEFPOINTS
 70
     0
 62
     7
  6
CONTINUOUS
  0
ENDTAB
  0
TABLE
  2
STYLE
 70
     1
  0
STYLE
  2
STANDARD
 70
     0
 40
0.0
 41
0.8
 50
0.0
 71
     0
 42
0.2
  3
txt
  4

  0
ENDTAB
  0
TABLE
  2
VIEW
 70
     0
  0
ENDTAB
  0
TABLE
  2
UCS
 70
     0
  0
ENDTAB
  0
TABLE
  2
APPID
 70
     9
  0
APPID
  2
ACAD
 70
     0
  0
APPID
  2
ACAD_MLEADERVER
 70
     0
  0
APPID
  2
ACAD_EXEMPT_FROM_CAD_STANDARDS
 70
     0
  0
APPID
  2
ACAD_NAV_VCDISPLAY
 70
     0
  0
APPID
  2
ACADANNOMONITORALERTICONDI
 70
     0
  0
APPID
  2
ACAD_DSTYLE_DIMJAG
 70
     0
  0
APPID
  2
ACAD_DSTYLE_DIMTALN
 70
     0
  0
APPID
  2
ACDBATTR
 70
     0
  0
APPID
  2
DCO15
 70
     0
  0
ENDTAB
  0
TABLE
  2
DIMSTYLE
 70
     1
  0
DIMSTYLE
  2
STANDARD
 70
     0
  3

  4

  5

  6

  7

 40
1.0
 41
0.1875
 42
0.0625
 43
0.38
 44
0.125
 45
0.0
 46
0.0
 47
1.5
 48
1.5
140
1.5
141
0.09
142
0.0
143
25.3999999999999986
144
1.0
145
0.0
146
1.0
147
0.09
 71
     0
 72
     0
 73
     1
 74
     1
 75
     0
 76
     0
 77
     0
 78
     4
170
     0
171
     2
172
     0
173
     0
174
     0
175
     0
176
     0
177
     0
178
     0
  0
ENDTAB
  0
ENDSEC
  0
SECTION
  2
BLOCKS
  0
BLOCK
  8
0
  2
$MODEL_SPACE
 70
     0
 10
0.0
 20
0.0
 30
0.0
  3
$MODEL_SPACE
  1

  0
ENDBLK
  5
21
  8
0
  0
BLOCK
 67
     1
  8
0
  2
$PAPER_SPACE
 70
     0
 10
0.0
 20
0.0
 30
0.0
  3
$PAPER_SPACE
  1

  0
ENDBLK
  5
1D
 67
     1
  8
0
  0
BLOCK
  8
0
  2
_FILLED
 70
     0
 10
0.0
 20
0.0
 30
0.0
  3
_FILLED
  1

  0
SOLID
  5
6485
  8
0
  6
BYBLOCK
 62
     0
 10
0.0
 20
0.0
 30
0.0
 11
-1.0
 21
0.1666666667
 31
0.0
 12
-1.0
 22
-0.1666666667
 32
0.0
 13
-1.0
 23
-0.1666666667
 33
0.0
  0
ENDBLK
  5
6486
  8
0
  6
BYBLOCK
 62
     0
  0
ENDSEC
  0
SECTION
  2
ENTITIES
  0
ATTDEF
  5
4EF9
  8
DEFPOINTS
 10
331.6520432179489148
 20
9.2604112264457221
 30
0.0
 40
0.001
  1
K-26479T-4
  3

  2
MODELNUMBER
 70
     0
1001
ACDBATTR
1070
     0
1070
     1
  0
ATTDEF
  5
4EFA
  8
DEFPOINTS
 10
331.6520432179489148
 20
9.2587445597790445
 30
0.0
 40
0.001
  1
40MM HIGH FLOW RECESS VALVE SYSTEM
  3

  2
TRADENAME
 70
     0
1001
ACDBATTR
1070
     0
1070
     1
  0
ATTDEF
  5
4EFB
  8
DEFPOINTS
 10
331.6520432179489148
 20
9.2570778931123652
 30
0.0
 40
0.001
  1
VALVE TRIM
  3

  2
PRODUCT
 70
     0
1001
ACDBATTR
1070
     0
1070
     1
  0
ARC
  5
65FA
  8
0
 10
331.6550310964274217
 20
9.2621115595009105
 30
0.0
 40
0.9704724409999999
 50
90.0
 51
184.4104646935944061
  0
LINE
  5
65FB
  8
0
 10
330.6874324927812836
 20
9.1874811303011388
 30
0.0
 11
330.8140956359274014
 21
6.5758059324509057
 31
0.0
  0
ARC
  5
65FC
  8
0
 10
334.904197233813818
 20
6.8008799835452409
 30
0.0
 40
4.0962897125945723
 50
183.149750572194506
 51
186.8185136384495024
  0
ARC
  5
65FD
  8
0
 10
333.4518722511746205
 20
6.5476797277579042
 30
0.0
 40
2.6253639220205791
 50
185.0945463383258129
 51
189.3971596808781896
  0
ARC
  5
65FE
  8
0
 10
331.7646738330727771
 20
6.2725546661207661
 30
0.0
 40
0.9158946082525719
 50
189.650381599435093
 51
196.4868730547441942
  0
ARC
  5
65FF
  8
0
 10
331.6456756741528125
 20
6.2661362219625314
 30
0.0
 40
0.800444108906487
 50
198.4640622734249007
 51
206.231628172083191
  0
ARC
  5
6600
  8
0
 10
331.3088510558155235
 20
6.117339102300158
 30
0.0
 40
0.4328132412667518
 50
208.2711955349614072
 51
248.5039642082822127
  0
ARC
  5
6601
  8
0
 10
331.4573730078412837
 20
6.499696426749396
 30
0.0
 40
0.8430010078453628
 50
248.6343657532839018
 51
265.2996567769790204
  0
ARC
  5
6602
  8
0
 10
331.625774854422616
 20
8.3296819501520307
 30
0.0
 40
2.6806913194055211
 50
264.9175322918550251
 51
269.3746790400230111
  0
LINE
  5
6603
  8
0
 10
331.5965186124178103
 20
5.6491502823219601
 30
0.0
 11
331.7135435804372037
 21
5.6491502823219601
 31
0.0
  0
ARC
  5
6604
  8
0
 10
331.6550310964274217
 20
9.2621115595009105
 30
0.0
 40
0.9704724409999999
 50
355.5895353064054802
 51
90.0
  0
LINE
  5
6605
  8
0
 10
332.6226297000736167
 20
9.1874811303011388
 30
0.0
 11
332.4959665569274989
 21
6.5758059324509057
 31
0.0
  0
ARC
  5
6606
  8
0
 10
328.405864959041196
 20
6.8008799835452409
 30
0.0
 40
4.0962897125945723
 50
353.1814863615504123
 51
356.8502494278054087
  0
ARC
  5
6607
  8
0
 10
329.858189941680223
 20
6.5476797277579042
 30
0.0
 40
2.6253639220205791
 50
350.6028403191219809
 51
354.9054536616740734
  0
ARC
  5
6608
  8
0
 10
331.5453883597820095
 20
6.2725546661207661
 30
0.0
 40
0.9158946082525719
 50
343.5131269452556921
 51
350.3496184005647933
  0
ARC
  5
6609
  8
0
 10
331.6643865187020879
 20
6.2661362219625314
 30
0.0
 40
0.800444108906487
 50
333.7683718279167806
 51
341.5359377265751277
  0
ARC
  5
660A
  8
0
 10
332.0012111370393768
 20
6.117339102300158
 30
0.0
 40
0.4328132412667518
 50
291.4960357917177021
 51
331.7288044650384791
  0
ARC
  5
660B
  8
0
 10
331.8526891850136167
 20
6.499696426749396
 30
0.0
 40
0.8430010078453628
 50
274.7003432230210933
 51
291.3656342467161267
  0
ARC
  5
660C
  8
0
 10
331.6842873384322843
 20
8.3296819501520307
 30
0.0
 40
2.6806913194055211
 50
270.6253209599771026
 51
275.0824677081449749
  0
LINE
  5
660D
  8
0
 10
330.0015271594273827
 20
11.23061549650091
 30
0.0
 11
333.308535033427404
 21
11.23061549650091
 31
0.0
  0
LINE
  5
660E
  8
0
 10
330.0015271594273827
 20
7.2936076225009101
 30
0.0
 11
330.7792831070599959
 21
7.2936076225009101
 31
0.0
  0
LINE
  5
660F
  8
0
 10
332.5307790857947907
 20
7.2936076225009101
 30
0.0
 11
333.308535033427404
 21
7.2936076225009101
 31
0.0
  0
LINE
  5
6610
  8
0
 10
329.6865271594274986
 20
10.9156154965009105
 30
0.0
 11
329.6865271594274986
 21
7.6086076225009096
 31
0.0
  0
LINE
  5
6611
  8
0
 10
333.6235350334274017
 20
10.9156154965009105
 30
0.0
 11
333.6235350334274017
 21
7.6086076225009096
 31
0.0
  0
ARC
  5
6612
  8
0
 10
330.0015271594273827
 20
10.9156154965009105
 30
0.0
 40
0.315
 50
90.0
 51
180.0000000000003126
  0
ARC
  5
6613
  8
0
 10
330.0015271594273827
 20
7.6086076225009096
 30
0.0
 40
0.315
 50
180.0
 51
270.0
  0
ARC
  5
6614
  8
0
 10
333.308535033427404
 20
10.9156154965009105
 30
0.0
 40
0.315
 50
359.9999999999994884
 51
90.0
  0
ARC
  5
6615
  8
0
 10
333.308535033427404
 20
7.6086076225009096
 30
0.0
 40
0.315
 50
270.0
 51
0.0000000000000763
  0
ENDSEC
  0
EOF
