  0
SECTION
  2
HEADER
  9
$ACADVER
  1
AC1009
  9
$INSBASE
 10
2938.3402013575660021
 20
135.3485696959014888
 30
0.0
  9
$EXTMIN
 10
2935.1411950645879188
 20
134.2054478118481882
 30
0.0
  9
$EXTMAX
 10
2938.3532399066912149
 20
136.4916915799549031
 30
0.0
  9
$LIMMIN
 10
0.0
 20
0.0
  9
$LIMMAX
 10
11.6929133858000007
 20
8.2677165353999982
  9
$ORTHOMODE
 70
     0
  9
$REGENMODE
 70
     1
  9
$FILLMODE
 70
     1
  9
$QTEXTMODE
 70
     0
  9
$MIRRTEXT
 70
     0
  9
$DRAGMODE
 70
     2
  9
$LTSCALE
 40
0.6431102362
  9
$OSMODE
 70
  4095
  9
$ATTMODE
 70
     1
  9
$TEXTSIZE
 40
0.2
  9
$TRACEWID
 40
0.05
  9
$TEXTSTYLE
  7
STANDARD
  9
$CLAYER
  8
0
  9
$CELTYPE
  6
BYLAYER
  9
$CECOLOR
 62
   256
  9
$DIMSCALE
 40
1.0
  9
$DIMASZ
 40
0.1875
  9
$DIMEXO
 40
0.0625
  9
$DIMDLI
 40
0.4443307087
  9
$DIMRND
 40
0.0
  9
$DIMDLE
 40
0.0
  9
$DIMEXE
 40
0.125
  9
$DIMTP
 40
0.01
  9
$DIMTM
 40
0.01
  9
$DIMTXT
 40
2.0
  9
$DIMCEN
 40
0.1052362205
  9
$DIMTSZ
 40
0.0
  9
$DIMTOL
 70
     1
  9
$DIMLIM
 70
     0
  9
$DIMTIH
 70
     1
  9
$DIMTOH
 70
     1
  9
$DIMSE1
 70
     0
  9
$DIMSE2
 70
     0
  9
$DIMTAD
 70
     0
  9
$DIMZIN
 70
     0
  9
$DIMBLK
  1

  9
$DIMASO
 70
     1
  9
$DIMSHO
 70
     1
  9
$DIMPOST
  1
\X
  9
$DIMAPOST
  1

  9
$DIMALT
 70
     1
  9
$DIMALTD
 70
     2
  9
$DIMALTF
 40
25.3999999999999986
  9
$DIMLFAC
 40
1.0
  9
$DIMTOFL
 70
     0
  9
$DIMTVP
 40
0.0
  9
$DIMTIX
 70
     0
  9
$DIMSOXD
 70
     0
  9
$DIMSAH
 70
     0
  9
$DIMBLK1
  1

  9
$DIMBLK2
  1

  9
$DIMSTYLE
  2
STANDARD
  9
$DIMCLRD
 70
     0
  9
$DIMCLRE
 70
     0
  9
$DIMCLRT
 70
     0
  9
$DIMTFAC
 40
1.0
  9
$DIMGAP
 40
0.09
  9
$LUNITS
 70
     2
  9
$LUPREC
 70
     4
  9
$SKETCHINC
 40
0.1
  9
$FILLETRAD
 40
0.0
  9
$AUNITS
 70
     0
  9
$AUPREC
 70
     0
  9
$MENU
  1
.
  9
$ELEVATION
 40
0.0
  9
$PELEVATION
 40
0.0
  9
$THICKNESS
 40
0.0
  9
$LIMCHECK
 70
     0
  9
$BLIPMODE
 70
     0
  9
$CHAMFERA
 40
0.0
  9
$CHAMFERB
 40
0.0
  9
$SKPOLY
 70
     0
  9
$TDCREATE
 40
2458060.468368056230247
  9
$TDUPDATE
 40
2459922.422835648059845
  9
$TDINDWG
 40
0.2915579861
  9
$TDUSRTIMER
 40
0.2915579861
  9
$USRTIMER
 70
     1
  9
$ANGBASE
 50
0.0
  9
$ANGDIR
 70
     0
  9
$PDMODE
 70
     0
  9
$PDSIZE
 40
0.3125
  9
$PLINEWID
 40
0.0
  9
$COORDS
 70
     1
  9
$SPLFRAME
 70
     0
  9
$SPLINETYPE
 70
     6
  9
$SPLINESEGS
 70
     8
  9
$ATTDIA
 70
     1
  9
$ATTREQ
 70
     1
  9
$HANDLING
 70
     1
  9
$HANDSEED
  5
6870
  9
$SURFTAB1
 70
     6
  9
$SURFTAB2
 70
     6
  9
$SURFTYPE
 70
     6
  9
$SURFU
 70
     6
  9
$SURFV
 70
     6
  9
$UCSNAME
  2

  9
$UCSORG
 10
0.0
 20
0.0
 30
0.0
  9
$UCSXDIR
 10
1.0
 20
0.0
 30
0.0
  9
$UCSYDIR
 10
0.0
 20
1.0
 30
0.0
  9
$PUCSNAME
  2

  9
$PUCSORG
 10
0.0
 20
0.0
 30
0.0
  9
$PUCSXDIR
 10
1.0
 20
0.0
 30
0.0
  9
$PUCSYDIR
 10
0.0
 20
1.0
 30
0.0
  9
$USERI1
 70
     0
  9
$USERI2
 70
     0
  9
$USERI3
 70
     0
  9
$USERI4
 70
     0
  9
$USERI5
 70
     0
  9
$USERR1
 40
0.0
  9
$USERR2
 40
0.0
  9
$USERR3
 40
0.0
  9
$USERR4
 40
0.0
  9
$USERR5
 40
0.0
  9
$WORLDVIEW
 70
     1
  9
$SHADEDGE
 70
     3
  9
$SHADEDIF
 70
    70
  9
$TILEMODE
 70
     1
  9
$MAXACTVP
 70
    64
  9
$PLIMCHECK
 70
     0
  9
$PEXTMIN
 10
1.0000000000000000E+20
 20
1.0000000000000000E+20
 30
1.0000000000000000E+20
  9
$PEXTMAX
 10
-1.0000000000000000E+20
 20
-1.0000000000000000E+20
 30
-1.0000000000000000E+20
  9
$PLIMMIN
 10
0.0
 20
0.0
  9
$PLIMMAX
 10
12.0
 20
9.0
  9
$UNITMODE
 70
     0
  9
$VISRETAIN
 70
     1
  9
$PLINEGEN
 70
     0
  9
$PSLTSCALE
 70
     1
  0
ENDSEC
  0
SECTION
  2
TABLES
  0
TABLE
  2
VPORT
 70
     1
  0
VPORT
  2
*ACTIVE
 70
     0
 10
0.0
 20
0.0
 11
1.0
 21
1.0
 12
-0.3489355662964046
 22
2.5480959700627648
 13
0.0
 23
0.0
 14
1.0
 24
1.0
 15
0.0
 25
0.0
 16
0.0
 26
0.0
 36
11.3059115842606204
 17
2937.0961530519361986
 27
132.8239288330078125
 37
0.0
 40
2.2986707013733292
 41
1.583333333333333
 42
50.0
 43
0.0
 44
0.0
 50
0.0
 51
0.0
 71
     0
 72
   100
 73
     1
 74
     1
 75
     0
 76
     0
 77
     0
 78
     0
  0
ENDTAB
  0
TABLE
  2
LTYPE
 70
     2
  0
LTYPE
  2
CONTINUOUS
 70
     0
  3
Solid line
 72
    65
 73
     0
 40
0.0
  0
LTYPE
  2
PHANTOM2
 70
     0
  3
___ _ _ ___ _ _ ___ _ _ ___ _ _
 72
    65
 73
     6
 40
1.25
 49
0.625
 49
-0.125
 49
0.125
 49
-0.125
 49
0.125
 49
-0.125
  0
ENDTAB
  0
TABLE
  2
LAYER
 70
     2
  0
LAYER
  2
0
 70
     0
 62
   255
  6
CONTINUOUS
  0
LAYER
  2
DEFPOINTS
 70
     0
 62
     7
  6
CONTINUOUS
  0
ENDTAB
  0
TABLE
  2
STYLE
 70
     1
  0
STYLE
  2
STANDARD
 70
     0
 40
0.0
 41
0.8
 50
0.0
 71
     0
 42
0.2
  3
txt
  4

  0
ENDTAB
  0
TABLE
  2
VIEW
 70
     0
  0
ENDTAB
  0
TABLE
  2
UCS
 70
     0
  0
ENDTAB
  0
TABLE
  2
APPID
 70
     9
  0
APPID
  2
ACAD
 70
     0
  0
APPID
  2
ACAD_MLEADERVER
 70
     0
  0
APPID
  2
ACAD_EXEMPT_FROM_CAD_STANDARDS
 70
     0
  0
APPID
  2
ACAD_NAV_VCDISPLAY
 70
     0
  0
APPID
  2
ACAECLAYERSTANDARD
 70
     0
  0
APPID
  2
ACCMTRANSPARENCY
 70
     0
  0
APPID
  2
ACAD_DSTYLE_DIMJAG
 70
     0
  0
APPID
  2
ACAD_DSTYLE_DIMTALN
 70
     0
  0
APPID
  2
ACDBATTR
 70
     0
  0
ENDTAB
  0
TABLE
  2
DIMSTYLE
 70
     1
  0
DIMSTYLE
  2
STANDARD
 70
     0
  3

  4

  5

  6

  7

 40
1.0
 41
0.1875
 42
0.0625
 43
0.38
 44
0.125
 45
0.0
 46
0.0
 47
0.01
 48
0.01
140
0.15625
141
0.09
142
0.0
143
25.3999999999999986
144
1.0
145
0.0
146
1.0
147
0.09
 71
     1
 72
     0
 73
     1
 74
     1
 75
     0
 76
     0
 77
     0
 78
     4
170
     0
171
     2
172
     0
173
     0
174
     0
175
     0
176
     0
177
     0
178
     0
  0
ENDTAB
  0
ENDSEC
  0
SECTION
  2
BLOCKS
  0
BLOCK
  8
0
  2
$MODEL_SPACE
 70
     0
 10
0.0
 20
0.0
 30
0.0
  3
$MODEL_SPACE
  1

  0
ENDBLK
  5
21
  8
0
  0
BLOCK
 67
     1
  8
0
  2
$PAPER_SPACE
 70
     0
 10
0.0
 20
0.0
 30
0.0
  3
$PAPER_SPACE
  1

  0
ENDBLK
  5
1D
 67
     1
  8
0
  0
ENDSEC
  0
SECTION
  2
ENTITIES
  0
ATTDEF
  5
3930
  8
DEFPOINTS
 10
2938.3425732400219204
 20
135.3476213278256068
 30
0.0
 40
0.001
  1
K-26494
  3

  2
MODELNUMBER
 70
     0
1001
ACDBATTR
1070
     0
1070
     1
  0
ATTDEF
  5
3931
  8
DEFPOINTS
 10
2938.3425732400219204
 20
135.3459546611589133
 30
0.0
 40
0.001
  1
RELIC
  3

  2
TRADENAME
 70
     0
1001
ACDBATTR
1070
     0
1070
     1
  0
ATTDEF
  5
3932
  8
DEFPOINTS
 10
2938.3425732400219204
 20
135.3442879944921913
 30
0.0
 40
0.001
  1
TOWEL BAR
  3

  2
PRODUCT
 70
     0
1001
ACDBATTR
1070
     0
1070
     1
  0
LINE
  5
66DA
  8
0
 10
2938.2757643682662092
 20
134.2065897718516112
 30
0.0
 11
2938.3402013575660021
 21
134.2054478118481882
 31
0.0
  0
LINE
  5
66DB
  8
0
 10
2938.1105878320659031
 20
136.4916915799549031
 30
0.0
 11
2938.3402013575660021
 21
136.4916915799549031
 31
0.0
  0
LINE
  5
66DC
  8
0
 10
2936.2852930055660181
 20
135.8014332314741068
 30
0.0
 11
2935.793166888865926
 21
135.8014332314741068
 31
0.0
  0
ARC
  5
66DD
  8
0
 10
2936.6417405123211211
 20
135.9218229665198123
 30
0.0
 40
0.1065320468700202
 50
280.7954225500582197
 51
356.4998785779540071
  0
ARC
  5
66DE
  8
0
 10
2935.724270039223029
 20
135.5701690061843863
 30
0.0
 40
0.0393694448498663
 50
359.9989327191673851
 51
120.5366277163568043
  0
ARC
  5
66DF
  8
0
 10
2936.354233799422218
 20
135.632228462393897
 30
0.0
 40
0.0394133502559841
 50
51.7100947150131702
 51
179.9238607555053875
  0
ARC
  5
66E0
  8
0
 10
2935.7961611630680636
 20
135.7689115627518959
 30
0.0
 40
0.0326592194406174
 50
95.2603992307591767
 51
174.7397974749216019
  0
ARC
  5
66E1
  8
0
 10
2936.2826275171291854
 20
135.7692402646615051
 30
0.0
 40
0.0323031258674618
 50
4.7331351193142792
 51
85.2668643518629068
  0
ARC
  5
66E2
  8
0
 10
2936.6639875701971505
 20
135.7974562714400122
 30
0.0
 40
0.0198529290096173
 50
96.6333074362427311
 51
159.7259753024009967
  0
ARC
  5
66E3
  8
0
 10
2937.910084293266209
 20
136.2146360312015929
 30
0.0
 40
0.0787401179
 50
267.8900848476010879
 51
343.1716568731105781
  0
ARC
  5
66E4
  8
0
 10
2938.0033538371990289
 20
136.4683723632076919
 30
0.0
 40
0.0623761205695872
 50
297.7785707434769051
 51
344.1552419928227096
  0
ARC
  5
66E5
  8
0
 10
2938.1282815542631397
 20
136.4231677574541948
 30
0.0
 40
0.0707713363961719
 50
104.4782547624425035
 51
156.5406601472562045
  0
ARC
  5
66E6
  8
0
 10
2936.9541459935549028
 20
135.9656521595601077
 30
0.0
 40
0.0393701978114241
 50
203.3595922321644025
 51
287.1314863732060871
  0
ARC
  5
66E7
  8
0
 10
2935.6581876269679015
 20
135.6873220224373995
 30
0.0
 40
0.0951464551718158
 50
266.8806923445400798
 51
298.9664822386316132
  0
ARC
  5
66E8
  8
0
 10
2936.4695097989788337
 20
135.7531157776955979
 30
0.0
 40
0.1278508988037908
 50
224.7143143440607957
 51
314.0853788720013995
  0
ARC
  5
66E9
  8
0
 10
2936.2974515918867837
 20
135.9177651793141024
 30
0.0
 40
0.3659368171963036
 50
315.5007264562539717
 51
341.9425402390510271
  0
ARC
  5
66EA
  8
0
 10
2937.3763443013858705
 20
135.9068008345487897
 30
0.0
 40
0.628328203778755
 50
164.4885453750466127
 51
179.2232141027741079
  0
ARC
  5
66EB
  8
0
 10
2936.8136841483328681
 20
136.0612410643898045
 30
0.0
 40
0.0448903279541722
 50
100.3687379423396067
 51
162.3722271695698112
  0
ARC
  5
66EC
  8
0
 10
2936.8036109688841861
 20
136.0832785623942982
 30
0.0
 40
0.0222094299561969
 50
42.0557352017160611
 51
84.849708866022894
  0
ARC
  5
66ED
  8
0
 10
2936.5879871202200775
 20
135.8383180989268908
 30
0.0
 40
0.3484143261949517
 50
18.7030550102317683
 51
48.2254192440586422
  0
ARC
  5
66EE
  8
0
 10
2938.0488534681790043
 20
136.3848899030651012
 30
0.0
 40
0.0327186012979763
 50
120.1407955225770934
 51
181.9798809674996107
  0
ARC
  5
66EF
  8
0
 10
2937.3585067997400984
 20
136.3934102335634861
 30
0.0
 40
0.657718405807472
 50
349.0788924148420733
 51
359.1592680684883021
  0
ARC
  5
66F0
  8
0
 10
2937.2672485192138083
 20
136.4086427810167947
 30
0.0
 40
0.7502134487923489
 50
343.2026412280558247
 51
349.2570598304353098
  0
ARC
  5
66F1
  8
0
 10
2937.8982368505558043
 20
136.057359537047688
 30
0.0
 40
0.0790975714692053
 50
83.5040852287331461
 51
166.3618018023830132
  0
ARC
  5
66F2
  8
0
 10
2937.7578363206012
 20
136.0857259168290057
 30
0.0
 40
0.064271816251075
 50
260.7754299174616222
 51
351.3052742213453143
  0
ARC
  5
66F3
  8
0
 10
2937.6717038382530518
 20
133.3619136226818114
 30
0.0
 40
2.6614521416054862
 50
88.3673221812153855
 51
105.3820441678825972
  0
LINE
  5
66F4
  8
0
 10
2938.3402013575660021
 20
136.4916915799549031
 30
0.0
 11
2938.3402013575660021
 21
134.2054478118481882
 31
0.0
  0
LINE
  5
66F5
  8
0
 10
2938.0633599771640547
 20
136.4513416972260984
 30
0.0
 11
2938.0633599771640547
 21
134.2457976945769929
 31
0.0
  0
LINE
  5
66F6
  8
0
 10
2937.9854524760030472
 20
136.1918403474464014
 30
0.0
 11
2937.9854524760030472
 21
134.5052990443568035
 31
0.0
  0
LINE
  5
66F7
  8
0
 10
2936.9180027942661582
 20
135.9500418546014942
 30
0.0
 11
2936.9180027942661582
 21
134.7470975372015971
 31
0.0
  0
LINE
  5
66F8
  8
0
 10
2936.7480738416661552
 20
135.915319115301088
 30
0.0
 11
2936.7480738416661552
 21
134.7818202765016053
 31
0.0
  0
LINE
  5
66F9
  8
0
 10
2936.6453646071067851
 20
135.8043355182037999
 30
0.0
 11
2936.6453646071067851
 21
134.8928038735994051
 31
0.0
  0
LINE
  5
66FA
  8
0
 10
2937.8213695127069514
 20
136.0760099575338131
 30
0.0
 11
2937.8213695127069514
 21
134.6211294342693918
 31
0.0
  0
LINE
  5
66FB
  8
0
 10
2935.7636394840660614
 20
135.7719057253015933
 30
0.0
 11
2935.7636394840660614
 21
134.9252336665016117
 31
0.0
  0
LINE
  5
66FC
  8
0
 10
2936.314820483965832
 20
135.7719057528015867
 30
0.0
 11
2936.314820483965832
 21
134.9252336390015898
 31
0.0
  0
ARC
  5
66FD
  8
0
 10
2935.678127786396999
 20
135.7809119760057115
 30
0.0
 40
0.1902606960853145
 50
210.0955044149017965
 51
262.4138568533559237
  0
ARC
  5
66FE
  8
0
 10
2932.8941395235001437
 20
134.0605654868921022
 30
0.0
 40
3.082461409923372
 50
31.8135764875874614
 51
34.9145974815283111
  0
ARC
  5
66FF
  8
0
 10
2935.3518371388931882
 20
135.780457823524813
 30
0.0
 40
0.0828261075543803
 50
32.3908448556865167
 51
82.7099610891971651
  0
ARC
  5
6700
  8
0
 10
2935.3942747898058769
 20
135.7147085107629891
 30
0.0
 40
0.151312690437042
 50
102.1812282758141066
 51
151.5306822311989094
  0
ARC
  5
6701
  8
0
 10
2935.9400227523001377
 20
135.3740788464994012
 30
0.0
 40
0.7944108520987319
 50
148.6960327319314104
 51
167.8190352772076892
  0
ARC
  5
6702
  8
0
 10
2936.2110505777391154
 20
135.3228780633332065
 30
0.0
 40
1.0701639495915529
 50
168.2012460717936904
 51
178.6243569958990065
  0
LINE
  5
6703
  8
0
 10
2936.2852930055660181
 20
134.8957061603290128
 30
0.0
 11
2935.793166888865926
 21
134.8957061603290128
 31
0.0
  0
ARC
  5
6704
  8
0
 10
2936.6417405123211211
 20
134.7753164252833074
 30
0.0
 40
0.1065320468700202
 50
3.5001214220459902
 51
79.2045774499417945
  0
ARC
  5
6705
  8
0
 10
2935.724270039223029
 20
135.126970385618705
 30
0.0
 40
0.0393694448498663
 50
239.4633722836431957
 51
0.0010672808326287
  0
ARC
  5
6706
  8
0
 10
2936.354233799422218
 20
135.064910929409308
 30
0.0
 40
0.0394133502559841
 50
180.0761392444946125
 51
308.2899052849867871
  0
ARC
  5
6707
  8
0
 10
2935.7961611630680636
 20
134.9282278290511954
 30
0.0
 40
0.0326592194406174
 50
185.2602025250783129
 51
264.7396007692408944
  0
ARC
  5
6708
  8
0
 10
2936.2826275171291854
 20
134.9278991271416999
 30
0.0
 40
0.0323031258674618
 50
274.733135648137079
 51
355.2668648806857163
  0
ARC
  5
6709
  8
0
 10
2936.6639875701971505
 20
134.8996831203631075
 30
0.0
 40
0.0198529290096173
 50
200.2740246975990033
 51
263.3666925637572263
  0
ARC
  5
670A
  8
0
 10
2937.910084293266209
 20
134.482503360601612
 30
0.0
 40
0.0787401179
 50
16.8283431268893615
 51
92.1099151523988837
  0
ARC
  5
670B
  8
0
 10
2938.0033538371990289
 20
134.2287670285953993
 30
0.0
 40
0.0623761205695872
 50
15.84475800717731
 51
62.2214292565231091
  0
ARC
  5
670C
  8
0
 10
2938.1121646834030798
 20
134.262056682130094
 30
0.0
 40
0.0514417537351851
 50
198.4251771399326003
 51
267.9813708129713063
  0
ARC
  5
670D
  8
0
 10
2936.9541459935549028
 20
134.7314872322430972
 30
0.0
 40
0.0393701978114241
 50
72.868513626793856
 51
156.6404077678355975
  0
ARC
  5
670E
  8
0
 10
2935.6581876269679015
 20
135.0098173693658055
 30
0.0
 40
0.0951464551718158
 50
61.0335177613684507
 51
93.1193076554598349
  0
ARC
  5
670F
  8
0
 10
2936.4695097989788337
 20
134.9440236141074934
 30
0.0
 40
0.1278508988037908
 50
45.9146211279986787
 51
135.2856856559035066
  0
ARC
  5
6710
  8
0
 10
2936.2974515918867837
 20
134.7793742124889889
 30
0.0
 40
0.3659368171963036
 50
18.0574597609490297
 51
44.4992735437460212
  0
ARC
  5
6711
  8
0
 10
2937.3763443013858705
 20
134.7903385572543868
 30
0.0
 40
0.628328203778755
 50
180.7767858972258921
 51
195.5114546249533873
  0
ARC
  5
6712
  8
0
 10
2936.809070930235066
 20
134.6346853846796989
 30
0.0
 40
0.0401271344022102
 50
197.9719479221427889
 51
264.8275760845173181
  0
ARC
  5
6713
  8
0
 10
2936.8028872930990474
 20
134.6308426512030962
 30
0.0
 40
0.0362120309443692
 50
274.063480635802307
 51
298.3833023188104221
  0
ARC
  5
6714
  8
0
 10
2936.5879871202200775
 20
134.8588212928762005
 30
0.0
 40
0.3484143261949517
 50
311.774580755941372
 51
341.2969449897667005
  0
ARC
  5
6715
  8
0
 10
2938.0488534681790043
 20
134.3122494887379901
 30
0.0
 40
0.0327186012979763
 50
178.0201190325003893
 51
239.859204477393007
  0
ARC
  5
6716
  8
0
 10
2937.3585067997400984
 20
134.3037291582396904
 30
0.0
 40
0.657718405807472
 50
0.8407319315116986
 51
10.9211075851579107
  0
ARC
  5
6717
  8
0
 10
2937.2672485192138083
 20
134.2884966107862965
 30
0.0
 40
0.7502134487923489
 50
10.7429401695647098
 51
16.7973587719442392
  0
ARC
  5
6718
  8
0
 10
2937.8982368505558043
 20
134.6397798547554885
 30
0.0
 40
0.0790975714692053
 50
193.6381981976169868
 51
276.4959147712668823
  0
ARC
  5
6719
  8
0
 10
2937.7578363206012
 20
134.6114134749741993
 30
0.0
 40
0.064271816251075
 50
8.6947257786547212
 51
99.2245700825384489
  0
ARC
  5
671A
  8
0
 10
2937.6717038382530518
 20
137.3352257691213936
 30
0.0
 40
2.6614521416054862
 50
254.6179558321173886
 51
271.6326778187846003
  0
ARC
  5
671B
  8
0
 10
2935.678127786396999
 20
134.9162274157974082
 30
0.0
 40
0.1902606960853145
 50
97.5861431466441331
 51
149.9044955850980898
  0
ARC
  5
671C
  8
0
 10
2932.8941395235001437
 20
136.6365739049111028
 30
0.0
 40
3.082461409923372
 50
325.0854025184717102
 51
328.1864235124126026
  0
ARC
  5
671D
  8
0
 10
2935.3518371388931882
 20
134.916681568278392
 30
0.0
 40
0.0828261075543803
 50
277.2900389108028207
 51
327.6091551443134904
  0
ARC
  5
671E
  8
0
 10
2935.3942747898058769
 20
134.9824308810401021
 30
0.0
 40
0.151312690437042
 50
208.4693177688010906
 51
257.8187717241858081
  0
ARC
  5
671F
  8
0
 10
2935.9400227523001377
 20
135.3230605453038038
 30
0.0
 40
0.7944108520987319
 50
192.1809647227923108
 51
211.3039672680685044
  0
ARC
  5
6720
  8
0
 10
2936.2110505777391154
 20
135.3742613284699132
 30
0.0
 40
1.0701639495915529
 50
181.3756430041009935
 51
191.7987539282046043
  0
ARC
  5
6721
  8
0
 10
2938.1655372577679373
 20
133.0865455292075978
 30
0.0
 40
1.125455073012072
 50
84.3794391046628363
 51
92.8105181818055769
  0
LINE
  5
6722
  8
0
 10
2935.7042668543449508
 20
135.6040780873061919
 30
0.0
 11
2935.7042668543449508
 21
135.0930613044968993
 31
0.0
  0
LINE
  5
6723
  8
0
 10
2936.3786559175528055
 20
135.6631634316740076
 30
0.0
 11
2936.3786559175528055
 21
135.0339759601291121
 31
0.0
  0
LINE
  5
6724
  8
0
 10
2938.0161543992271618
 20
134.3133798694651091
 30
0.0
 11
2938.0161543992271618
 21
136.3837595223363053
 31
0.0
  0
ENDSEC
  0
EOF
