  0
SECTION
  2
HEADER
  9
$ACADVER
  1
AC1009
  9
$INSBASE
 10
5035.2838522043120975
 20
187.1537263820758028
 30
0.0
  9
$EXTMIN
 10
5031.8514230476957891
 20
185.4626080063997904
 30
0.0
  9
$EXTMAX
 10
5035.3035756415174546
 20
188.8448447577652018
 30
0.0
  9
$LIMMIN
 10
0.0
 20
0.0
  9
$LIMMAX
 10
11.6929133858000007
 20
8.2677165353999982
  9
$ORTHOMODE
 70
     1
  9
$REGENMODE
 70
     1
  9
$FILLMODE
 70
     1
  9
$QTEXTMODE
 70
     0
  9
$MIRRTEXT
 70
     0
  9
$DRAGMODE
 70
     2
  9
$LTSCALE
 40
0.6431102362
  9
$OSMODE
 70
  4095
  9
$ATTMODE
 70
     1
  9
$TEXTSIZE
 40
0.2
  9
$TRACEWID
 40
0.05
  9
$TEXTSTYLE
  7
STANDARD
  9
$CLAYER
  8
0
  9
$CELTYPE
  6
BYLAYER
  9
$CECOLOR
 62
   256
  9
$DIMSCALE
 40
1.0
  9
$DIMASZ
 40
0.1875
  9
$DIMEXO
 40
0.0625
  9
$DIMDLI
 40
0.4443307087
  9
$DIMRND
 40
0.0
  9
$DIMDLE
 40
0.0
  9
$DIMEXE
 40
0.125
  9
$DIMTP
 40
0.01
  9
$DIMTM
 40
0.01
  9
$DIMTXT
 40
2.0
  9
$DIMCEN
 40
0.1052362205
  9
$DIMTSZ
 40
0.0
  9
$DIMTOL
 70
     1
  9
$DIMLIM
 70
     0
  9
$DIMTIH
 70
     1
  9
$DIMTOH
 70
     1
  9
$DIMSE1
 70
     0
  9
$DIMSE2
 70
     0
  9
$DIMTAD
 70
     0
  9
$DIMZIN
 70
     0
  9
$DIMBLK
  1

  9
$DIMASO
 70
     1
  9
$DIMSHO
 70
     1
  9
$DIMPOST
  1
\X
  9
$DIMAPOST
  1

  9
$DIMALT
 70
     1
  9
$DIMALTD
 70
     2
  9
$DIMALTF
 40
25.3999999999999986
  9
$DIMLFAC
 40
1.0
  9
$DIMTOFL
 70
     0
  9
$DIMTVP
 40
0.0
  9
$DIMTIX
 70
     0
  9
$DIMSOXD
 70
     0
  9
$DIMSAH
 70
     0
  9
$DIMBLK1
  1

  9
$DIMBLK2
  1

  9
$DIMSTYLE
  2
STANDARD
  9
$DIMCLRD
 70
     0
  9
$DIMCLRE
 70
     0
  9
$DIMCLRT
 70
     0
  9
$DIMTFAC
 40
1.0
  9
$DIMGAP
 40
0.09
  9
$LUNITS
 70
     2
  9
$LUPREC
 70
     4
  9
$SKETCHINC
 40
0.1
  9
$FILLETRAD
 40
0.0
  9
$AUNITS
 70
     0
  9
$AUPREC
 70
     0
  9
$MENU
  1
.
  9
$ELEVATION
 40
0.0
  9
$PELEVATION
 40
0.0
  9
$THICKNESS
 40
0.0
  9
$LIMCHECK
 70
     0
  9
$BLIPMODE
 70
     0
  9
$CHAMFERA
 40
0.0
  9
$CHAMFERB
 40
0.0
  9
$SKPOLY
 70
     0
  9
$TDCREATE
 40
2458060.468368056230247
  9
$TDUPDATE
 40
2459936.4210185189731419
  9
$TDINDWG
 40
0.3849260417
  9
$TDUSRTIMER
 40
0.3849260417
  9
$USRTIMER
 70
     1
  9
$ANGBASE
 50
0.0
  9
$ANGDIR
 70
     0
  9
$PDMODE
 70
     0
  9
$PDSIZE
 40
0.3125
  9
$PLINEWID
 40
0.0
  9
$COORDS
 70
     1
  9
$SPLFRAME
 70
     0
  9
$SPLINETYPE
 70
     6
  9
$SPLINESEGS
 70
     8
  9
$ATTDIA
 70
     1
  9
$ATTREQ
 70
     1
  9
$HANDLING
 70
     1
  9
$HANDSEED
  5
FAD7
  9
$SURFTAB1
 70
     6
  9
$SURFTAB2
 70
     6
  9
$SURFTYPE
 70
     6
  9
$SURFU
 70
     6
  9
$SURFV
 70
     6
  9
$UCSNAME
  2

  9
$UCSORG
 10
0.0
 20
0.0
 30
0.0
  9
$UCSXDIR
 10
1.0
 20
0.0
 30
0.0
  9
$UCSYDIR
 10
0.0
 20
1.0
 30
0.0
  9
$PUCSNAME
  2

  9
$PUCSORG
 10
0.0
 20
0.0
 30
0.0
  9
$PUCSXDIR
 10
1.0
 20
0.0
 30
0.0
  9
$PUCSYDIR
 10
0.0
 20
1.0
 30
0.0
  9
$USERI1
 70
     0
  9
$USERI2
 70
     0
  9
$USERI3
 70
     0
  9
$USERI4
 70
     0
  9
$USERI5
 70
     0
  9
$USERR1
 40
0.0
  9
$USERR2
 40
0.0
  9
$USERR3
 40
0.0
  9
$USERR4
 40
0.0
  9
$USERR5
 40
0.0
  9
$WORLDVIEW
 70
     1
  9
$SHADEDGE
 70
     3
  9
$SHADEDIF
 70
    70
  9
$TILEMODE
 70
     1
  9
$MAXACTVP
 70
    64
  9
$PLIMCHECK
 70
     0
  9
$PEXTMIN
 10
1.0000000000000000E+20
 20
1.0000000000000000E+20
 30
1.0000000000000000E+20
  9
$PEXTMAX
 10
-1.0000000000000000E+20
 20
-1.0000000000000000E+20
 30
-1.0000000000000000E+20
  9
$PLIMMIN
 10
0.0
 20
0.0
  9
$PLIMMAX
 10
12.0
 20
9.0
  9
$UNITMODE
 70
     0
  9
$VISRETAIN
 70
     1
  9
$PLINEGEN
 70
     0
  9
$PSLTSCALE
 70
     1
  0
ENDSEC
  0
SECTION
  2
TABLES
  0
TABLE
  2
VPORT
 70
     1
  0
VPORT
  2
*ACTIVE
 70
     0
 10
0.0
 20
0.0
 11
1.0
 21
1.0
 12
0.0
 22
0.0
 13
0.0
 23
0.0
 14
1.0
 24
1.0
 15
0.0
 25
0.0
 16
0.0
 26
0.0
 36
13.8818132308561495
 17
5033.5785456334169794
 27
187.1537246704100994
 37
0.0
 40
4.8312383211708259
 41
2.156179775280898
 42
50.0
 43
0.0
 44
0.0
 50
0.0
 51
0.0
 71
     0
 72
   100
 73
     1
 74
     1
 75
     0
 76
     0
 77
     0
 78
     0
  0
ENDTAB
  0
TABLE
  2
LTYPE
 70
     2
  0
LTYPE
  2
CONTINUOUS
 70
     0
  3
Solid line
 72
    65
 73
     0
 40
0.0
  0
LTYPE
  2
PHANTOM2
 70
     0
  3
___ _ _ ___ _ _ ___ _ _ ___ _ _
 72
    65
 73
     6
 40
1.25
 49
0.625
 49
-0.125
 49
0.125
 49
-0.125
 49
0.125
 49
-0.125
  0
ENDTAB
  0
TABLE
  2
LAYER
 70
     2
  0
LAYER
  2
0
 70
     0
 62
   255
  6
CONTINUOUS
  0
LAYER
  2
DEFPOINTS
 70
     0
 62
     7
  6
CONTINUOUS
  0
ENDTAB
  0
TABLE
  2
STYLE
 70
     1
  0
STYLE
  2
STANDARD
 70
     0
 40
0.0
 41
0.8
 50
0.0
 71
     0
 42
0.2
  3
txt
  4

  0
ENDTAB
  0
TABLE
  2
VIEW
 70
     0
  0
ENDTAB
  0
TABLE
  2
UCS
 70
     0
  0
ENDTAB
  0
TABLE
  2
APPID
 70
     9
  0
APPID
  2
ACAD
 70
     0
  0
APPID
  2
ACAD_MLEADERVER
 70
     0
  0
APPID
  2
ACAD_EXEMPT_FROM_CAD_STANDARDS
 70
     0
  0
APPID
  2
ACAD_NAV_VCDISPLAY
 70
     0
  0
APPID
  2
ACAECLAYERSTANDARD
 70
     0
  0
APPID
  2
ACCMTRANSPARENCY
 70
     0
  0
APPID
  2
ACAD_DSTYLE_DIMJAG
 70
     0
  0
APPID
  2
ACAD_DSTYLE_DIMTALN
 70
     0
  0
APPID
  2
ACDBATTR
 70
     0
  0
ENDTAB
  0
TABLE
  2
DIMSTYLE
 70
     1
  0
DIMSTYLE
  2
STANDARD
 70
     0
  3

  4

  5

  6

  7

 40
1.0
 41
0.1875
 42
0.0625
 43
0.38
 44
0.125
 45
0.0
 46
0.0
 47
0.01
 48
0.01
140
0.15625
141
0.09
142
0.0
143
25.3999999999999986
144
1.0
145
0.0
146
1.0
147
0.09
 71
     1
 72
     0
 73
     1
 74
     1
 75
     0
 76
     0
 77
     0
 78
     4
170
     0
171
     2
172
     0
173
     0
174
     0
175
     0
176
     0
177
     0
178
     0
  0
ENDTAB
  0
ENDSEC
  0
SECTION
  2
BLOCKS
  0
BLOCK
  8
0
  2
$MODEL_SPACE
 70
     0
 10
0.0
 20
0.0
 30
0.0
  3
$MODEL_SPACE
  1

  0
ENDBLK
  5
21
  8
0
  0
BLOCK
 67
     1
  8
0
  2
$PAPER_SPACE
 70
     0
 10
0.0
 20
0.0
 30
0.0
  3
$PAPER_SPACE
  1

  0
ENDBLK
  5
1D
 67
     1
  8
0
  0
ENDSEC
  0
SECTION
  2
ENTITIES
  0
ATTDEF
  5
3930
  8
DEFPOINTS
 10
5035.2929089748477054
 20
187.1546426409817911
 30
0.0
 40
0.001
  1
K-26498
  3

  2
MODELNUMBER
 70
     0
1001
ACDBATTR
1070
     0
1070
     1
  0
ATTDEF
  5
3931
  8
DEFPOINTS
 10
5035.2929089748477054
 20
187.1529759743152113
 30
0.0
 40
0.001
  1
ECLECTIC
  3

  2
TRADENAME
 70
     0
1001
ACDBATTR
1070
     0
1070
     1
  0
ATTDEF
  5
3932
  8
DEFPOINTS
 10
5035.2929089748477054
 20
187.1513093076484893
 30
0.0
 40
0.001
  1
TOWEL BAR
  3

  2
PRODUCT
 70
     0
1001
ACDBATTR
1070
     0
1070
     1
  0
CIRCLE
  5
F9CB
  8
0
 10
5032.2773738493124256
 20
187.1537263820825103
 30
0.0
 40
0.3579984211
  0
CIRCLE
  5
F9CC
  8
0
 10
5032.2773738493124256
 20
187.1537263820825103
 30
0.0
 40
0.3327100996
  0
LINE
  5
F9CD
  8
0
 10
5033.8498016219373312
 20
187.6887755145357062
 30
0.0
 11
5033.8498016219373312
 21
186.6186772496068897
 31
0.0
  0
LINE
  5
F9CE
  8
0
 10
5034.1892167044370581
 20
187.6887755145357062
 30
0.0
 11
5034.1892167044370581
 21
186.6186772496066055
 31
0.0
  0
LINE
  5
F9CF
  8
0
 10
5034.3289476154377553
 20
186.6601522471293038
 30
0.0
 11
5034.3289476154377553
 21
187.6473005170358874
 31
0.0
  0
LINE
  5
F9D0
  8
0
 10
5035.1583417566380376
 20
185.5107979115292949
 30
0.0
 11
5035.1583417566380376
 21
188.796654852635811
 31
0.0
  0
LINE
  5
F9D1
  8
0
 10
5033.8998016219384226
 20
187.7385873067825059
 30
0.0
 11
5034.1392167044377857
 21
187.7385873067825059
 31
0.0
  0
LINE
  5
F9D2
  8
0
 10
5034.2089017438383962
 20
187.5177263845357061
 30
0.0
 11
5034.2589500418371244
 21
187.5177263845357061
 31
0.0
  0
LINE
  5
F9D3
  8
0
 10
5032.5168278831069983
 20
187.5059987924356903
 30
0.0
 11
5033.6442153406378566
 21
187.5059987924356903
 31
0.0
  0
ARC
  5
F9D4
  8
0
 10
5034.2589500418371244
 20
187.5877263845358129
 30
0.0
 40
0.07
 50
270.0
 51
359.5229460346006931
  0
ARC
  5
F9D5
  8
0
 10
5035.2190025810377847
 20
188.7799951338652988
 30
0.0
 40
0.0648496239
 50
359.9920383212995034
 51
151.6186804220020861
  0
ARC
  5
F9D6
  8
0
 10
5033.8994817871907799
 20
187.6889079944255911
 30
0.0
 40
0.0496803418921445
 50
89.6311356362321163
 51
180.1527877247243055
  0
ARC
  5
F9D7
  8
0
 10
5034.1395365391854284
 20
187.6889079944255911
 30
0.0
 40
0.0496803418921339
 50
359.8472122760670118
 51
90.3688643637678837
  0
ARC
  5
F9D8
  8
0
 10
5035.1876136930513894
 20
188.7967454774855867
 30
0.0
 40
0.0292720766993763
 50
151.2598963710287876
 51
180.177385081495288
  0
ARC
  5
F9D9
  8
0
 10
5035.1769087353368377
 20
188.6918310671358086
 30
0.0
 40
0.03
 50
128.2357992778499067
 51
162.4126362432982091
  0
ARC
  5
F9DA
  8
0
 10
5034.2092449894444144
 20
187.4976980995288045
 30
0.0
 40
0.0200312260699855
 50
90.9818414064231007
 51
179.0181585935557962
  0
ARC
  5
F9DB
  8
0
 10
5033.8301358834369239
 20
187.6375053647358015
 30
0.0
 40
0.0196846077
 50
273.5827603629082887
 51
358.903668508599992
  0
ARC
  5
F9DC
  8
0
 10
5034.4182458149261947
 20
187.6448882527315902
 30
0.0
 40
0.0893307754974159
 50
113.3111263361082024
 51
178.4526120375323046
  0
ARC
  5
F9DD
  8
0
 10
5034.7199319679475593
 20
186.8956838154010995
 30
0.0
 40
0.8969719488799881
 50
104.0358226241492048
 51
112.0706240995822043
  0
ARC
  5
F9DE
  8
0
 10
5035.0434035152256911
 20
188.736995115500406
 30
0.0
 40
0.1109447613008682
 50
296.9633879462456889
 51
341.0113728429325874
  0
ARC
  5
F9DF
  8
0
 10
5037.8227585066324536
 20
183.5288639265604047
 30
0.0
 40
5.7924187974613632
 50
118.1084352354747011
 51
119.0970810837058025
  0
ARC
  5
F9E0
  8
0
 10
5035.1167573468301271
 20
188.4155992409939131
 30
0.0
 40
0.2068418949435647
 50
122.3894242214840062
 51
163.1272686776827072
  0
ARC
  5
F9E1
  8
0
 10
5032.679756550908678
 20
188.969253239753499
 30
0.0
 40
2.2928285888244111
 50
335.6566588755836733
 51
347.5675675782484859
  0
ARC
  5
F9E2
  8
0
 10
5034.3223425153237258
 20
188.2180251936707975
 30
0.0
 40
0.486678769401417
 50
291.7127087206750957
 51
336.522900070912101
  0
LINE
  5
F9E3
  8
0
 10
5033.8998016219384226
 20
187.4130998411357893
 30
0.0
 11
5034.1392167044377857
 21
187.4130998411357893
 31
0.0
  0
ARC
  5
F9E4
  8
0
 10
5033.8998016219384226
 20
187.3630998411356927
 30
0.0
 40
0.05
 50
90.0000000001042082
 51
179.9999999768988914
  0
ARC
  5
F9E5
  8
0
 10
5034.1392167044377857
 20
187.3630998411356927
 30
0.0
 40
0.05
 50
0.0000000238990441
 51
89.9999999998957776
  0
ARC
  5
F9E6
  8
0
 10
5033.8312370022531468
 20
187.5514597573420019
 30
0.0
 40
0.0663995970239987
 50
89.8887067849058354
 51
151.7788759765869884
  0
ARC
  5
F9E7
  8
0
 10
5033.59148164988801
 20
187.6704067192540037
 30
0.0
 40
0.2012853477341238
 50
317.2527550818970781
 51
334.2181573140285877
  0
ARC
  5
F9E8
  8
0
 10
5033.6413965412957623
 20
187.6922378692298992
 30
0.0
 40
0.1862604073733264
 50
270.8671272299125121
 51
301.7092114277936048
  0
LINE
  5
F9E9
  8
0
 10
5035.2838522043120975
 20
188.7799861225232121
 30
0.0
 11
5035.2838522043120975
 21
185.5274666416283083
 31
0.0
  0
CIRCLE
  5
F9EA
  8
0
 10
5032.2773738493124256
 20
187.1537263820825103
 30
0.0
 40
0.3908015262062956
  0
CIRCLE
  5
F9EB
  8
0
 10
5032.2773738493124256
 20
187.1537263820825103
 30
0.0
 40
0.4259508016157563
  0
LINE
  5
F9EC
  8
0
 10
5033.8998016219384226
 20
186.5688654573824863
 30
0.0
 11
5034.1392167044377857
 21
186.5688654573824863
 31
0.0
  0
LINE
  5
F9ED
  8
0
 10
5034.2089017438383962
 20
186.7897263796292862
 30
0.0
 11
5034.2589500418371244
 21
186.7897263796292862
 31
0.0
  0
LINE
  5
F9EE
  8
0
 10
5032.5168278831069983
 20
186.8014539717293019
 30
0.0
 11
5033.6442153406378566
 21
186.8014539717293019
 31
0.0
  0
ARC
  5
F9EF
  8
0
 10
5034.2589500418371244
 20
186.719726379629293
 30
0.0
 40
0.07
 50
0.4770539654009126
 51
90.0
  0
ARC
  5
F9F0
  8
0
 10
5035.2190025810377847
 20
185.5274576302998071
 30
0.0
 40
0.0648496239
 50
208.3813195779979139
 51
0.007961678700523
  0
ARC
  5
F9F1
  8
0
 10
5033.8994817871907799
 20
186.6185447697394864
 30
0.0
 40
0.0496803418921445
 50
179.8472122752756093
 51
270.3688643637678979
  0
ARC
  5
F9F2
  8
0
 10
5034.1395365391854284
 20
186.6185447697394864
 30
0.0
 40
0.0496803418921339
 50
269.6311356362321021
 51
0.1527877239329563
  0
ARC
  5
F9F3
  8
0
 10
5035.1876136930513894
 20
185.5107072866794908
 30
0.0
 40
0.0292720766993763
 50
179.8226149185045983
 51
208.7401036289712124
  0
ARC
  5
F9F4
  8
0
 10
5035.1769087353368377
 20
185.6156216970292974
 30
0.0
 40
0.03
 50
197.5873637567017909
 51
231.7642007221490132
  0
ARC
  5
F9F5
  8
0
 10
5034.2092449894444144
 20
186.8097546646363014
 30
0.0
 40
0.0200312260699855
 50
180.9818414064442038
 51
269.0181585935769135
  0
ARC
  5
F9F6
  8
0
 10
5033.8301358834369239
 20
186.6699473994293044
 30
0.0
 40
0.0196846077
 50
1.096331491399902
 51
86.4172396370917113
  0
ARC
  5
F9F7
  8
0
 10
5034.4182458149261947
 20
186.6625645114334873
 30
0.0
 40
0.0893307754974159
 50
181.5473879624676101
 51
246.6888736638919113
  0
ARC
  5
F9F8
  8
0
 10
5034.7199319679475593
 20
187.4117689487638927
 30
0.0
 40
0.8969719488799881
 50
247.9293759004177957
 51
255.96417737585071
  0
ARC
  5
F9F9
  8
0
 10
5035.0434035152256911
 20
185.5704576486646999
 30
0.0
 40
0.1109447613008682
 50
18.988627157067441
 51
63.0366120537542827
  0
ARC
  5
F9FA
  8
0
 10
5037.8227585066324536
 20
190.7785888376047012
 30
0.0
 40
5.7924187974613632
 50
240.9029189162941975
 51
241.8915647645252989
  0
ARC
  5
F9FB
  8
0
 10
5035.1167573468301271
 20
185.8918535231711928
 30
0.0
 40
0.2068418949435647
 50
196.8727313223172075
 51
237.6105757785159938
  0
ARC
  5
F9FC
  8
0
 10
5032.679756550908678
 20
185.3381995244116069
 30
0.0
 40
2.2928285888244111
 50
12.4324324217514803
 51
24.3433411244162414
  0
ARC
  5
F9FD
  8
0
 10
5034.3223425153237258
 20
186.0894275704941947
 30
0.0
 40
0.486678769401417
 50
23.4770999290878386
 51
68.2872912793248616
  0
LINE
  5
F9FE
  8
0
 10
5033.8998016219384226
 20
186.8943529230292881
 30
0.0
 11
5034.1392167044377857
 21
186.8943529230292881
 31
0.0
  0
ARC
  5
F9FF
  8
0
 10
5033.8998016219384226
 20
186.9443529230292995
 30
0.0
 40
0.05
 50
180.0000000230994033
 51
269.999999999895806
  0
ARC
  5
FA00
  8
0
 10
5034.1392167044377857
 20
186.9443529230292995
 30
0.0
 40
0.05
 50
270.000000000104194
 51
359.999999976099275
  0
ARC
  5
FA01
  8
0
 10
5033.8312370022531468
 20
186.7559930068229903
 30
0.0
 40
0.0663995970239987
 50
208.2211240234130116
 51
270.1112932150941788
  0
ARC
  5
FA02
  8
0
 10
5033.59148164988801
 20
186.6370460449109885
 30
0.0
 40
0.2012853477341238
 50
25.7818426859714513
 51
42.7472449181029432
  0
ARC
  5
FA03
  8
0
 10
5033.6413965412957623
 20
186.6152148949350931
 30
0.0
 40
0.1862604073733264
 50
58.290788572206381
 51
89.132872770087431
  0
LINE
  5
FA4F
  8
0
 10
5034.9188196171371601
 20
188.4756344362336904
 30
0.0
 11
5034.9188196171371601
 21
185.8318183279313871
 31
0.0
  0
LINE
  5
FA50
  8
0
 10
5033.772730380414032
 20
187.5828585102777879
 30
0.0
 11
5033.772730380414032
 21
186.7245942538872043
 31
0.0
  0
ENDSEC
  0
EOF
