  0
SECTION
  2
HEADER
  9
$ACADVER
  1
AC1009
  9
$INSBASE
 10
2816.6721252128218111
 20
162.474557247681588
 30
0.0
  9
$EXTMIN
 10
2815.5171541843192244
 20
161.3195862191788876
 30
0.0
  9
$EXTMAX
 10
2817.8270962413248526
 20
163.6295282761849137
 30
0.0
  9
$LIMMIN
 10
0.0
 20
0.0
  9
$LIMMAX
 10
11.6929133858000007
 20
8.2677165353999982
  9
$ORTHOMODE
 70
     1
  9
$REGENMODE
 70
     1
  9
$FILLMODE
 70
     1
  9
$QTEXTMODE
 70
     0
  9
$MIRRTEXT
 70
     0
  9
$DRAGMODE
 70
     2
  9
$LTSCALE
 40
0.6431102362
  9
$OSMODE
 70
  4095
  9
$ATTMODE
 70
     1
  9
$TEXTSIZE
 40
0.2
  9
$TRACEWID
 40
0.05
  9
$TEXTSTYLE
  7
STANDARD
  9
$CLAYER
  8
0
  9
$CELTYPE
  6
BYLAYER
  9
$CECOLOR
 62
   256
  9
$DIMSCALE
 40
1.0
  9
$DIMASZ
 40
0.1875
  9
$DIMEXO
 40
0.0625
  9
$DIMDLI
 40
0.4443307087
  9
$DIMRND
 40
0.0
  9
$DIMDLE
 40
0.0
  9
$DIMEXE
 40
0.125
  9
$DIMTP
 40
0.01
  9
$DIMTM
 40
0.01
  9
$DIMTXT
 40
2.0
  9
$DIMCEN
 40
0.1052362205
  9
$DIMTSZ
 40
0.0
  9
$DIMTOL
 70
     1
  9
$DIMLIM
 70
     0
  9
$DIMTIH
 70
     1
  9
$DIMTOH
 70
     1
  9
$DIMSE1
 70
     0
  9
$DIMSE2
 70
     0
  9
$DIMTAD
 70
     0
  9
$DIMZIN
 70
     0
  9
$DIMBLK
  1

  9
$DIMASO
 70
     1
  9
$DIMSHO
 70
     1
  9
$DIMPOST
  1
\X
  9
$DIMAPOST
  1

  9
$DIMALT
 70
     1
  9
$DIMALTD
 70
     2
  9
$DIMALTF
 40
25.3999999999999986
  9
$DIMLFAC
 40
1.0
  9
$DIMTOFL
 70
     0
  9
$DIMTVP
 40
0.0
  9
$DIMTIX
 70
     0
  9
$DIMSOXD
 70
     0
  9
$DIMSAH
 70
     0
  9
$DIMBLK1
  1

  9
$DIMBLK2
  1

  9
$DIMSTYLE
  2
STANDARD
  9
$DIMCLRD
 70
     0
  9
$DIMCLRE
 70
     0
  9
$DIMCLRT
 70
     0
  9
$DIMTFAC
 40
1.0
  9
$DIMGAP
 40
0.09
  9
$LUNITS
 70
     2
  9
$LUPREC
 70
     4
  9
$SKETCHINC
 40
0.1
  9
$FILLETRAD
 40
0.0
  9
$AUNITS
 70
     0
  9
$AUPREC
 70
     0
  9
$MENU
  1
.
  9
$ELEVATION
 40
0.0
  9
$PELEVATION
 40
0.0
  9
$THICKNESS
 40
0.0
  9
$LIMCHECK
 70
     0
  9
$BLIPMODE
 70
     0
  9
$CHAMFERA
 40
0.0
  9
$CHAMFERB
 40
0.0
  9
$SKPOLY
 70
     0
  9
$TDCREATE
 40
2458060.468368056230247
  9
$TDUPDATE
 40
2458731.8944444442167878
  9
$TDINDWG
 40
0.2857478009
  9
$TDUSRTIMER
 40
0.2857478009
  9
$USRTIMER
 70
     1
  9
$ANGBASE
 50
0.0
  9
$ANGDIR
 70
     0
  9
$PDMODE
 70
     0
  9
$PDSIZE
 40
0.3125
  9
$PLINEWID
 40
0.0
  9
$COORDS
 70
     1
  9
$SPLFRAME
 70
     0
  9
$SPLINETYPE
 70
     6
  9
$SPLINESEGS
 70
     8
  9
$ATTDIA
 70
     1
  9
$ATTREQ
 70
     1
  9
$HANDLING
 70
     1
  9
$HANDSEED
  5
6366
  9
$SURFTAB1
 70
     6
  9
$SURFTAB2
 70
     6
  9
$SURFTYPE
 70
     6
  9
$SURFU
 70
     6
  9
$SURFV
 70
     6
  9
$UCSNAME
  2

  9
$UCSORG
 10
0.0
 20
0.0
 30
0.0
  9
$UCSXDIR
 10
1.0
 20
0.0
 30
0.0
  9
$UCSYDIR
 10
0.0
 20
1.0
 30
0.0
  9
$PUCSNAME
  2

  9
$PUCSORG
 10
0.0
 20
0.0
 30
0.0
  9
$PUCSXDIR
 10
1.0
 20
0.0
 30
0.0
  9
$PUCSYDIR
 10
0.0
 20
1.0
 30
0.0
  9
$USERI1
 70
     0
  9
$USERI2
 70
     0
  9
$USERI3
 70
     0
  9
$USERI4
 70
     0
  9
$USERI5
 70
     0
  9
$USERR1
 40
0.0
  9
$USERR2
 40
0.0
  9
$USERR3
 40
0.0
  9
$USERR4
 40
0.0
  9
$USERR5
 40
0.0
  9
$WORLDVIEW
 70
     1
  9
$SHADEDGE
 70
     3
  9
$SHADEDIF
 70
    70
  9
$TILEMODE
 70
     1
  9
$MAXACTVP
 70
    64
  9
$PLIMCHECK
 70
     0
  9
$PEXTMIN
 10
1.0000000000000000E+20
 20
1.0000000000000000E+20
 30
1.0000000000000000E+20
  9
$PEXTMAX
 10
-1.0000000000000000E+20
 20
-1.0000000000000000E+20
 30
-1.0000000000000000E+20
  9
$PLIMMIN
 10
0.0
 20
0.0
  9
$PLIMMAX
 10
12.0
 20
9.0
  9
$UNITMODE
 70
     0
  9
$VISRETAIN
 70
     1
  9
$PLINEGEN
 70
     0
  9
$PSLTSCALE
 70
     1
  0
ENDSEC
  0
SECTION
  2
TABLES
  0
TABLE
  2
VPORT
 70
     1
  0
VPORT
  2
*ACTIVE
 70
     0
 10
0.0
 20
0.0
 11
1.0
 21
1.0
 12
0.0
 22
0.0
 13
0.0
 23
0.0
 14
1.0
 24
1.0
 15
0.0
 25
0.0
 16
0.0
 26
0.0
 36
9.3318135071909722
 17
2816.673828125
 27
162.474555969238196
 37
0.0
 40
3.2632563437803408
 41
2.1433408577878099
 42
50.0
 43
0.0
 44
0.0
 50
0.0
 51
0.0
 71
     0
 72
   100
 73
     1
 74
     1
 75
     0
 76
     0
 77
     0
 78
     0
  0
ENDTAB
  0
TABLE
  2
LTYPE
 70
     2
  0
LTYPE
  2
CONTINUOUS
 70
     0
  3
Solid line
 72
    65
 73
     0
 40
0.0
  0
LTYPE
  2
PHANTOM2
 70
     0
  3
___ _ _ ___ _ _ ___ _ _ ___ _ _
 72
    65
 73
     6
 40
1.25
 49
0.625
 49
-0.125
 49
0.125
 49
-0.125
 49
0.125
 49
-0.125
  0
ENDTAB
  0
TABLE
  2
LAYER
 70
     2
  0
LAYER
  2
0
 70
     0
 62
   255
  6
CONTINUOUS
  0
LAYER
  2
DEFPOINTS
 70
     0
 62
     7
  6
CONTINUOUS
  0
ENDTAB
  0
TABLE
  2
STYLE
 70
     1
  0
STYLE
  2
STANDARD
 70
     0
 40
0.0
 41
0.8
 50
0.0
 71
     0
 42
0.2
  3
txt
  4

  0
ENDTAB
  0
TABLE
  2
VIEW
 70
     0
  0
ENDTAB
  0
TABLE
  2
UCS
 70
     0
  0
ENDTAB
  0
TABLE
  2
APPID
 70
     9
  0
APPID
  2
ACAD
 70
     0
  0
APPID
  2
ACAD_MLEADERVER
 70
     0
  0
APPID
  2
ACAD_EXEMPT_FROM_CAD_STANDARDS
 70
     0
  0
APPID
  2
ACAD_NAV_VCDISPLAY
 70
     0
  0
APPID
  2
ACAECLAYERSTANDARD
 70
     0
  0
APPID
  2
ACCMTRANSPARENCY
 70
     0
  0
APPID
  2
ACAD_DSTYLE_DIMJAG
 70
     0
  0
APPID
  2
ACAD_DSTYLE_DIMTALN
 70
     0
  0
APPID
  2
ACDBATTR
 70
     0
  0
ENDTAB
  0
TABLE
  2
DIMSTYLE
 70
     1
  0
DIMSTYLE
  2
STANDARD
 70
     0
  3

  4

  5

  6

  7

 40
1.0
 41
0.1875
 42
0.0625
 43
0.38
 44
0.125
 45
0.0
 46
0.0
 47
0.01
 48
0.01
140
0.15625
141
0.09
142
0.0
143
25.3999999999999986
144
1.0
145
0.0
146
1.0
147
0.09
 71
     1
 72
     0
 73
     1
 74
     1
 75
     0
 76
     0
 77
     0
 78
     4
170
     0
171
     2
172
     0
173
     0
174
     0
175
     0
176
     0
177
     0
178
     0
  0
ENDTAB
  0
ENDSEC
  0
SECTION
  2
BLOCKS
  0
BLOCK
  8
0
  2
$MODEL_SPACE
 70
     0
 10
0.0
 20
0.0
 30
0.0
  3
$MODEL_SPACE
  1

  0
ENDBLK
  5
21
  8
0
  0
BLOCK
 67
     1
  8
0
  2
$PAPER_SPACE
 70
     0
 10
0.0
 20
0.0
 30
0.0
  3
$PAPER_SPACE
  1

  0
ENDBLK
  5
1D
 67
     1
  8
0
  0
ENDSEC
  0
SECTION
  2
ENTITIES
  0
ATTDEF
  5
3930
  8
DEFPOINTS
 10
2816.6668832906980242
 20
162.4728580169895054
 30
0.0
 40
0.001
  1
K-26500
  3

  2
MODELNUMBER
 70
     0
1001
ACDBATTR
1070
     0
1070
     1
  0
ATTDEF
  5
3931
  8
DEFPOINTS
 10
2816.6668832906980242
 20
162.4711913503228118
 30
0.0
 40
0.001
  1
ECLECTIC
  3

  2
TRADENAME
 70
     0
1001
ACDBATTR
1070
     0
1070
     1
  0
ATTDEF
  5
3932
  8
DEFPOINTS
 10
2816.6668832906980242
 20
162.4695246836562035
 30
0.0
 40
0.001
  1
ROBE HOOK
  3

  2
PRODUCT
 70
     0
1001
ACDBATTR
1070
     0
1070
     1
  0
LINE
  5
61DF
  8
0
 10
2816.339845352571956
 20
163.2582846764819067
 30
0.0
 11
2816.339845352571956
 21
163.2928167589818997
 31
0.0
  0
LINE
  5
61E0
  8
0
 10
2816.4286058401721675
 20
162.326636911881792
 30
0.0
 11
2816.4286058401721675
 21
161.7763863927818875
 31
0.0
  0
CIRCLE
  5
61E1
  8
0
 10
2816.6721252128218111
 20
162.4745572476819007
 30
0.0
 40
1.0791976363999991
  0
CIRCLE
  5
61E2
  8
0
 10
2816.6721252128218111
 20
162.4745572476819007
 30
0.0
 40
1.0216391451999991
  0
ARC
  5
61E3
  8
0
 10
2816.6721305060718805
 20
162.4745572476819007
 30
0.0
 40
0.5732100224000001
 50
124.0521056109974012
 51
244.8592295641466023
  0
ARC
  5
61E4
  8
0
 10
2816.3398453525801415
 20
163.3389179507059055
 30
0.0
 40
0.0304592368232398
 50
89.9968072851784058
 51
246.9088354108037038
  0
ARC
  5
61E5
  8
0
 10
2816.3201870336720276
 20
163.2928167589818997
 30
0.0
 40
0.0196583189
 50
0.0
 51
66.9010704449891023
  0
ARC
  5
61E6
  8
0
 10
2816.3201870334351042
 20
163.2582846765529041
 30
0.0
 40
0.0196583191377352
 50
293.4245826471669147
 51
359.9999997928879907
  0
ARC
  5
61E7
  8
0
 10
2816.2880735348408052
 20
163.1012047382897094
 30
0.0
 40
0.0233547372560579
 50
4.7612486657494202
 51
51.4855876172611389
  0
CIRCLE
  5
61E8
  8
0
 10
2816.6721252128218111
 20
162.4745572476819007
 30
0.0
 40
1.1549710285029839
  0
ARC
  5
61E9
  8
0
 10
2816.6874387038778877
 20
161.782743880909095
 30
0.0
 40
0.2589109286786462
 50
181.4070238505746033
 51
222.5645021201665941
  0
ARC
  5
61EA
  8
0
 10
2816.6722451566838572
 20
161.7766754410974102
 30
0.0
 40
0.2436850376426367
 50
223.930153642886097
 51
254.6611498513346135
  0
ARC
  5
61EB
  8
0
 10
2816.6726737669209797
 20
161.7772519819855006
 30
0.0
 40
0.2443545593480278
 50
254.5999905189781032
 51
269.8713759989450978
  0
ARC
  5
61EC
  8
0
 10
2813.8895008253348351
 20
162.3586817873699033
 30
0.0
 40
2.5393072185965821
 50
359.2769347313296748
 51
8.6021397554731553
  0
ARC
  5
61ED
  8
0
 10
2814.9429156017081368
 20
162.510692023950412
 30
0.0
 40
1.4750238777488509
 50
8.8842023298721493
 51
17.3061489038685998
  0
ARC
  5
61EE
  8
0
 10
2818.3981573871019464
 20
163.6370765347853933
 30
0.0
 40
2.1593923822808199
 50
195.3958145263536892
 51
198.5675292329414958
  0
ARC
  5
61EF
  8
0
 10
2816.4912163901708482
 20
163.1055898527087038
 30
0.0
 40
0.1798853484726048
 50
180.7792913435806952
 51
193.4370153828533034
  0
ARC
  5
61F0
  8
0
 10
2816.3469017195889137
 20
163.1732219414610938
 30
0.0
 40
0.0696382907682396
 50
105.7474672792017003
 51
230.511171766188113
  0
ARC
  5
61F1
  8
0
 10
2816.3385373988039646
 20
163.3941455166983019
 30
0.0
 40
0.0248029296272123
 50
273.0267549909052036
 51
2.70216206298169
  0
ARC
  5
61F2
  8
0
 10
2816.4150457276077759
 20
163.3868883790717916
 30
0.0
 40
0.0524147502451986
 50
116.4023849303761011
 51
170.7487052119940074
  0
ARC
  5
61F3
  8
0
 10
2816.5685159969248161
 20
163.1068373702896963
 30
0.0
 40
0.3717235432803805
 50
97.4343751735092241
 51
118.3959610124108934
  0
ARC
  5
61F4
  8
0
 10
2816.6880724380848733
 20
162.3106383273610902
 30
0.0
 40
1.17680146756808
 50
90.7764577928875553
 51
98.1905560663271615
  0
ARC
  5
61F5
  8
0
 10
2816.6733348449470213
 20
161.582543209070792
 30
0.0
 40
0.0953140119795027
 50
247.4845316405105109
 51
269.272838540388193
  0
ARC
  5
61F6
  8
0
 10
2816.6573497297381437
 20
161.545942736353112
 30
0.0
 40
0.0553872350004944
 50
217.5258618419759102
 51
248.2615843008084937
  0
ARC
  5
61F7
  8
0
 10
2816.6460279999951126
 20
161.5337179738473878
 30
0.0
 40
0.0390622774683728
 50
168.2526957745666891
 51
213.4169545868792
  0
LINE
  5
61F8
  8
0
 10
2817.0044050730730305
 20
163.2582846764819067
 30
0.0
 11
2817.0044050730730305
 21
163.2928167589818997
 31
0.0
  0
LINE
  5
61F9
  8
0
 10
2816.9156445854719095
 20
162.326636911881792
 30
0.0
 11
2816.9156445854719095
 21
161.7763863927818875
 31
0.0
  0
ARC
  5
61FA
  8
0
 10
2816.672119919573106
 20
162.4745572476819007
 30
0.0
 40
0.5732100224000001
 50
295.1407704358534261
 51
55.9478943890025135
  0
ARC
  5
61FB
  8
0
 10
2817.0044050730639356
 20
163.3389179507059055
 30
0.0
 40
0.0304592368232398
 50
293.0911645891962962
 51
90.0031927148215942
  0
ARC
  5
61FC
  8
0
 10
2817.0240633919720494
 20
163.2928167589818997
 30
0.0
 40
0.0196583189
 50
113.0989295550108977
 51
180.0
  0
ARC
  5
61FD
  8
0
 10
2817.0240633922098823
 20
163.2582846765529041
 30
0.0
 40
0.0196583191377352
 50
180.0000002071120093
 51
246.5754173528331137
  0
ARC
  5
61FE
  8
0
 10
2817.0561768908028171
 20
163.1012047382897094
 30
0.0
 40
0.0233547372560579
 50
128.5144123827388114
 51
175.238751334250594
  0
ARC
  5
61FF
  8
0
 10
2816.6568117217670988
 20
161.782743880909095
 30
0.0
 40
0.2589109286786462
 50
317.4354978798334059
 51
358.5929761494253967
  0
ARC
  5
6200
  8
0
 10
2816.6720052689602198
 20
161.7766754410974102
 30
0.0
 40
0.2436850376426367
 50
285.338850148665415
 51
316.0698463571138745
  0
ARC
  5
6201
  8
0
 10
2816.6715766587230974
 20
161.7772519819855006
 30
0.0
 40
0.2443545593480258
 50
270.1286240010547886
 51
285.4000094810219821
  0
ARC
  5
6202
  8
0
 10
2819.4547496003087872
 20
162.3586817873699033
 30
0.0
 40
2.5393072185965821
 50
171.3978602445268109
 51
180.7230652686702967
  0
ARC
  5
6203
  8
0
 10
2818.4013348239359402
 20
162.510692023950412
 30
0.0
 40
1.4750238777488509
 50
162.6938510961313966
 51
171.1157976701277903
  0
ARC
  5
6204
  8
0
 10
2814.9460930385421307
 20
163.6370765347853933
 30
0.0
 40
2.1593923822808199
 50
341.4324707670568841
 51
344.6041854736462824
  0
ARC
  5
6205
  8
0
 10
2816.8530340354727741
 20
163.1055898527087038
 30
0.0
 40
0.1798853484726048
 50
346.5629846171466966
 51
359.2207086564192764
  0
ARC
  5
6206
  8
0
 10
2816.9973487060551633
 20
163.1732219414610938
 30
0.0
 40
0.0696382907682396
 50
309.4888282338120007
 51
74.2525327207983139
  0
ARC
  5
6207
  8
0
 10
2817.0057130268401124
 20
163.3941455166983019
 30
0.0
 40
0.0248029296272123
 50
177.2978379370183006
 51
266.9732450090947964
  0
ARC
  5
6208
  8
0
 10
2816.9292046980358464
 20
163.3868883790717916
 30
0.0
 40
0.0524147502451986
 50
9.2512947880059961
 51
63.5976150696238918
  0
ARC
  5
6209
  8
0
 10
2816.7757344287201704
 20
163.1068373702896963
 30
0.0
 40
0.3717235432803805
 50
61.604038987589071
 51
82.5656248264907759
  0
ARC
  5
620A
  8
0
 10
2816.6561779875592038
 20
162.3106383273610902
 30
0.0
 40
1.17680146756808
 50
81.8094439336728669
 51
89.2235422071124589
  0
ARC
  5
620B
  8
0
 10
2816.6709155806979652
 20
161.582543209070792
 30
0.0
 40
0.0953140119795027
 50
270.727161459611807
 51
292.5154683594894891
  0
ARC
  5
620C
  8
0
 10
2816.6869006959068429
 20
161.545942736353112
 30
0.0
 40
0.0553872350004944
 50
291.7384156991914779
 51
322.4741381580240045
  0
ARC
  5
620D
  8
0
 10
2816.6982224256489644
 20
161.5337179738473878
 30
0.0
 40
0.0390622774683728
 50
326.5830454131207716
 51
11.7473042254333002
  0
LINE
  5
620E
  8
0
 10
2816.339847049871878
 20
163.3693771874818879
 30
0.0
 11
2817.0044033757721991
 21
163.3693771874818879
 31
0.0
  0
LINE
  5
620F
  8
0
 10
2816.3278993840008297
 20
163.3108990473986921
 30
0.0
 11
2817.0163510416441568
 21
163.3108990473986921
 31
0.0
  0
LINE
  5
6210
  8
0
 10
2816.3280020333731954
 20
163.2402465145821111
 30
0.0
 11
2817.0162483922717911
 21
163.2402465145821111
 31
0.0
  0
LINE
  5
6211
  8
0
 10
2816.3026167977732257
 20
163.1194786884811947
 30
0.0
 11
2817.0416336278708513
 21
163.1194786884811947
 31
0.0
  0
ENDSEC
  0
EOF
