  0
SECTION
  2
HEADER
  9
$ACADVER
  1
AC1009
  9
$INSBASE
 10
4457.4524894681608203
 20
440.4261874362493927
 30
0.0
  9
$EXTMIN
 10
4447.3269342624980709
 20
438.6945654253166822
 30
0.0
  9
$EXTMAX
 10
4458.2779002176621361
 20
443.1611690072094234
 30
0.0
  9
$LIMMIN
 10
0.0
 20
0.0
  9
$LIMMAX
 10
11.6929133858000007
 20
8.2677165353999982
  9
$ORTHOMODE
 70
     0
  9
$REGENMODE
 70
     1
  9
$FILLMODE
 70
     1
  9
$QTEXTMODE
 70
     0
  9
$MIRRTEXT
 70
     0
  9
$DRAGMODE
 70
     2
  9
$LTSCALE
 40
0.6431102362
  9
$OSMODE
 70
  4095
  9
$ATTMODE
 70
     1
  9
$TEXTSIZE
 40
0.2
  9
$TRACEWID
 40
0.05
  9
$TEXTSTYLE
  7
STANDARD
  9
$CLAYER
  8
0
  9
$CELTYPE
  6
BYLAYER
  9
$CECOLOR
 62
   256
  9
$DIMSCALE
 40
1.0
  9
$DIMASZ
 40
0.1875
  9
$DIMEXO
 40
0.0625
  9
$DIMDLI
 40
0.4443307087
  9
$DIMRND
 40
0.0
  9
$DIMDLE
 40
0.0
  9
$DIMEXE
 40
0.125
  9
$DIMTP
 40
0.01
  9
$DIMTM
 40
0.01
  9
$DIMTXT
 40
2.0
  9
$DIMCEN
 40
0.1052362205
  9
$DIMTSZ
 40
0.0
  9
$DIMTOL
 70
     1
  9
$DIMLIM
 70
     0
  9
$DIMTIH
 70
     1
  9
$DIMTOH
 70
     1
  9
$DIMSE1
 70
     0
  9
$DIMSE2
 70
     0
  9
$DIMTAD
 70
     0
  9
$DIMZIN
 70
     0
  9
$DIMBLK
  1

  9
$DIMASO
 70
     1
  9
$DIMSHO
 70
     1
  9
$DIMPOST
  1
\X
  9
$DIMAPOST
  1

  9
$DIMALT
 70
     1
  9
$DIMALTD
 70
     2
  9
$DIMALTF
 40
25.3999999999999986
  9
$DIMLFAC
 40
1.0
  9
$DIMTOFL
 70
     0
  9
$DIMTVP
 40
0.0
  9
$DIMTIX
 70
     0
  9
$DIMSOXD
 70
     0
  9
$DIMSAH
 70
     0
  9
$DIMBLK1
  1

  9
$DIMBLK2
  1

  9
$DIMSTYLE
  2
STANDARD
  9
$DIMCLRD
 70
     0
  9
$DIMCLRE
 70
     0
  9
$DIMCLRT
 70
     0
  9
$DIMTFAC
 40
1.0
  9
$DIMGAP
 40
0.09
  9
$LUNITS
 70
     2
  9
$LUPREC
 70
     4
  9
$SKETCHINC
 40
0.1
  9
$FILLETRAD
 40
0.0
  9
$AUNITS
 70
     0
  9
$AUPREC
 70
     0
  9
$MENU
  1
.
  9
$ELEVATION
 40
0.0
  9
$PELEVATION
 40
0.0
  9
$THICKNESS
 40
0.0
  9
$LIMCHECK
 70
     0
  9
$BLIPMODE
 70
     0
  9
$CHAMFERA
 40
0.0
  9
$CHAMFERB
 40
0.0
  9
$SKPOLY
 70
     0
  9
$TDCREATE
 40
2458060.468368056230247
  9
$TDUPDATE
 40
2459873.4524074080400169
  9
$TDINDWG
 40
1.438478669
  9
$TDUSRTIMER
 40
1.438478669
  9
$USRTIMER
 70
     1
  9
$ANGBASE
 50
0.0
  9
$ANGDIR
 70
     0
  9
$PDMODE
 70
     0
  9
$PDSIZE
 40
0.3125
  9
$PLINEWID
 40
0.0
  9
$COORDS
 70
     1
  9
$SPLFRAME
 70
     0
  9
$SPLINETYPE
 70
     6
  9
$SPLINESEGS
 70
     8
  9
$ATTDIA
 70
     1
  9
$ATTREQ
 70
     1
  9
$HANDLING
 70
     1
  9
$HANDSEED
  5
189EE
  9
$SURFTAB1
 70
     6
  9
$SURFTAB2
 70
     6
  9
$SURFTYPE
 70
     6
  9
$SURFU
 70
     6
  9
$SURFV
 70
     6
  9
$UCSNAME
  2

  9
$UCSORG
 10
0.0
 20
0.0
 30
0.0
  9
$UCSXDIR
 10
1.0
 20
0.0
 30
0.0
  9
$UCSYDIR
 10
0.0
 20
1.0
 30
0.0
  9
$PUCSNAME
  2

  9
$PUCSORG
 10
0.0
 20
0.0
 30
0.0
  9
$PUCSXDIR
 10
1.0
 20
0.0
 30
0.0
  9
$PUCSYDIR
 10
0.0
 20
1.0
 30
0.0
  9
$USERI1
 70
     0
  9
$USERI2
 70
     0
  9
$USERI3
 70
     0
  9
$USERI4
 70
     0
  9
$USERI5
 70
     0
  9
$USERR1
 40
0.0
  9
$USERR2
 40
0.0
  9
$USERR3
 40
0.0
  9
$USERR4
 40
0.0
  9
$USERR5
 40
0.0
  9
$WORLDVIEW
 70
     1
  9
$SHADEDGE
 70
     3
  9
$SHADEDIF
 70
    70
  9
$TILEMODE
 70
     1
  9
$MAXACTVP
 70
    64
  9
$PLIMCHECK
 70
     0
  9
$PEXTMIN
 10
1.0000000000000000E+20
 20
1.0000000000000000E+20
 30
1.0000000000000000E+20
  9
$PEXTMAX
 10
-1.0000000000000000E+20
 20
-1.0000000000000000E+20
 30
-1.0000000000000000E+20
  9
$PLIMMIN
 10
0.0
 20
0.0
  9
$PLIMMAX
 10
12.0
 20
9.0
  9
$UNITMODE
 70
     0
  9
$VISRETAIN
 70
     1
  9
$PLINEGEN
 70
     0
  9
$PSLTSCALE
 70
     1
  0
ENDSEC
  0
SECTION
  2
TABLES
  0
TABLE
  2
VPORT
 70
     1
  0
VPORT
  2
*ACTIVE
 70
     0
 10
0.0
 20
0.0
 11
1.0
 21
1.0
 12
51.4844538168138612
 22
6.2498180952903537
 13
0.0
 23
0.0
 14
1.0
 24
1.0
 15
0.0
 25
0.0
 16
0.0
 26
0.0
 36
18.3436977350061916
 17
4405.2976074218740905
 27
434.0272216796875
 37
0.0
 40
10.7180545881389193
 41
2.8398203592814371
 42
50.0
 43
0.0
 44
0.0
 50
0.0
 51
0.0
 71
     0
 72
   100
 73
     1
 74
     1
 75
     0
 76
     0
 77
     0
 78
     0
  0
ENDTAB
  0
TABLE
  2
LTYPE
 70
     2
  0
LTYPE
  2
CONTINUOUS
 70
     0
  3
Solid line
 72
    65
 73
     0
 40
0.0
  0
LTYPE
  2
PHANTOM2
 70
     0
  3
___ _ _ ___ _ _ ___ _ _ ___ _ _
 72
    65
 73
     6
 40
1.25
 49
0.625
 49
-0.125
 49
0.125
 49
-0.125
 49
0.125
 49
-0.125
  0
ENDTAB
  0
TABLE
  2
LAYER
 70
     2
  0
LAYER
  2
0
 70
     0
 62
   255
  6
CONTINUOUS
  0
LAYER
  2
DEFPOINTS
 70
     0
 62
     7
  6
CONTINUOUS
  0
ENDTAB
  0
TABLE
  2
STYLE
 70
     1
  0
STYLE
  2
STANDARD
 70
     0
 40
0.0
 41
0.8
 50
0.0
 71
     0
 42
0.2
  3
txt
  4

  0
ENDTAB
  0
TABLE
  2
VIEW
 70
     0
  0
ENDTAB
  0
TABLE
  2
UCS
 70
     0
  0
ENDTAB
  0
TABLE
  2
APPID
 70
    11
  0
APPID
  2
ACAD
 70
     0
  0
APPID
  2
ACAD_MLEADERVER
 70
     0
  0
APPID
  2
ACAD_EXEMPT_FROM_CAD_STANDARDS
 70
     0
  0
APPID
  2
ACAD_NAV_VCDISPLAY
 70
     0
  0
APPID
  2
ACAECLAYERSTANDARD
 70
     0
  0
APPID
  2
ACCMTRANSPARENCY
 70
     0
  0
APPID
  2
ACAD_DSTYLE_DIMJAG
 70
     0
  0
APPID
  2
ACAD_DSTYLE_DIMTALN
 70
     0
  0
APPID
  2
ACDBATTR
 70
     0
  0
APPID
  2
ACADANNOTATIVE
 70
     0
  0
APPID
  2
DCO15
 70
     0
  0
ENDTAB
  0
TABLE
  2
DIMSTYLE
 70
     1
  0
DIMSTYLE
  2
STANDARD
 70
     0
  3

  4

  5

  6

  7

 40
1.0
 41
0.1875
 42
0.0625
 43
0.38
 44
0.125
 45
0.0
 46
0.0
 47
0.01
 48
0.01
140
0.15625
141
0.09
142
0.0
143
25.3999999999999986
144
1.0
145
0.0
146
1.0
147
0.09
 71
     1
 72
     0
 73
     1
 74
     1
 75
     0
 76
     0
 77
     0
 78
     4
170
     0
171
     2
172
     0
173
     0
174
     0
175
     0
176
     0
177
     0
178
     0
  0
ENDTAB
  0
ENDSEC
  0
SECTION
  2
BLOCKS
  0
BLOCK
  8
0
  2
$MODEL_SPACE
 70
     0
 10
0.0
 20
0.0
 30
0.0
  3
$MODEL_SPACE
  1

  0
ENDBLK
  5
21
  8
0
  0
BLOCK
 67
     1
  8
0
  2
$PAPER_SPACE
 70
     0
 10
0.0
 20
0.0
 30
0.0
  3
$PAPER_SPACE
  1

  0
ENDBLK
  5
1D
 67
     1
  8
0
  0
ENDSEC
  0
SECTION
  2
ENTITIES
  0
ATTDEF
  5
18548
  8
DEFPOINTS
 10
4457.453135490420209
 20
440.4245140139485102
 30
0.0
 40
0.001
  1
K-26510
  3

  2
MODELNUMBER
 70
     0
1001
ACDBATTR
1070
     0
1070
     1
  0
ATTDEF
  5
18549
  8
DEFPOINTS
 10
4457.4530096807638984
 20
440.4228471735692096
 30
0.0
 40
0.001
  1
REFINED
  3

  2
TRADENAME
 70
     0
1001
ACDBATTR
1070
     0
1070
     1
  0
ATTDEF
  5
1854A
  8
DEFPOINTS
 10
4457.453135490420209
 20
440.421180680615123
 30
0.0
 40
0.001
  1
ROBE HOOK
  3

  2
PRODUCT
 70
     0
1001
ACDBATTR
1070
     0
1070
     1
  0
ARC
  5
186BC
  8
0
 10
4454.2796959750612587
 20
441.2632416081062274
 30
0.0
 40
1.897927399103176
 50
78.4832304998805483
 51
101.5167695001193948
  0
LINE
  5
186BD
  8
0
 10
4453.9007657866222871
 20
443.1229567272993108
 30
0.0
 11
4454.6586261634993207
 21
443.1229567272993108
 31
0.0
  0
LINE
  5
186BE
  8
0
 10
4454.7336857408536162
 20
443.0137874200448209
 30
0.0
 11
4453.8257062092679917
 21
443.0137874200448209
 31
0.0
  0
ARC
  5
186BF
  8
0
 10
4453.9089759579874226
 20
443.0828156120642802
 30
0.0
 40
0.0409721374370857
 50
101.5594302968642069
 51
148.1683177662081903
  0
ARC
  5
186C0
  8
0
 10
4454.0609835414888948
 20
442.9843028975753896
 30
0.0
 40
0.2221040494897196
 50
147.2592470492602104
 51
152.6265430761266089
  0
ARC
  5
186C1
  8
0
 10
4453.7739978377157968
 20
443.1302285529754954
 30
0.0
 40
0.099870403310214
 50
310.4439424509823198
 51
333.9843751384510142
  0
ARC
  5
186C2
  8
0
 10
4453.858969885460283
 20
443.0252620255877218
 30
0.0
 40
0.0353016545480762
 50
124.8763454103205959
 51
180.5857091519935125
  0
ARC
  5
186C3
  8
0
 10
4453.8531042443619299
 20
443.0245503670988114
 30
0.0
 40
0.0294362592106998
 50
179.3171903589345106
 51
201.4467096065131102
  0
ARC
  5
186C4
  8
0
 10
4454.6504159921350947
 20
443.0828156120642802
 30
0.0
 40
0.0409721374370836
 50
31.8316822337918097
 51
78.4405697031357505
  0
ARC
  5
186C5
  8
0
 10
4454.4984084086336225
 20
442.9843028975753896
 30
0.0
 40
0.2221040494897196
 50
27.3734569238733414
 51
32.7407529507397967
  0
ARC
  5
186C6
  8
0
 10
4454.785394112405811
 20
443.1302285529754954
 30
0.0
 40
0.099870403310214
 50
206.0156248615460868
 51
229.5560575490177087
  0
ARC
  5
186C7
  8
0
 10
4454.7004220646622343
 20
443.0252620255877218
 30
0.0
 40
0.0353016545480762
 50
359.4142908480063738
 51
55.1236545896794112
  0
ARC
  5
186C8
  8
0
 10
4454.7062877057596779
 20
443.0245503670988114
 30
0.0
 40
0.0294362592106998
 50
338.5532903934869182
 51
0.6828096410654457
  0
ARC
  5
186C9
  8
0
 10
4452.7270188384145513
 20
442.4546724433592999
 30
0.0
 40
1.2327706583244891
 50
359.5612010006287278
 51
26.9712521261061511
  0
ARC
  5
186CA
  8
0
 10
4455.8342709506550818
 20
442.4544718878722733
 30
0.0
 40
1.2345532262979111
 50
153.0604000685171968
 51
180.4288573330782128
  0
LINE
  5
186CB
  8
0
 10
4457.4524894681608203
 20
439.2266620249994276
 30
0.0
 11
4457.4524894681608203
 21
441.6257128472993827
 31
0.0
  0
LINE
  5
186CC
  8
0
 10
4457.4524894681608203
 20
441.6257128472993827
 30
0.0
 11
4457.1792583256910802
 21
441.6257128472993827
 31
0.0
  0
LINE
  5
186CD
  8
0
 10
4457.1792600406533893
 20
439.2266620249994276
 30
0.0
 11
4457.189218881960187
 21
439.2266620249994276
 31
0.0
  0
LINE
  5
186CE
  8
0
 10
4457.3748527089410345
 20
439.2266620249994276
 30
0.0
 11
4457.4524894681608203
 21
439.2266620249994276
 31
0.0
  0
ARC
  5
186CF
  8
0
 10
4457.1792600406533893
 20
439.2666620249993912
 30
0.0
 40
0.04
 50
180.0000423707936932
 51
270.0
  0
LINE
  5
186D0
  8
0
 10
4457.1392600406516067
 20
439.2666619954189855
 30
0.0
 11
4457.1392583256911166
 21
441.5857128177190134
 31
0.0
  0
ARC
  5
186D1
  8
0
 10
4457.1792583256910802
 20
441.5857128472993054
 30
0.0
 40
0.04
 50
90.0
 51
180.0000423707936932
  0
ARC
  5
186D2
  8
0
 10
4457.2820357954497013
 20
438.0828988626066121
 30
0.0
 40
1.1475230503465781
 50
85.3605871032940655
 51
94.6394128967059345
  0
ARC
  5
186D3
  8
0
 10
4456.8562624869946376
 20
441.5962684217436731
 30
0.0
 40
0.283192629662899
 50
315.450793849817785
 51
357.8638861799573192
  0
ARC
  5
186D4
  8
0
 10
4456.5383928347955589
 20
441.9020664630751867
 30
0.0
 40
0.7242635115871484
 50
292.1005220789360237
 51
315.8515615451220242
  0
ARC
  5
186D5
  8
0
 10
4455.8551325147218449
 20
443.4339444855949068
 30
0.0
 40
2.401321840418627
 50
282.1515358395301973
 51
293.4538805006309872
  0
ARC
  5
186D6
  8
0
 10
4455.0568775300998823
 20
446.7992391711208029
 30
0.0
 40
5.8596879156108184
 50
277.3935402562393051
 51
282.8553888897928914
  0
ARC
  5
186D7
  8
0
 10
4455.6749209973349934
 20
442.1959397060355172
 30
0.0
 40
1.2153030924801209
 50
257.5126416451332148
 51
276.4253743912399273
  0
ARC
  5
186D8
  8
0
 10
4455.6389048311602892
 20
441.9206765776689281
 30
0.0
 40
0.9390799543032379
 50
205.6962715586325032
 51
256.0265484658535229
  0
ARC
  5
186D9
  8
0
 10
4456.6868782722103788
 20
442.3915814629407919
 30
0.0
 40
2.0878153912516151
 50
178.5275268745942014
 51
204.8711192654322986
  0
ARC
  5
186DA
  8
0
 10
4456.8562518208009351
 20
439.2560992707512924
 30
0.0
 40
0.2832052677043968
 50
2.1374600444812208
 51
44.5487275024915022
  0
ARC
  5
186DB
  8
0
 10
4456.5383928347955589
 20
438.9503084092236236
 30
0.0
 40
0.7242635115871484
 50
44.1484384548780184
 51
67.8994779210640189
  0
ARC
  5
186DC
  8
0
 10
4455.8551325147218449
 20
437.4184303867037897
 30
0.0
 40
2.401321840418627
 50
66.5461194993689702
 51
77.8484641604698169
  0
ARC
  5
186DD
  8
0
 10
4455.0568774251350987
 20
434.0531351847848782
 30
0.0
 40
5.8596884424145399
 50
77.1446112329814753
 51
82.0998231006878143
  0
ARC
  5
186DE
  8
0
 10
4456.2507785317102389
 20
442.753504485478004
 30
0.0
 40
2.9222349913059911
 50
246.8187475453991055
 51
262.3601062712863836
  0
ARC
  5
186DF
  8
0
 10
4455.815232494303018
 20
441.6930182237783811
 30
0.0
 40
1.776001134876386
 50
225.504474008155313
 51
246.2680693206959859
  0
ARC
  5
186E0
  8
0
 10
4456.0072652251255931
 20
441.7991707122325806
 30
0.0
 40
1.9872926665269051
 50
189.4117239875712073
 51
223.6999100998617962
  0
ARC
  5
186E1
  8
0
 10
4458.7686568560293381
 20
442.386525258394272
 30
0.0
 40
4.8092618344546194
 50
179.3005794867507916
 51
190.9354619886082105
  0
ARC
  5
186E2
  8
0
 10
4455.7946983179381277
 20
468.661376464751072
 30
0.0
 40
28.2253729934078912
 50
270.1371821700852252
 51
272.0781620050590277
  0
ARC
  5
186E3
  8
0
 10
4457.1337874617438501
 20
440.4853308212479988
 30
0.0
 40
0.0105492220112762
 50
283.0226113189345938
 51
301.2438383112856854
  0
ARC
  5
186E4
  8
0
 10
4457.0101327481806948
 20
441.222096827496614
 30
0.0
 40
0.757600576051302
 50
271.4657467118657905
 51
279.576049076551385
  0
ARC
  5
186E5
  8
0
 10
4456.4344739213920548
 20
450.6203864599527833
 30
0.0
 40
10.1730595594798299
 50
272.1618681611138868
 51
273.3532312168252929
  0
ARC
  5
186E6
  8
0
 10
4455.8528528822762382
 20
442.5060163287624277
 30
0.0
 40
2.0699534118670608
 50
259.5724989325216825
 51
270.2608778471546884
  0
ARC
  5
186E7
  8
0
 10
4455.69888147324491
 20
441.7713026331890092
 30
0.0
 40
1.3196352589188241
 50
226.4616658118133046
 51
260.3736631156937165
  0
ARC
  5
186E8
  8
0
 10
4455.9871382973760774
 20
441.958816991220317
 30
0.0
 40
1.656053215932179
 50
191.2253581027466112
 51
223.6999016260591873
  0
ARC
  5
186E9
  8
0
 10
4457.3248935554011041
 20
442.3496029264874778
 30
0.0
 40
3.0467691175092999
 50
182.0935544839825013
 51
193.5370033891007893
  0
LINE
  5
186EA
  8
0
 10
4454.2801581267040092
 20
442.2383005247071992
 30
0.0
 11
4454.2796959750612587
 21
443.0137874200448209
 31
0.0
  0
ENDSEC
  0
EOF
