  0
SECTION
  2
HEADER
  9
$ACADVER
  1
AC1009
  9
$INSBASE
 10
2909.7709251758888058
 20
150.8952538240503998
 30
0.0
  9
$EXTMIN
 10
2908.9813837590390904
 20
149.0601096663004057
 30
0.0
  9
$EXTMAX
 10
2919.2435747543631805
 20
152.7303979818003938
 30
0.0
  9
$LIMMIN
 10
0.0
 20
0.0
  9
$LIMMAX
 10
11.6929133858000007
 20
8.2677165353999982
  9
$ORTHOMODE
 70
     1
  9
$REGENMODE
 70
     1
  9
$FILLMODE
 70
     1
  9
$QTEXTMODE
 70
     0
  9
$MIRRTEXT
 70
     0
  9
$DRAGMODE
 70
     2
  9
$LTSCALE
 40
0.6431102362
  9
$OSMODE
 70
  4095
  9
$ATTMODE
 70
     1
  9
$TEXTSIZE
 40
0.2
  9
$TRACEWID
 40
0.05
  9
$TEXTSTYLE
  7
STANDARD
  9
$CLAYER
  8
0
  9
$CELTYPE
  6
BYLAYER
  9
$CECOLOR
 62
   256
  9
$DIMSCALE
 40
1.0
  9
$DIMASZ
 40
0.1875
  9
$DIMEXO
 40
0.0625
  9
$DIMDLI
 40
0.4443307087
  9
$DIMRND
 40
0.0
  9
$DIMDLE
 40
0.0
  9
$DIMEXE
 40
0.125
  9
$DIMTP
 40
0.01
  9
$DIMTM
 40
0.01
  9
$DIMTXT
 40
2.0
  9
$DIMCEN
 40
0.1052362205
  9
$DIMTSZ
 40
0.0
  9
$DIMTOL
 70
     1
  9
$DIMLIM
 70
     0
  9
$DIMTIH
 70
     1
  9
$DIMTOH
 70
     1
  9
$DIMSE1
 70
     0
  9
$DIMSE2
 70
     0
  9
$DIMTAD
 70
     0
  9
$DIMZIN
 70
     0
  9
$DIMBLK
  1

  9
$DIMASO
 70
     1
  9
$DIMSHO
 70
     1
  9
$DIMPOST
  1
\X
  9
$DIMAPOST
  1

  9
$DIMALT
 70
     1
  9
$DIMALTD
 70
     2
  9
$DIMALTF
 40
25.3999999999999986
  9
$DIMLFAC
 40
1.0
  9
$DIMTOFL
 70
     0
  9
$DIMTVP
 40
0.0
  9
$DIMTIX
 70
     0
  9
$DIMSOXD
 70
     0
  9
$DIMSAH
 70
     0
  9
$DIMBLK1
  1

  9
$DIMBLK2
  1

  9
$DIMSTYLE
  2
STANDARD
  9
$DIMCLRD
 70
     0
  9
$DIMCLRE
 70
     0
  9
$DIMCLRT
 70
     0
  9
$DIMTFAC
 40
1.0
  9
$DIMGAP
 40
0.09
  9
$LUNITS
 70
     2
  9
$LUPREC
 70
     4
  9
$SKETCHINC
 40
0.1
  9
$FILLETRAD
 40
0.0
  9
$AUNITS
 70
     0
  9
$AUPREC
 70
     0
  9
$MENU
  1
.
  9
$ELEVATION
 40
0.0
  9
$PELEVATION
 40
0.0
  9
$THICKNESS
 40
0.0
  9
$LIMCHECK
 70
     0
  9
$BLIPMODE
 70
     0
  9
$CHAMFERA
 40
0.0
  9
$CHAMFERB
 40
0.0
  9
$SKPOLY
 70
     0
  9
$TDCREATE
 40
2458060.468368056230247
  9
$TDUPDATE
 40
2458752.7799305561929941
  9
$TDINDWG
 40
0.2885371528
  9
$TDUSRTIMER
 40
0.2885371528
  9
$USRTIMER
 70
     1
  9
$ANGBASE
 50
0.0
  9
$ANGDIR
 70
     0
  9
$PDMODE
 70
     0
  9
$PDSIZE
 40
0.3125
  9
$PLINEWID
 40
0.0
  9
$COORDS
 70
     1
  9
$SPLFRAME
 70
     0
  9
$SPLINETYPE
 70
     6
  9
$SPLINESEGS
 70
     8
  9
$ATTDIA
 70
     1
  9
$ATTREQ
 70
     1
  9
$HANDLING
 70
     1
  9
$HANDSEED
  5
65F9
  9
$SURFTAB1
 70
     6
  9
$SURFTAB2
 70
     6
  9
$SURFTYPE
 70
     6
  9
$SURFU
 70
     6
  9
$SURFV
 70
     6
  9
$UCSNAME
  2

  9
$UCSORG
 10
0.0
 20
0.0
 30
0.0
  9
$UCSXDIR
 10
1.0
 20
0.0
 30
0.0
  9
$UCSYDIR
 10
0.0
 20
1.0
 30
0.0
  9
$PUCSNAME
  2

  9
$PUCSORG
 10
0.0
 20
0.0
 30
0.0
  9
$PUCSXDIR
 10
1.0
 20
0.0
 30
0.0
  9
$PUCSYDIR
 10
0.0
 20
1.0
 30
0.0
  9
$USERI1
 70
     0
  9
$USERI2
 70
     0
  9
$USERI3
 70
     0
  9
$USERI4
 70
     0
  9
$USERI5
 70
     0
  9
$USERR1
 40
0.0
  9
$USERR2
 40
0.0
  9
$USERR3
 40
0.0
  9
$USERR4
 40
0.0
  9
$USERR5
 40
0.0
  9
$WORLDVIEW
 70
     1
  9
$SHADEDGE
 70
     3
  9
$SHADEDIF
 70
    70
  9
$TILEMODE
 70
     1
  9
$MAXACTVP
 70
    64
  9
$PLIMCHECK
 70
     0
  9
$PEXTMIN
 10
1.0000000000000000E+20
 20
1.0000000000000000E+20
 30
1.0000000000000000E+20
  9
$PEXTMAX
 10
-1.0000000000000000E+20
 20
-1.0000000000000000E+20
 30
-1.0000000000000000E+20
  9
$PLIMMIN
 10
0.0
 20
0.0
  9
$PLIMMAX
 10
12.0
 20
9.0
  9
$UNITMODE
 70
     0
  9
$VISRETAIN
 70
     1
  9
$PLINEGEN
 70
     0
  9
$PSLTSCALE
 70
     1
  0
ENDSEC
  0
SECTION
  2
TABLES
  0
TABLE
  2
VPORT
 70
     1
  0
VPORT
  2
*ACTIVE
 70
     0
 10
0.0
 20
0.0
 11
1.0
 21
1.0
 12
0.0
 22
0.0
 13
0.0
 23
0.0
 14
1.0
 24
1.0
 15
0.0
 25
0.0
 16
0.0
 26
0.0
 36
31.2169581768547211
 17
2914.112548828125
 27
150.8952560424804119
 37
0.0
 40
10.8966758686368692
 41
2.1481900452488678
 42
50.0
 43
0.0
 44
0.0
 50
0.0
 51
0.0
 71
     0
 72
   100
 73
     1
 74
     1
 75
     0
 76
     0
 77
     0
 78
     0
  0
ENDTAB
  0
TABLE
  2
LTYPE
 70
     3
  0
LTYPE
  2
CONTINUOUS
 70
     0
  3
Solid line
 72
    65
 73
     0
 40
0.0
  0
LTYPE
  2
PHANTOM2
 70
     0
  3
___ _ _ ___ _ _ ___ _ _ ___ _ _
 72
    65
 73
     6
 40
1.25
 49
0.625
 49
-0.125
 49
0.125
 49
-0.125
 49
0.125
 49
-0.125
  0
ENDTAB
  0
TABLE
  2
LAYER
 70
     2
  0
LAYER
  2
0
 70
     0
 62
   255
  6
CONTINUOUS
  0
LAYER
  2
DEFPOINTS
 70
     0
 62
     7
  6
CONTINUOUS
  0
ENDTAB
  0
TABLE
  2
STYLE
 70
     1
  0
STYLE
  2
STANDARD
 70
     0
 40
0.0
 41
0.8
 50
0.0
 71
     0
 42
0.2
  3
txt
  4

  0
ENDTAB
  0
TABLE
  2
VIEW
 70
     0
  0
ENDTAB
  0
TABLE
  2
UCS
 70
     0
  0
ENDTAB
  0
TABLE
  2
APPID
 70
     9
  0
APPID
  2
ACAD
 70
     0
  0
APPID
  2
ACAD_MLEADERVER
 70
     0
  0
APPID
  2
ACAD_EXEMPT_FROM_CAD_STANDARDS
 70
     0
  0
APPID
  2
ACAD_NAV_VCDISPLAY
 70
     0
  0
APPID
  2
ACAECLAYERSTANDARD
 70
     0
  0
APPID
  2
ACCMTRANSPARENCY
 70
     0
  0
APPID
  2
ACAD_DSTYLE_DIMJAG
 70
     0
  0
APPID
  2
ACAD_DSTYLE_DIMTALN
 70
     0
  0
APPID
  2
ACDBATTR
 70
     0
  0
ENDTAB
  0
TABLE
  2
DIMSTYLE
 70
     2
  0
DIMSTYLE
  2
STANDARD
 70
     0
  3

  4

  5

  6

  7

 40
1.0
 41
0.1875
 42
0.0625
 43
0.38
 44
0.125
 45
0.0
 46
0.0
 47
0.01
 48
0.01
140
0.15625
141
0.09
142
0.0
143
25.3999999999999986
144
1.0
145
0.0
146
1.0
147
0.09
 71
     1
 72
     0
 73
     1
 74
     1
 75
     0
 76
     0
 77
     0
 78
     4
170
     0
171
     2
172
     0
173
     0
174
     0
175
     0
176
     0
177
     0
178
     0
  0
ENDTAB
  0
ENDSEC
  0
SECTION
  2
BLOCKS
  0
BLOCK
  8
0
  2
$MODEL_SPACE
 70
     0
 10
0.0
 20
0.0
 30
0.0
  3
$MODEL_SPACE
  1

  0
ENDBLK
  5
21
  8
0
  0
BLOCK
 67
     1
  8
0
  2
$PAPER_SPACE
 70
     0
 10
0.0
 20
0.0
 30
0.0
  3
$PAPER_SPACE
  1

  0
ENDBLK
  5
1D
 67
     1
  8
0
  0
ENDSEC
  0
SECTION
  2
ENTITIES
  0
ATTDEF
  5
3930
  8
DEFPOINTS
 10
2909.7665931575170362
 20
150.8935009460500964
 30
0.0
 40
0.001
  1
K-26536
  3

  2
MODELNUMBER
 70
     0
1001
ACDBATTR
1070
     0
1070
     1
  0
ATTDEF
  5
3931
  8
DEFPOINTS
 10
2909.7665931575170362
 20
150.8918342793834029
 30
0.0
 40
0.001
  1
INDUSTRIAL
  3

  2
TRADENAME
 70
     0
1001
ACDBATTR
1070
     0
1070
     1
  0
ATTDEF
  5
3932
  8
DEFPOINTS
 10
2909.7665931575170362
 20
150.8901676127167093
 30
0.0
 40
0.001
  1
TOWEL ARM
  3

  2
PRODUCT
 70
     0
1001
ACDBATTR
1070
     0
1070
     1
  0
LINE
  5
6471
  8
0
 10
2919.2435747543631805
 20
150.7527101592503982
 30
0.0
 11
2919.2435747543631805
 21
150.6227954486504075
 31
0.0
  0
LINE
  5
6472
  8
0
 10
2908.9813837590390904
 20
149.8496510831004116
 30
0.0
 11
2908.9813837590390904
 21
151.9408565650003879
 31
0.0
  0
LINE
  5
6473
  8
0
 10
2909.0313837590388175
 20
149.8496510831004116
 30
0.0
 11
2909.0313837590388175
 21
151.9408565650003879
 31
0.0
  0
LINE
  5
6474
  8
0
 10
2909.1392577747387804
 20
150.0642428766003889
 30
0.0
 11
2909.1392577747387804
 21
151.5992189613004086
 31
0.0
  0
LINE
  5
6475
  8
0
 10
2909.2209251758390565
 20
150.5377528044004123
 30
0.0
 11
2909.2209251758390565
 21
150.8377528044003952
 31
0.0
  0
LINE
  5
6476
  8
0
 10
2909.2787991916388819
 20
150.752713435300393
 30
0.0
 11
2909.2787991916388819
 21
150.6227921745004039
 31
0.0
  0
LINE
  5
6477
  8
0
 10
2910.320925175839875
 20
150.8377528044003952
 30
0.0
 11
2910.320925175839875
 21
150.8058632218003936
 31
0.0
  0
LINE
  5
6478
  8
0
 10
2910.320925175839875
 20
150.5696427493004137
 30
0.0
 11
2910.320925175839875
 21
150.5377528044004123
 31
0.0
  0
LINE
  5
6479
  8
0
 10
2910.4025925769387868
 20
150.0642436274004012
 30
0.0
 11
2910.4025925769387868
 21
150.5696427493004137
 31
0.0
  0
LINE
  5
647A
  8
0
 10
2910.4025925769387868
 20
150.8058632218003936
 30
0.0
 11
2910.4025925769387868
 21
151.5992194011004131
 31
0.0
  0
LINE
  5
647B
  8
0
 10
2910.5104665927387941
 20
151.9408565650003879
 30
0.0
 11
2910.5104665927387941
 21
150.8058632218003936
 31
0.0
  0
LINE
  5
647C
  8
0
 10
2910.5104665927387941
 20
150.5696427493004137
 30
0.0
 11
2910.5104665927387941
 21
149.8496510831004116
 31
0.0
  0
LINE
  5
647D
  8
0
 10
2910.5604665927398855
 20
151.9408565650003879
 30
0.0
 11
2910.5604665927398855
 21
150.8058632218003936
 31
0.0
  0
LINE
  5
647E
  8
0
 10
2910.5604665927398855
 20
150.5696427493004137
 30
0.0
 11
2910.5604665927398855
 21
149.8496510831004116
 31
0.0
  0
LINE
  5
647F
  8
0
 10
2910.3656399139249515
 20
150.4983827257003952
 30
0.0
 11
2909.1762104464019103
 21
150.4983827257003952
 31
0.0
  0
LINE
  5
6480
  8
0
 10
2919.1904251883402139
 20
150.5696427493004137
 30
0.0
 11
2909.3318100508508905
 21
150.5696427493004137
 31
0.0
  0
LINE
  5
6481
  8
0
 10
2909.3319487979401856
 20
150.8058632218003936
 30
0.0
 11
2919.1904252317372084
 21
150.8058632218003936
 31
0.0
  0
LINE
  5
6482
  8
0
 10
2909.1782113297072101
 20
150.8771228832003999
 30
0.0
 11
2910.3663486462669425
 21
150.8771228832003999
 31
0.0
  0
ARC
  5
6483
  8
0
 10
2906.8807482709180476
 20
149.8525083935410862
 30
0.0
 40
2.2684128085885149
 50
359.9277958367981114
 51
5.3558053540230874
  0
ARC
  5
6484
  8
0
 10
2912.6601703692531373
 20
149.852563733957993
 30
0.0
 40
2.2674800695128789
 50
174.6433705144127089
 51
180.0736331707599049
  0
ARC
  5
6485
  8
0
 10
2909.7709251758387836
 20
149.8496510831004116
 30
0.0
 40
0.7895414168000002
 50
180.0
 51
0.0
  0
ARC
  5
6486
  8
0
 10
2909.7709251758387836
 20
149.8496510831004116
 30
0.0
 40
0.7395414168000001
 50
180.0
 51
0.0
  0
ARC
  5
6487
  8
0
 10
2909.7709257252399766
 20
149.8496328870004106
 30
0.0
 40
0.6217664472
 50
179.9984470319004117
 51
0.0015495527004859
  0
ARC
  5
6488
  8
0
 10
2909.3351018542580277
 20
150.6259370104783955
 30
0.0
 40
0.056390423045519
 50
183.1969854361728096
 51
266.6534437126608168
  0
ARC
  5
6489
  8
0
 10
2909.3363944337288558
 20
150.7482679947792974
 30
0.0
 40
0.0577665461420433
 50
94.4137704140670451
 51
175.5864237941136992
  0
ARC
  5
648A
  8
0
 10
2909.2631593518108275
 20
150.5406169016794991
 30
0.0
 40
0.0423311785000156
 50
183.8795552929157964
 51
266.1204448532586753
  0
ARC
  5
648B
  8
0
 10
2909.2624822159841642
 20
150.8355658430550932
 30
0.0
 40
0.0416145453604807
 50
93.0124419948276113
 51
176.9875580043456011
  0
ARC
  5
648C
  8
0
 10
2903.4275591356931727
 20
151.9357175697921889
 30
0.0
 40
5.721602280550619
 50
356.6283777054434836
 51
0.0514556848788482
  0
ARC
  5
648D
  8
0
 10
2910.2775168574548843
 20
150.5417910440843059
 30
0.0
 40
0.0435957507642504
 50
275.3148814344124276
 51
354.6851185710929144
  0
ARC
  5
648E
  8
0
 10
2910.2802730642001734
 20
150.8364707715639952
 30
0.0
 40
0.0406723221485553
 50
1.806320273820476
 51
88.193679582444787
  0
ARC
  5
648F
  8
0
 10
2916.1067874437180762
 20
151.9354979202009872
 30
0.0
 40
5.7140985571299074
 50
179.9462756822516099
 51
183.3738443284800894
  0
ARC
  5
6490
  8
0
 10
2909.7709251758387836
 20
151.9408565650003879
 30
0.0
 40
0.7895414168000002
 50
0.0
 51
180.0
  0
ARC
  5
6491
  8
0
 10
2909.7709251758387836
 20
151.9408565650003879
 30
0.0
 40
0.7395414168000001
 50
0.0
 51
180.0000000000993055
  0
ARC
  5
6492
  8
0
 10
2909.7709252537388238
 20
151.9408776387004139
 30
0.0
 40
0.6217661452000001
 50
359.9979909432997829
 51
180.0019963229991902
  0
ARC
  5
6493
  8
0
 10
2909.1820859242970982
 20
150.8343204992744973
 30
0.0
 40
0.0429773958375799
 50
95.1724806396953937
 51
175.2236614842792051
  0
ARC
  5
6494
  8
0
 10
2909.181408991112221
 20
150.5402973391167052
 30
0.0
 40
0.0422357631036555
 50
183.6259210212656114
 51
262.9298800455495098
  0
ARC
  5
6495
  8
0
 10
2909.6882346215238613
 20
149.1113207313669022
 30
0.0
 40
0.0467836589992374
 50
268.9168744103862991
 51
325.309024375416584
  0
ARC
  5
6496
  8
0
 10
2909.854578184753791
 20
149.1132456807511062
 30
0.0
 40
0.0486989014504684
 50
215.9820185649763005
 51
269.9234828896018143
  0
ARC
  5
6497
  8
0
 10
2909.7708833433221116
 20
149.0068530091764103
 30
0.0
 40
0.0895053407041431
 50
60.3431581820325533
 51
119.5787887804300027
  0
ARC
  5
6498
  8
0
 10
2910.3608072767960948
 20
150.5399498412988919
 30
0.0
 40
0.0418470964440025
 50
276.6314967775335845
 51
356.8858490299376172
  0
ARC
  5
6499
  8
0
 10
2910.3632281099989996
 20
150.8378822980266989
 30
0.0
 40
0.0393644671166262
 50
359.9945796614222218
 51
85.4532255880897225
  0
ARC
  5
649A
  8
0
 10
2919.18788402275095
 20
150.7501726593112039
 30
0.0
 40
0.0557485111324963
 50
2.6088281671205742
 51
87.3873558800094656
  0
ARC
  5
649B
  8
0
 10
2919.1871890542361143
 20
150.6260282587516883
 30
0.0
 40
0.0564782988414754
 50
273.2847737698128867
 51
356.7186038884810273
  0
ENDSEC
  0
EOF
