  0
SECTION
  2
HEADER
  9
$ACADVER
  1
AC1009
  9
$INSBASE
 10
6781.3662198098600129
 20
301.2430590111314928
 30
0.0
  9
$EXTMIN
 10
6772.9173808478872161
 20
297.5162600712420726
 30
-0.0000000349181948
  9
$EXTMAX
 10
6789.4940449396926851
 20
304.437619110577316
 30
0.0000000814935746
  9
$LIMMIN
 10
0.0
 20
0.0
  9
$LIMMAX
 10
11.6929133858000007
 20
8.2677165353999982
  9
$ORTHOMODE
 70
     0
  9
$REGENMODE
 70
     1
  9
$FILLMODE
 70
     1
  9
$QTEXTMODE
 70
     0
  9
$MIRRTEXT
 70
     0
  9
$DRAGMODE
 70
     2
  9
$LTSCALE
 40
0.6431102362
  9
$OSMODE
 70
  4095
  9
$ATTMODE
 70
     1
  9
$TEXTSIZE
 40
0.2
  9
$TRACEWID
 40
0.05
  9
$TEXTSTYLE
  7
STANDARD
  9
$CLAYER
  8
0
  9
$CELTYPE
  6
BYLAYER
  9
$CECOLOR
 62
   256
  9
$DIMSCALE
 40
1.0
  9
$DIMASZ
 40
0.1875
  9
$DIMEXO
 40
0.0625
  9
$DIMDLI
 40
0.4443307087
  9
$DIMRND
 40
0.0
  9
$DIMDLE
 40
0.0
  9
$DIMEXE
 40
0.125
  9
$DIMTP
 40
0.01
  9
$DIMTM
 40
0.01
  9
$DIMTXT
 40
2.0
  9
$DIMCEN
 40
0.1052362205
  9
$DIMTSZ
 40
0.0
  9
$DIMTOL
 70
     1
  9
$DIMLIM
 70
     0
  9
$DIMTIH
 70
     1
  9
$DIMTOH
 70
     1
  9
$DIMSE1
 70
     0
  9
$DIMSE2
 70
     0
  9
$DIMTAD
 70
     0
  9
$DIMZIN
 70
     0
  9
$DIMBLK
  1

  9
$DIMASO
 70
     1
  9
$DIMSHO
 70
     1
  9
$DIMPOST
  1
\X
  9
$DIMAPOST
  1

  9
$DIMALT
 70
     1
  9
$DIMALTD
 70
     2
  9
$DIMALTF
 40
25.3999999999999986
  9
$DIMLFAC
 40
1.0
  9
$DIMTOFL
 70
     0
  9
$DIMTVP
 40
0.0
  9
$DIMTIX
 70
     0
  9
$DIMSOXD
 70
     0
  9
$DIMSAH
 70
     0
  9
$DIMBLK1
  1

  9
$DIMBLK2
  1

  9
$DIMSTYLE
  2
STANDARD
  9
$DIMCLRD
 70
     0
  9
$DIMCLRE
 70
     0
  9
$DIMCLRT
 70
     0
  9
$DIMTFAC
 40
1.0
  9
$DIMGAP
 40
0.09
  9
$LUNITS
 70
     2
  9
$LUPREC
 70
     4
  9
$SKETCHINC
 40
0.1
  9
$FILLETRAD
 40
0.0197
  9
$AUNITS
 70
     0
  9
$AUPREC
 70
     0
  9
$MENU
  1
.
  9
$ELEVATION
 40
0.0
  9
$PELEVATION
 40
0.0
  9
$THICKNESS
 40
0.0
  9
$LIMCHECK
 70
     0
  9
$BLIPMODE
 70
     0
  9
$CHAMFERA
 40
0.0
  9
$CHAMFERB
 40
0.0
  9
$SKPOLY
 70
     0
  9
$TDCREATE
 40
2458060.468368056230247
  9
$TDUPDATE
 40
2460488.4914583340287209
  9
$TDINDWG
 40
1.1995325231
  9
$TDUSRTIMER
 40
1.1995325231
  9
$USRTIMER
 70
     1
  9
$ANGBASE
 50
0.0
  9
$ANGDIR
 70
     0
  9
$PDMODE
 70
     0
  9
$PDSIZE
 40
0.3125
  9
$PLINEWID
 40
0.0
  9
$COORDS
 70
     1
  9
$SPLFRAME
 70
     0
  9
$SPLINETYPE
 70
     6
  9
$SPLINESEGS
 70
     8
  9
$ATTDIA
 70
     1
  9
$ATTREQ
 70
     1
  9
$HANDLING
 70
     1
  9
$HANDSEED
  5
31C15
  9
$SURFTAB1
 70
     6
  9
$SURFTAB2
 70
     6
  9
$SURFTYPE
 70
     6
  9
$SURFU
 70
     6
  9
$SURFV
 70
     6
  9
$UCSNAME
  2

  9
$UCSORG
 10
0.0
 20
0.0
 30
0.0
  9
$UCSXDIR
 10
1.0
 20
0.0
 30
0.0
  9
$UCSYDIR
 10
0.0
 20
1.0
 30
0.0
  9
$PUCSNAME
  2

  9
$PUCSORG
 10
0.0
 20
0.0
 30
0.0
  9
$PUCSXDIR
 10
1.0
 20
0.0
 30
0.0
  9
$PUCSYDIR
 10
0.0
 20
1.0
 30
0.0
  9
$USERI1
 70
     0
  9
$USERI2
 70
     0
  9
$USERI3
 70
     0
  9
$USERI4
 70
     0
  9
$USERI5
 70
     0
  9
$USERR1
 40
0.0
  9
$USERR2
 40
0.0
  9
$USERR3
 40
0.0
  9
$USERR4
 40
0.0
  9
$USERR5
 40
0.0
  9
$WORLDVIEW
 70
     1
  9
$SHADEDGE
 70
     3
  9
$SHADEDIF
 70
    70
  9
$TILEMODE
 70
     1
  9
$MAXACTVP
 70
    64
  9
$PLIMCHECK
 70
     0
  9
$PEXTMIN
 10
1.0000000000000000E+20
 20
1.0000000000000000E+20
 30
1.0000000000000000E+20
  9
$PEXTMAX
 10
-1.0000000000000000E+20
 20
-1.0000000000000000E+20
 30
-1.0000000000000000E+20
  9
$PLIMMIN
 10
0.0
 20
0.0
  9
$PLIMMAX
 10
12.0
 20
9.0
  9
$UNITMODE
 70
     0
  9
$VISRETAIN
 70
     1
  9
$PLINEGEN
 70
     0
  9
$PSLTSCALE
 70
     1
  0
ENDSEC
  0
SECTION
  2
TABLES
  0
TABLE
  2
VPORT
 70
     1
  0
VPORT
  2
*ACTIVE
 70
     0
 10
0.0
 20
0.0
 11
1.0
 21
1.0
 12
2869.8403564484779054
 22
168.3973344883706034
 13
0.0
 23
0.0
 14
1.0
 24
1.0
 15
0.0
 25
0.0
 16
0.0
 26
0.0
 36
60.4960186965801583
 17
3911.3653564453120453
 27
132.5796051025390057
 37
0.0
 40
6.9810259276054012
 41
2.7266187050359711
 42
50.0
 43
0.0
 44
0.0
 50
0.0
 51
0.0
 71
     0
 72
   100
 73
     1
 74
     1
 75
     0
 76
     0
 77
     0
 78
     0
  0
ENDTAB
  0
TABLE
  2
LTYPE
 70
     2
  0
LTYPE
  2
CONTINUOUS
 70
     0
  3
Solid line
 72
    65
 73
     0
 40
0.0
  0
LTYPE
  2
PHANTOM2
 70
     0
  3
___ _ _ ___ _ _ ___ _ _ ___ _ _
 72
    65
 73
     6
 40
1.25
 49
0.625
 49
-0.125
 49
0.125
 49
-0.125
 49
0.125
 49
-0.125
  0
ENDTAB
  0
TABLE
  2
LAYER
 70
     2
  0
LAYER
  2
0
 70
     0
 62
   255
  6
CONTINUOUS
  0
LAYER
  2
DEFPOINTS
 70
     0
 62
     7
  6
CONTINUOUS
  0
ENDTAB
  0
TABLE
  2
STYLE
 70
     1
  0
STYLE
  2
STANDARD
 70
     0
 40
0.0
 41
0.8
 50
0.0
 71
     0
 42
0.2
  3
txt
  4

  0
ENDTAB
  0
TABLE
  2
VIEW
 70
     0
  0
ENDTAB
  0
TABLE
  2
UCS
 70
     0
  0
ENDTAB
  0
TABLE
  2
APPID
 70
    11
  0
APPID
  2
ACAD
 70
     0
  0
APPID
  2
ACAD_MLEADERVER
 70
     0
  0
APPID
  2
ACAD_EXEMPT_FROM_CAD_STANDARDS
 70
     0
  0
APPID
  2
ACAD_NAV_VCDISPLAY
 70
     0
  0
APPID
  2
ACAECLAYERSTANDARD
 70
     0
  0
APPID
  2
ACCMTRANSPARENCY
 70
     0
  0
APPID
  2
ACAD_DSTYLE_DIMJAG
 70
     0
  0
APPID
  2
ACAD_DSTYLE_DIMTALN
 70
     0
  0
APPID
  2
ACDBATTR
 70
     0
  0
APPID
  2
ACADANNOTATIVE
 70
     0
  0
APPID
  2
DCO15
 70
     0
  0
ENDTAB
  0
TABLE
  2
DIMSTYLE
 70
     1
  0
DIMSTYLE
  2
STANDARD
 70
     0
  3

  4

  5

  6

  7

 40
1.0
 41
0.1875
 42
0.0625
 43
0.38
 44
0.125
 45
0.0
 46
0.0
 47
0.01
 48
0.01
140
0.15625
141
0.09
142
0.0
143
25.3999999999999986
144
1.0
145
0.0
146
1.0
147
0.09
 71
     1
 72
     0
 73
     1
 74
     1
 75
     0
 76
     0
 77
     0
 78
     4
170
     0
171
     2
172
     0
173
     0
174
     0
175
     0
176
     0
177
     0
178
     0
  0
ENDTAB
  0
ENDSEC
  0
SECTION
  2
BLOCKS
  0
BLOCK
  8
0
  2
$MODEL_SPACE
 70
     0
 10
0.0
 20
0.0
 30
0.0
  3
$MODEL_SPACE
  1

  0
ENDBLK
  5
21
  8
0
  0
BLOCK
 67
     1
  8
0
  2
$PAPER_SPACE
 70
     0
 10
0.0
 20
0.0
 30
0.0
  3
$PAPER_SPACE
  1

  0
ENDBLK
  5
1D
 67
     1
  8
0
  0
BLOCK
  8
0
  2
_FILLED
 70
     0
 10
0.0
 20
0.0
 30
0.0
  3
_FILLED
  1

  0
SOLID
  5
2EA64
  8
0
  6
BYBLOCK
 62
     0
 10
0.0
 20
0.0
 30
0.0
 11
-1.0
 21
0.1666666667
 31
0.0
 12
-1.0
 22
-0.1666666667
 32
0.0
 13
-1.0
 23
-0.1666666667
 33
0.0
  0
ENDBLK
  5
2EA65
  8
0
  6
BYBLOCK
 62
     0
  0
ENDSEC
  0
SECTION
  2
ENTITIES
  0
ATTDEF
  5
26A5B
  8
DEFPOINTS
 10
6781.3661818441169089
 20
301.2412481157987258
 30
0.0
 40
0.001
  1
K-2661IN
  3

  2
MODELNUMBER
 70
     0
1001
ACDBATTR
1070
     0
1070
     1
  0
ATTDEF
  5
26A5C
  8
DEFPOINTS
 10
6781.3660560344596888
 20
301.2395812754195958
 30
0.0
 40
0.001
  1
FOREFRONT
  3

  2
TRADENAME
 70
     0
1001
ACDBATTR
1070
     0
1070
     1
  0
ATTDEF
  5
26A5D
  8
DEFPOINTS
 10
6781.3661818441169089
 20
301.2379147824653955
 30
0.0
 40
0.001
  1
BATHROOM SINK
  3

  2
PRODUCT
 70
     0
1001
ACDBATTR
1070
     0
1070
     1
  0
LINE
  5
316D7
  8
0
 10
6773.4871872449939474
 20
304.4280142845299224
 30
0.0
 11
6789.2517787058741305
 21
304.4280142845299224
 31
0.0
  0
ARC
  5
316D8
  8
0
 10
6773.4839240794526631
 20
304.2889583172316748
 30
0.0
 40
0.1390942496690901
 50
88.6557117351550232
 51
140.1738818121330894
  0
ARC
  5
316D9
  8
0
 10
6773.6230615620797835
 20
304.1713618844539724
 30
0.0
 40
0.3212687140394075
 50
139.9596732521098943
 51
170.2262582503302895
  0
LINE
  5
316DA
  8
0
 10
6773.2953539532227296
 20
304.0236852426183987
 30
0.0
 11
6773.3637292321718633
 21
301.2430590111314928
 31
0.0
  0
LINE
  5
316DB
  8
0
 10
6773.3637292321718633
 20
301.2430590111314928
 30
0.0
 11
6789.3687103875481625
 21
301.2430590111314928
 31
0.0
  0
LINE
  5
316DC
  8
0
 10
6773.4242365087766302
 20
301.2430590111314928
 30
0.0
 11
6773.4242365087766302
 21
301.1840038930301944
 31
0.0
  0
ARC
  5
316DD
  8
0
 10
6775.0664840420940891
 20
300.9522190533269281
 30
0.0
 40
0.2317854610503457
 50
64.571661398940023
 51
90.1326667622966937
  0
LINE
  5
316DE
  8
0
 10
6779.9080525435219897
 20
298.8890448737257088
 30
0.0
 11
6779.2988609751755575
 21
298.8892128255308762
 31
0.0
  0
LINE
  5
316DF
  8
0
 10
6779.2988609751755575
 20
298.8892128255308762
 30
0.0
 11
6779.2577775455711162
 21
298.8889824922288199
 31
0.0
  0
ARC
  5
316E0
  8
0
 10
6779.2578673094612896
 20
298.3268295087281103
 30
0.0
 40
0.5621529906704575
 50
90.0091489183701867
 51
97.3073844973872468
  0
ARC
  5
316E1
  8
0
 10
6778.8055597359561943
 20
302.1356892982282716
 30
0.0
 40
3.273497597696764
 50
270.9774203285127214
 51
276.6803430654829867
  0
ARC
  5
316E2
  8
0
 10
6778.7948773095331489
 20
300.4764880455139178
 30
0.0
 40
1.61519051955281
 50
264.1571383511115982
 51
272.3604424311103003
  0
ARC
  5
316E3
  8
0
 10
6778.6422602040456695
 20
299.0167802940293882
 30
0.0
 40
0.1475649442305193
 50
202.1312555934092074
 51
265.4095148896544742
  0
LINE
  5
316E4
  8
0
 10
6778.505567364174567
 20
298.9611882056295258
 30
0.0
 11
6778.4487599675630918
 21
299.1172844744749
 31
0.0
  0
ARC
  5
316E5
  8
0
 10
6778.2625931280399527
 20
299.0487832655987859
 30
0.0
 40
0.1983696240772639
 50
20.2013956959496888
 51
76.0231535105504435
  0
ARC
  5
316E6
  8
0
 10
6779.7733509803429115
 20
305.2299708566231971
 30
0.0
 40
6.1647658159282601
 50
252.2340438413654908
 51
256.2732706435226078
  0
LINE
  5
316E7
  8
0
 10
6777.892298961240158
 20
299.3591974095642172
 30
0.0
 11
6777.864316334373143
 21
299.3593288170293931
 31
0.0
  0
ARC
  5
316E8
  8
0
 10
6777.8617909417725969
 20
298.8215578550760938
 30
0.0
 40
0.5377768915915168
 50
89.7309388490473339
 51
97.5636851742250144
  0
ARC
  5
316E9
  8
0
 10
6777.3650570590461939
 20
302.9742764918436251
 30
0.0
 40
3.6445968548624972
 50
270.8479663718485995
 51
276.7115476128898877
  0
ARC
  5
316EA
  8
0
 10
6777.3429687640436896
 20
301.2295436964440114
 30
0.0
 40
1.9009857667791481
 50
264.4553402256278218
 51
272.2920270687312723
  0
ARC
  5
316EB
  8
0
 10
6777.1677988783767432
 20
299.4873256848248957
 30
0.0
 40
0.1501146055183809
 50
201.5217390701631928
 51
266.7515384837618058
  0
LINE
  5
316EC
  8
0
 10
6777.0281504967788351
 20
299.4322555086317266
 30
0.0
 11
6776.9406152647570707
 21
299.7015494554638053
 31
0.0
  0
ARC
  5
316ED
  8
0
 10
6777.6921485378297803
 20
301.5707665611760717
 30
0.0
 40
1.9493578686103661
 50
233.0195814243569998
 51
244.0599015160910881
  0
ARC
  5
316EE
  8
0
 10
6776.7532645595283611
 20
299.6406502498022064
 30
0.0
 40
0.197
 50
18.0069902473567893
 51
64.0599015160910881
  0
ARC
  5
316EF
  8
0
 10
6779.9189051638077217
 20
305.2107111668544803
 30
0.0
 40
6.21018210412862
 50
232.1606473374409916
 51
236.8120172642105956
  0
ARC
  5
316F0
  8
0
 10
6775.9599048488080371
 20
296.0500120459572031
 30
0.0
 40
4.2589280816333162
 50
87.9901455755473449
 51
92.3493964513683068
  0
ARC
  5
316F1
  8
0
 10
6775.0652561480656004
 20
300.9459703337113865
 30
0.0
 40
0.2379612657436342
 50
42.9547966724764265
 51
64.9506838779329314
  0
ARC
  5
316F2
  8
0
 10
6781.820258633202684
 20
307.2351557332428911
 30
0.0
 40
8.9915518072098664
 50
222.954796672476391
 51
224.9702141602132883
  0
ARC
  5
316F3
  8
0
 10
6775.2951455534630441
 20
300.7228110192871213
 30
0.0
 40
0.2273659205940667
 50
28.2387787694673094
 51
43.9026723781264323
  0
ARC
  5
316F4
  8
0
 10
6775.3244772010775705
 20
300.7426283470293242
 30
0.0
 40
0.1921820710696922
 50
12.8713870780289295
 51
27.1712369873537405
  0
ARC
  5
316F5
  8
0
 10
6842.9822800197571269
 20
316.202777900495505
 30
0.0
 40
69.2095074362207754
 50
192.8713870780256912
 51
193.0784113735757899
  0
ARC
  5
316F6
  8
0
 10
6623.5888551742018535
 20
265.2354634196769894
 30
0.0
 40
156.0262401946756086
 50
13.0230065004084707
 51
13.0784113735758201
  0
ARC
  5
316F7
  8
0
 10
6775.7183042092792675
 20
300.4153875772307174
 30
0.0
 40
0.1180704340565466
 50
190.0552518280138088
 51
228.9320893677611082
  0
ARC
  5
316F8
  8
0
 10
6775.7183807261462789
 20
300.415333256317183
 30
0.0
 40
0.1180797847238996
 50
228.8867811824381988
 51
265.2928657072608871
  0
ARC
  5
316F9
  8
0
 10
6775.7184800633103805
 20
300.4146736485844258
 30
0.0
 40
0.1174306534423079
 50
265.2181511740034807
 51
289.3453214731363801
  0
LINE
  5
316FA
  8
0
 10
6775.7853176998751223
 20
300.3053601788295168
 30
0.0
 11
6775.7573802407050607
 21
300.3038732218399787
 31
0.0
  0
ARC
  5
316FB
  8
0
 10
6795.7111088064802971
 20
302.0140983131669259
 30
0.0
 40
16.1090961707385212
 50
183.743584158185314
 51
191.1792903085772082
  0
ARC
  5
316FC
  8
0
 10
6779.3995994951537796
 20
300.9467038930301896
 30
0.0
 40
0.2373
 50
3.7715257963746471
 51
90.0
  0
ARC
  5
316FD
  8
0
 10
6779.6220317736379002
 20
300.2273200767635899
 30
0.0
 40
0.079
 50
9.3195073340817842
 51
90.0
  0
LINE
  5
316FE
  8
0
 10
6776.4446573930963496
 20
300.8801632743986829
 30
0.0
 11
6779.4407024886595536
 21
300.8803543384664181
 31
0.0
  0
LINE
  5
316FF
  8
0
 10
6776.4446573930963496
 20
300.8801632743986829
 30
0.0
 11
6776.4095704215724254
 21
300.8806201427312885
 31
0.0
  0
LINE
  5
31700
  8
0
 10
6776.4095704215724254
 20
300.8806201427312885
 30
0.0
 11
6776.377265533773425
 21
300.8803337267298161
 31
0.0
  0
ARC
  5
31701
  8
0
 10
6777.1838201607661176
 20
273.2519644671763785
 30
0.0
 40
27.6401396217282311
 50
91.6721600372233212
 51
92.6261007063096855
  0
ARC
  5
31702
  8
0
 10
6775.7542596320563462
 20
305.2525296103183905
 30
0.0
 40
4.3924838850135863
 50
267.2481629923967148
 51
272.1285352340153167
  0
ARC
  5
31703
  8
0
 10
6775.5557275449964436
 20
301.172527131925392
 30
0.0
 40
0.3076642451770706
 50
251.6693341510417099
 51
267.6991388512486765
  0
LINE
  5
31704
  8
0
 10
6777.8922989613847676
 20
299.3591974095642172
 30
0.0
 11
6779.7849879765781225
 21
299.3586833822290032
 31
0.0
  0
ARC
  5
31705
  8
0
 10
6779.7819458590010981
 20
299.2773547621608259
 30
0.0
 40
0.0813854957695412
 50
58.5843776779758869
 51
87.8578355960981554
  0
ARC
  5
31706
  8
0
 10
6773.9423453317640451
 20
304.1061132164858236
 30
0.0
 40
0.6470736506167656
 50
169.3318452965359882
 51
176.4230081775052099
  0
ARC
  5
31707
  8
0
 10
6774.5923479934926945
 20
304.0654805624533878
 30
0.0
 40
1.2983450785408699
 50
176.4230081775052099
 51
177.3859490065514137
  0
LINE
  5
31708
  8
0
 10
6776.1092713491452741
 20
300.3063200767635976
 30
0.0
 11
6779.6220317736379002
 21
300.3063200767635976
 31
0.0
  0
LINE
  5
31709
  8
0
 10
6773.2953539532227296
 20
304.1246954463749717
 30
0.0
 11
6773.2953539532227296
 21
304.0236852426183987
 31
0.0
  0
ARC
  5
3170A
  8
0
 10
6777.0009674741004346
 20
300.1012029748952159
 30
0.0
 40
0.3262012055080008
 50
243.1356156892703098
 51
270.8178779431813155
  0
ARC
  5
3170B
  8
0
 10
6777.101031469346708
 20
302.8345784346403207
 30
0.0
 40
3.0610306509490028
 50
268.2138870864997102
 51
273.6424096316916916
  0
ARC
  5
3170C
  8
0
 10
6777.1203818147359925
 20
302.4991800084969213
 30
0.0
 40
2.725081155630118
 50
273.6843835105449898
 51
278.0563538472395066
  0
LINE
  5
3170D
  8
0
 10
6777.6533628353299719
 20
299.8127064955422156
 30
0.0
 11
6779.6043764607966295
 21
299.8127064955422156
 31
0.0
  0
ARC
  5
3170E
  8
0
 10
6777.6848772148678108
 20
298.4261829487464865
 30
0.0
 40
1.386881646694037
 50
91.3020551324662932
 51
97.5649675634804936
  0
ARC
  5
3170F
  8
0
 10
6779.3099128452413424
 20
300.5172924507755283
 30
0.0
 40
0.3859013670867549
 50
48.6519292677100665
 51
70.1889192648302469
  0
ARC
  5
31710
  8
0
 10
6779.3018002623039138
 20
300.5512390383437946
 30
0.0
 40
0.3668866516246898
 50
10.3836408445754103
 51
44.1940988887010135
  0
LINE
  5
31711
  8
0
 10
6780.2081555044305787
 20
297.5225865702299188
 30
0.0
 11
6782.5242841152894471
 21
297.5225865702299188
 31
0.0
  0
LINE
  5
31712
  8
0
 10
6781.1910588842119978
 20
297.6952627218299199
 30
0.0
 11
6781.541380735508028
 21
297.6952627218299199
 31
0.0
  0
ARC
  5
31713
  8
0
 10
6779.7118910986073388
 20
298.8308061973502845
 30
0.0
 40
0.2005264346356083
 50
5.1580379097866853
 51
16.8839889726756489
  0
ARC
  5
31714
  8
0
 10
6572.1238764455019918
 20
280.0920985159494876
 30
0.0
 40
208.6325848929886888
 50
4.8421487620411918
 51
5.1580379097866853
  0
ARC
  5
31715
  8
0
 10
6780.2081555044305787
 20
297.7195865702299216
 30
0.0
 40
0.197
 50
184.8421487620410915
 51
270.0
  0
ARC
  5
31716
  8
0
 10
6784.5975733053555814
 20
299.8522736693963111
 30
0.0
 40
4.787422551695296
 50
191.5848292210993975
 51
192.4708646816949056
  0
ARC
  5
31717
  8
0
 10
6788.1525634468780481
 20
300.6384996372776186
 30
0.0
 40
8.4283161479012012
 50
192.4708646816949056
 51
193.4086607526569139
  0
ARC
  5
31718
  8
0
 10
6783.234935764333386
 20
299.4661699117932017
 30
0.0
 40
3.3728815464664939
 50
193.4086607526569139
 51
199.393920181623912
  0
ARC
  5
31719
  8
0
 10
6781.3264714853748956
 20
298.7943211654729225
 30
0.0
 40
1.349612745245085
 50
199.393920181623912
 51
211.0410550415867874
  0
ARC
  5
3171A
  8
0
 10
6780.699036309794792
 20
298.416707912279378
 30
0.0
 40
0.617310438446949
 50
211.0410550415867874
 51
221.5906490240571998
  0
ARC
  5
3171B
  8
0
 10
6780.6581470545152115
 20
298.3804166646257841
 30
0.0
 40
0.5626388200916019
 50
221.5906490240571998
 51
245.2771114507349921
  0
ARC
  5
3171C
  8
0
 10
6780.5226191701203788
 20
298.1188276715262759
 30
0.0
 40
0.2686944948127209
 50
248.1999906991786986
 51
273.0314263118406188
  0
ARC
  5
3171D
  8
0
 10
6781.380046839395618
 20
276.6952262748288263
 30
0.0
 40
21.172080932668969
 50
90.0374186408258765
 51
92.2825163251934129
  0
ARC
  5
3171E
  8
0
 10
6780.7315962566799499
 20
298.1337813209480032
 30
0.0
 40
0.5058203392357639
 50
195.3698088116711915
 51
225.1974345238099886
  0
ARC
  5
3171F
  8
0
 10
6780.6248094948568905
 20
298.0262560621595185
 30
0.0
 40
0.3542779564560897
 50
225.1974345238099886
 51
246.1302299525457897
  0
ARC
  5
31720
  8
0
 10
6780.615816450100283
 20
298.2931432241131233
 30
0.0
 40
0.6059487587218979
 50
257.1881953844797977
 51
264.3417709008177212
  0
ARC
  5
31721
  8
0
 10
6780.6228216092267758
 20
298.3612516663279166
 30
0.0
 40
0.6744160743351415
 50
264.320028537164319
 51
271.1908647289023975
  0
ARC
  5
31722
  8
0
 10
6781.6873709774718009
 20
245.9313141207107947
 30
0.0
 40
51.7663278635177804
 50
90.549334386068594
 51
91.1628261096178534
  0
ARC
  5
31723
  8
0
 10
6789.2485155402682722
 20
304.2889583172316748
 30
0.0
 40
0.1390942496690901
 50
39.8261181878669035
 51
91.3442882648449626
  0
ARC
  5
31724
  8
0
 10
6789.1093780576402423
 20
304.1713618844539724
 30
0.0
 40
0.3212687140394075
 50
9.7737417496696803
 51
40.0403267478900915
  0
LINE
  5
31725
  8
0
 10
6789.4370856664963867
 20
304.0236852426183987
 30
0.0
 11
6789.3687103875481625
 21
301.2430590111314928
 31
0.0
  0
LINE
  5
31726
  8
0
 10
6789.3082031109433956
 20
301.2430590111314928
 30
0.0
 11
6789.3082031109433956
 21
301.1840038930301944
 31
0.0
  0
LINE
  5
31727
  8
0
 10
6789.3082031163130523
 20
301.1840038930301944
 30
0.0
 11
6773.4242365087766302
 21
301.1840038930301944
 31
0.0
  0
ARC
  5
31728
  8
0
 10
6787.6659555776268462
 20
300.9522190533269281
 30
0.0
 40
0.2317854610503457
 50
89.8673332377033063
 51
115.428338601059906
  0
LINE
  5
31729
  8
0
 10
6782.8243870761962171
 20
298.8890448737257088
 30
0.0
 11
6783.4335786445435588
 21
298.8892128255308762
 31
0.0
  0
LINE
  5
3172A
  8
0
 10
6783.4335786445435588
 20
298.8892128255308762
 30
0.0
 11
6783.4746620741480001
 21
298.8889824922288199
 31
0.0
  0
ARC
  5
3172B
  8
0
 10
6783.4745723102596457
 20
298.3268295087281103
 30
0.0
 40
0.5621529906704575
 50
82.6926155026127532
 51
89.9908510816298133
  0
ARC
  5
3172C
  8
0
 10
6783.926879883764741
 20
302.1356892982282716
 30
0.0
 40
3.273497597696764
 50
263.3196569345170133
 51
269.0225796714872786
  0
ARC
  5
3172D
  8
0
 10
6783.9375623101868769
 20
300.4764880455139178
 30
0.0
 40
1.61519051955281
 50
267.6395575688898134
 51
275.8428616488885154
  0
ARC
  5
3172E
  8
0
 10
6784.0901794156743563
 20
299.0167802940293882
 30
0.0
 40
0.1475649442305193
 50
274.5904851103454121
 51
337.8687444065906789
  0
LINE
  5
3172F
  8
0
 10
6784.2268722555436398
 20
298.9611882056295258
 30
0.0
 11
6784.2836796521578435
 21
299.1172844744749
 31
0.0
  0
ARC
  5
31730
  8
0
 10
6784.4698464916791636
 20
299.0487832655987859
 30
0.0
 40
0.1983696240772639
 50
103.9768464894495992
 51
159.7986043040502864
  0
ARC
  5
31731
  8
0
 10
6782.9590886393771143
 20
305.2299708566231971
 30
0.0
 40
6.1647658159282601
 50
283.7267293564773922
 51
287.7659561586344807
  0
LINE
  5
31732
  8
0
 10
6784.8401406584807773
 20
299.3591974095642172
 30
0.0
 11
6784.8681232853477923
 21
299.3593288170293931
 31
0.0
  0
ARC
  5
31733
  8
0
 10
6784.8706486779483384
 20
298.8215578550760938
 30
0.0
 40
0.5377768915915168
 50
82.4363148257749998
 51
90.2690611509526519
  0
ARC
  5
31734
  8
0
 10
6785.3673825606729224
 20
302.9742764918436251
 30
0.0
 40
3.6445968548624972
 50
263.2884523871101123
 51
269.1520336281514005
  0
ARC
  5
31735
  8
0
 10
6785.3894708556754267
 20
301.2295436964440114
 30
0.0
 40
1.9009857667791481
 50
267.7079729312687277
 51
275.5446597743721782
  0
ARC
  5
31736
  8
0
 10
6785.5646407413432826
 20
299.4873256848248957
 30
0.0
 40
0.1501146055183809
 50
273.2484615162383079
 51
338.4782609298367788
  0
LINE
  5
31737
  8
0
 10
6785.7042891229430097
 20
299.4322555086317266
 30
0.0
 11
6785.7918243549629551
 21
299.7015494554638053
 31
0.0
  0
ARC
  5
31738
  8
0
 10
6785.0402910818902456
 20
301.5707665611760717
 30
0.0
 40
1.9493578686103661
 50
295.9400984839089119
 51
306.9804185756428865
  0
ARC
  5
31739
  8
0
 10
6785.9791750601925742
 20
299.6406502498022064
 30
0.0
 40
0.197
 50
115.9400984839088977
 51
161.9930097526431894
  0
ARC
  5
3173A
  8
0
 10
6782.8135344559113946
 20
305.2107111668544803
 30
0.0
 40
6.21018210412862
 50
303.187982735789376
 51
307.8393526625588947
  0
ARC
  5
3173B
  8
0
 10
6786.7725347709119887
 20
296.0500120459572031
 30
0.0
 40
4.2589280816333162
 50
87.6506035486317074
 51
92.0098544244526693
  0
ARC
  5
3173C
  8
0
 10
6787.6671834716526064
 20
300.9459703337113865
 30
0.0
 40
0.2379612657436342
 50
115.049316122067097
 51
137.045203327523609
  0
ARC
  5
3173D
  8
0
 10
6780.9121809865164323
 20
307.2351557332428911
 30
0.0
 40
8.9915518072098664
 50
315.0297858397867117
 51
317.0452033275234953
  0
ARC
  5
3173E
  8
0
 10
6787.4372940662569818
 20
300.7228110192871213
 30
0.0
 40
0.2273659205940667
 50
136.0973276218736032
 51
151.7612212305326977
  0
ARC
  5
3173F
  8
0
 10
6787.4079624186397268
 20
300.7426283470293242
 30
0.0
 40
0.1921820710696922
 50
152.828763012646192
 51
167.1286129219741952
  0
ARC
  5
31740
  8
0
 10
6719.7501595999619894
 20
316.202777900495505
 30
0.0
 40
69.2095074362207754
 50
346.9215886264241817
 51
347.1286129219711256
  0
ARC
  5
31741
  8
0
 10
6939.1435844455190818
 20
265.2354634196769894
 30
0.0
 40
156.0262401946756086
 50
166.9215886264242101
 51
166.9769934995914866
  0
ARC
  5
31742
  8
0
 10
6787.0141354104407583
 20
300.4153875772307174
 30
0.0
 40
0.1180704340565466
 50
311.0679106322389202
 51
349.9447481719860775
  0
ARC
  5
31743
  8
0
 10
6787.0140588935746564
 20
300.415333256317183
 30
0.0
 40
0.1180797847238996
 50
274.7071342927391129
 51
311.1132188175595843
  0
ARC
  5
31744
  8
0
 10
6787.0139595564096453
 20
300.4146736485844258
 30
0.0
 40
0.1174306534423079
 50
250.6546785268635062
 51
274.7818488259965193
  0
LINE
  5
31745
  8
0
 10
6786.947121919843994
 20
300.3053601788295168
 30
0.0
 11
6786.9750593790140556
 21
300.3038732218399787
 31
0.0
  0
ARC
  5
31746
  8
0
 10
6767.0213308132397287
 20
302.0140983131669259
 30
0.0
 40
16.1090961707385212
 50
348.8207096914196086
 51
356.2564158418147144
  0
ARC
  5
31747
  8
0
 10
6783.3328401245653367
 20
300.9467038930301896
 30
0.0
 40
0.2373
 50
90.0
 51
176.2284742036254102
  0
ARC
  5
31748
  8
0
 10
6783.1104078460812161
 20
300.2273200767635899
 30
0.0
 40
0.079
 50
90.0
 51
170.6804926659181945
  0
LINE
  5
31749
  8
0
 10
6786.2877822266218573
 20
300.8801632743986829
 30
0.0
 11
6783.2917371310595627
 21
300.8803543384664181
 31
0.0
  0
LINE
  5
3174A
  8
0
 10
6786.2877822266218573
 20
300.8801632743986829
 30
0.0
 11
6786.3228691981494194
 21
300.8806201427312885
 31
0.0
  0
LINE
  5
3174B
  8
0
 10
6786.3228691981494194
 20
300.8806201427312885
 30
0.0
 11
6786.3551740859456913
 21
300.8803337267298161
 31
0.0
  0
ARC
  5
3174C
  8
0
 10
6785.5486194589529987
 20
273.2519644671763785
 30
0.0
 40
27.6401396217282311
 50
87.3738992936903145
 51
88.3278399627766646
  0
ARC
  5
3174D
  8
0
 10
6786.9781799876645891
 20
305.2525296103183905
 30
0.0
 40
4.3924838850135863
 50
267.8714647659846833
 51
272.7518370076032852
  0
ARC
  5
3174E
  8
0
 10
6787.1767120747235822
 20
301.172527131925392
 30
0.0
 40
0.3076642451770706
 50
272.3008611487512098
 51
288.3306658489582901
  0
LINE
  5
3174F
  8
0
 10
6784.8401406583352582
 20
299.3591974095642172
 30
0.0
 11
6782.9474516431428128
 21
299.3586833822290032
 31
0.0
  0
ARC
  5
31750
  8
0
 10
6782.9504937607189277
 20
299.2773547621608259
 30
0.0
 40
0.0813854957695412
 50
92.1421644039018588
 51
121.415622322024106
  0
ARC
  5
31751
  8
0
 10
6788.7900942879550712
 20
304.1061132164858236
 30
0.0
 40
0.6470736506167656
 50
3.5769918224948039
 51
10.6681547034640101
  0
ARC
  5
31752
  8
0
 10
6788.1400916262282408
 20
304.0654805624533878
 30
0.0
 40
1.2983450785408699
 50
2.6140509934485499
 51
3.5769918224948039
  0
LINE
  5
31753
  8
0
 10
6786.6231682705756612
 20
300.3063200767635976
 30
0.0
 11
6783.1104078460812161
 21
300.3063200767635976
 31
0.0
  0
LINE
  5
31754
  8
0
 10
6789.4370856664963867
 20
304.1246954463749717
 30
0.0
 11
6789.4370856664963867
 21
304.0236852426183987
 31
0.0
  0
ARC
  5
31755
  8
0
 10
6785.7314721456186817
 20
300.1012029748952159
 30
0.0
 40
0.3262012055080008
 50
269.1821220568186845
 51
296.8643843107296902
  0
ARC
  5
31756
  8
0
 10
6785.6314081503742273
 20
302.8345784346403207
 30
0.0
 40
3.0610306509490028
 50
266.3575903683083084
 51
271.7861129135002898
  0
ARC
  5
31757
  8
0
 10
6785.6120578049840333
 20
302.4991800084969213
 30
0.0
 40
2.725081155630118
 50
261.9436461527604934
 51
266.3156164894550102
  0
LINE
  5
31758
  8
0
 10
6785.0790767843900539
 20
299.8127064955422156
 30
0.0
 11
6783.1280631589233963
 21
299.8127064955422156
 31
0.0
  0
ARC
  5
31759
  8
0
 10
6785.047562404850396
 20
298.4261829487464865
 30
0.0
 40
1.386881646694037
 50
82.435032436519549
 51
88.6979448675337068
  0
ARC
  5
3175A
  8
0
 10
6783.4225267744786834
 20
300.5172924507755283
 30
0.0
 40
0.3859013670867549
 50
109.8110807351696963
 51
131.3480707322898979
  0
ARC
  5
3175B
  8
0
 10
6783.430639357416112
 20
300.5512390383437946
 30
0.0
 40
0.3668866516246898
 50
135.8059011112989936
 51
169.6163591554245897
  0
ARC
  5
3175C
  8
0
 10
6783.0205485211135965
 20
298.8308061973502845
 30
0.0
 40
0.2005264346356083
 50
163.1160110273243049
 51
174.8419620902132863
  0
ARC
  5
3175D
  8
0
 10
6990.6085631742189435
 20
280.0920985159494876
 30
0.0
 40
208.6325848929886888
 50
174.8419620902132863
 51
175.1578512379587949
  0
ARC
  5
3175E
  8
0
 10
6782.5242841152894471
 20
297.7195865702299216
 30
0.0
 40
0.197
 50
270.0
 51
355.1578512379588233
  0
ARC
  5
3175F
  8
0
 10
6778.1348663143626254
 20
299.8522736693963111
 30
0.0
 40
4.787422551695296
 50
347.5291353183051228
 51
348.4151707789005741
  0
ARC
  5
31760
  8
0
 10
6774.5798761728410682
 20
300.6384996372776186
 30
0.0
 40
8.4283161479012012
 50
346.5913392473431145
 51
347.5291353183051228
  0
ARC
  5
31761
  8
0
 10
6779.4975038553848208
 20
299.4661699117932017
 30
0.0
 40
3.3728815464664939
 50
340.6060798183759744
 51
346.5913392473431145
  0
ARC
  5
31762
  8
0
 10
6781.4059681343451302
 20
298.7943211654729225
 30
0.0
 40
1.349612745245085
 50
328.9589449584130989
 51
340.6060798183759744
  0
ARC
  5
31763
  8
0
 10
6782.0334033099243243
 20
298.416707912279378
 30
0.0
 40
0.617310438446949
 50
318.4093509759428002
 51
328.9589449584130989
  0
ARC
  5
31764
  8
0
 10
6782.0742925652039048
 20
298.3804166646257841
 30
0.0
 40
0.5626388200916019
 50
294.7228885492648942
 51
318.4093509759428002
  0
ARC
  5
31765
  8
0
 10
6782.209820449597828
 20
298.1188276715262759
 30
0.0
 40
0.2686944948127209
 50
266.9685736881593812
 51
291.800009300821273
  0
ARC
  5
31766
  8
0
 10
6781.3523927803225888
 20
276.6952262748288263
 30
0.0
 40
21.172080932668969
 50
87.7174836748065871
 51
89.9625813591741235
  0
ARC
  5
31767
  8
0
 10
6782.0008433630382569
 20
298.1337813209480032
 30
0.0
 40
0.5058203392357639
 50
314.8025654761900114
 51
344.6301911883288085
  0
ARC
  5
31768
  8
0
 10
6782.1076301248640448
 20
298.0262560621595185
 30
0.0
 40
0.3542779564560897
 50
293.8697700474540966
 51
314.8025654761900114
  0
ARC
  5
31769
  8
0
 10
6782.1166231696206523
 20
298.2931432241131233
 30
0.0
 40
0.6059487587218979
 50
275.6582290991822788
 51
282.8118046155202023
  0
ARC
  5
3176A
  8
0
 10
6782.10961801049325
 20
298.3612516663279166
 30
0.0
 40
0.6744160743351415
 50
268.8091352710976025
 51
275.679971462835681
  0
ARC
  5
3176B
  8
0
 10
6781.0450686422482249
 20
245.9313141207107947
 30
0.0
 40
51.7663278635177804
 50
88.8371738903821466
 51
89.450665613931406
  0
ARC
  5
3176C
  8
0
 10
6779.5261137813313326
 20
299.5134292216960716
 30
0.0
 40
0.3093411282677274
 50
49.6406776716274365
 51
75.3450118261769859
  0
ARC
  5
3176D
  8
0
 10
6779.5492573707879274
 20
299.5406619958901047
 30
0.0
 40
0.2736024975828775
 50
36.7605621477506119
 51
49.6406776716274365
  0
ARC
  5
3176E
  8
0
 10
6783.2063258383886932
 20
299.5134292216960716
 30
0.0
 40
0.3093411282677274
 50
104.6549881738229999
 51
130.3593223283725138
  0
ARC
  5
3176F
  8
0
 10
6783.1831822489320984
 20
299.5406619958901047
 30
0.0
 40
0.2736024975828775
 50
130.3593223283725138
 51
143.2394378522494094
  0
ENDSEC
  0
EOF
