  0
SECTION
  2
HEADER
  9
$ACADVER
  1
AC1009
  9
$INSBASE
 10
4185.6581000804308133
 20
222.908891294766704
 30
0.0
  9
$EXTMIN
 10
4172.5787021876367362
 20
218.1671633270622976
 30
-0.0000000000112498
  9
$EXTMAX
 10
4198.8483295934065609
 20
222.9122937563300013
 30
0.0000000000002956
  9
$LIMMIN
 10
0.0
 20
0.0
  9
$LIMMAX
 10
11.6929133858000007
 20
8.2677165353999982
  9
$ORTHOMODE
 70
     0
  9
$REGENMODE
 70
     1
  9
$FILLMODE
 70
     1
  9
$QTEXTMODE
 70
     0
  9
$MIRRTEXT
 70
     0
  9
$DRAGMODE
 70
     2
  9
$LTSCALE
 40
0.6431102362
  9
$OSMODE
 70
  4095
  9
$ATTMODE
 70
     1
  9
$TEXTSIZE
 40
0.2
  9
$TRACEWID
 40
0.05
  9
$TEXTSTYLE
  7
STANDARD
  9
$CLAYER
  8
0
  9
$CELTYPE
  6
BYLAYER
  9
$CECOLOR
 62
   256
  9
$DIMSCALE
 40
1.0
  9
$DIMASZ
 40
0.1875
  9
$DIMEXO
 40
0.0625
  9
$DIMDLI
 40
0.4443307087
  9
$DIMRND
 40
0.0
  9
$DIMDLE
 40
0.0
  9
$DIMEXE
 40
0.125
  9
$DIMTP
 40
0.01
  9
$DIMTM
 40
0.01
  9
$DIMTXT
 40
2.0
  9
$DIMCEN
 40
0.1052362205
  9
$DIMTSZ
 40
0.0
  9
$DIMTOL
 70
     1
  9
$DIMLIM
 70
     0
  9
$DIMTIH
 70
     1
  9
$DIMTOH
 70
     1
  9
$DIMSE1
 70
     0
  9
$DIMSE2
 70
     0
  9
$DIMTAD
 70
     0
  9
$DIMZIN
 70
     0
  9
$DIMBLK
  1

  9
$DIMASO
 70
     1
  9
$DIMSHO
 70
     1
  9
$DIMPOST
  1
\X
  9
$DIMAPOST
  1

  9
$DIMALT
 70
     1
  9
$DIMALTD
 70
     2
  9
$DIMALTF
 40
25.3999999999999986
  9
$DIMLFAC
 40
1.0
  9
$DIMTOFL
 70
     0
  9
$DIMTVP
 40
0.0
  9
$DIMTIX
 70
     0
  9
$DIMSOXD
 70
     0
  9
$DIMSAH
 70
     0
  9
$DIMBLK1
  1

  9
$DIMBLK2
  1

  9
$DIMSTYLE
  2
STANDARD
  9
$DIMCLRD
 70
     0
  9
$DIMCLRE
 70
     0
  9
$DIMCLRT
 70
     0
  9
$DIMTFAC
 40
1.0
  9
$DIMGAP
 40
0.09
  9
$LUNITS
 70
     2
  9
$LUPREC
 70
     4
  9
$SKETCHINC
 40
0.1
  9
$FILLETRAD
 40
0.0
  9
$AUNITS
 70
     0
  9
$AUPREC
 70
     0
  9
$MENU
  1
.
  9
$ELEVATION
 40
0.0
  9
$PELEVATION
 40
0.0
  9
$THICKNESS
 40
0.0
  9
$LIMCHECK
 70
     0
  9
$BLIPMODE
 70
     0
  9
$CHAMFERA
 40
0.0
  9
$CHAMFERB
 40
0.0
  9
$SKPOLY
 70
     0
  9
$TDCREATE
 40
2458060.468368056230247
  9
$TDUPDATE
 40
2459942.6475694449618459
  9
$TDINDWG
 40
0.6037570602
  9
$TDUSRTIMER
 40
0.6037570602
  9
$USRTIMER
 70
     1
  9
$ANGBASE
 50
0.0
  9
$ANGDIR
 70
     0
  9
$PDMODE
 70
     0
  9
$PDSIZE
 40
0.3125
  9
$PLINEWID
 40
0.0
  9
$COORDS
 70
     1
  9
$SPLFRAME
 70
     0
  9
$SPLINETYPE
 70
     6
  9
$SPLINESEGS
 70
     8
  9
$ATTDIA
 70
     1
  9
$ATTREQ
 70
     1
  9
$HANDLING
 70
     1
  9
$HANDSEED
  5
13065
  9
$SURFTAB1
 70
     6
  9
$SURFTAB2
 70
     6
  9
$SURFTYPE
 70
     6
  9
$SURFU
 70
     6
  9
$SURFV
 70
     6
  9
$UCSNAME
  2

  9
$UCSORG
 10
0.0
 20
0.0
 30
0.0
  9
$UCSXDIR
 10
1.0
 20
0.0
 30
0.0
  9
$UCSYDIR
 10
0.0
 20
1.0
 30
0.0
  9
$PUCSNAME
  2

  9
$PUCSORG
 10
0.0
 20
0.0
 30
0.0
  9
$PUCSXDIR
 10
1.0
 20
0.0
 30
0.0
  9
$PUCSYDIR
 10
0.0
 20
1.0
 30
0.0
  9
$USERI1
 70
     0
  9
$USERI2
 70
     0
  9
$USERI3
 70
     0
  9
$USERI4
 70
     0
  9
$USERI5
 70
     0
  9
$USERR1
 40
0.0
  9
$USERR2
 40
0.0
  9
$USERR3
 40
0.0
  9
$USERR4
 40
0.0
  9
$USERR5
 40
0.0
  9
$WORLDVIEW
 70
     1
  9
$SHADEDGE
 70
     3
  9
$SHADEDIF
 70
    70
  9
$TILEMODE
 70
     1
  9
$MAXACTVP
 70
    64
  9
$PLIMCHECK
 70
     0
  9
$PEXTMIN
 10
1.0000000000000000E+20
 20
1.0000000000000000E+20
 30
1.0000000000000000E+20
  9
$PEXTMAX
 10
-1.0000000000000000E+20
 20
-1.0000000000000000E+20
 30
-1.0000000000000000E+20
  9
$PLIMMIN
 10
0.0
 20
0.0
  9
$PLIMMAX
 10
12.0
 20
9.0
  9
$UNITMODE
 70
     0
  9
$VISRETAIN
 70
     1
  9
$PLINEGEN
 70
     0
  9
$PSLTSCALE
 70
     1
  0
ENDSEC
  0
SECTION
  2
TABLES
  0
TABLE
  2
VPORT
 70
     1
  0
VPORT
  2
*ACTIVE
 70
     0
 10
0.0
 20
0.0
 11
1.0
 21
1.0
 12
-103.1246188751028967
 22
-4.7624488875030693
 13
0.0
 23
0.0
 14
1.0
 24
1.0
 15
0.0
 25
0.0
 16
0.0
 26
0.0
 36
29.845499460437189
 17
4288.838134765625
 27
225.3021774291991903
 37
0.0
 40
11.5419313731259496
 41
2.2831541218637992
 42
50.0
 43
0.0
 44
0.0
 50
0.0
 51
0.0
 71
     0
 72
   100
 73
     1
 74
     1
 75
     0
 76
     0
 77
     0
 78
     0
  0
ENDTAB
  0
TABLE
  2
LTYPE
 70
     2
  0
LTYPE
  2
CONTINUOUS
 70
     0
  3
Solid line
 72
    65
 73
     0
 40
0.0
  0
LTYPE
  2
PHANTOM2
 70
     0
  3
___ _ _ ___ _ _ ___ _ _ ___ _ _
 72
    65
 73
     6
 40
1.25
 49
0.625
 49
-0.125
 49
0.125
 49
-0.125
 49
0.125
 49
-0.125
  0
ENDTAB
  0
TABLE
  2
LAYER
 70
     2
  0
LAYER
  2
0
 70
     0
 62
   255
  6
CONTINUOUS
  0
LAYER
  2
DEFPOINTS
 70
     0
 62
     7
  6
CONTINUOUS
  0
ENDTAB
  0
TABLE
  2
STYLE
 70
     1
  0
STYLE
  2
STANDARD
 70
     0
 40
0.0
 41
0.8
 50
0.0
 71
     0
 42
0.2
  3
txt
  4

  0
ENDTAB
  0
TABLE
  2
VIEW
 70
     0
  0
ENDTAB
  0
TABLE
  2
UCS
 70
     0
  0
ENDTAB
  0
TABLE
  2
APPID
 70
     9
  0
APPID
  2
ACAD
 70
     0
  0
APPID
  2
ACAD_MLEADERVER
 70
     0
  0
APPID
  2
ACAD_EXEMPT_FROM_CAD_STANDARDS
 70
     0
  0
APPID
  2
ACAD_NAV_VCDISPLAY
 70
     0
  0
APPID
  2
ACAECLAYERSTANDARD
 70
     0
  0
APPID
  2
ACCMTRANSPARENCY
 70
     0
  0
APPID
  2
ACAD_DSTYLE_DIMJAG
 70
     0
  0
APPID
  2
ACAD_DSTYLE_DIMTALN
 70
     0
  0
APPID
  2
ACDBATTR
 70
     0
  0
ENDTAB
  0
TABLE
  2
DIMSTYLE
 70
     1
  0
DIMSTYLE
  2
STANDARD
 70
     0
  3

  4

  5

  6

  7

 40
1.0
 41
0.1875
 42
0.0625
 43
0.38
 44
0.125
 45
0.0
 46
0.0
 47
0.01
 48
0.01
140
0.15625
141
0.09
142
0.0
143
25.3999999999999986
144
1.0
145
0.0
146
1.0
147
0.09
 71
     1
 72
     0
 73
     1
 74
     1
 75
     0
 76
     0
 77
     0
 78
     4
170
     0
171
     2
172
     0
173
     0
174
     0
175
     0
176
     0
177
     0
178
     0
  0
ENDTAB
  0
ENDSEC
  0
SECTION
  2
BLOCKS
  0
BLOCK
  8
0
  2
$MODEL_SPACE
 70
     0
 10
0.0
 20
0.0
 30
0.0
  3
$MODEL_SPACE
  1

  0
ENDBLK
  5
21
  8
0
  0
BLOCK
 67
     1
  8
0
  2
$PAPER_SPACE
 70
     0
 10
0.0
 20
0.0
 30
0.0
  3
$PAPER_SPACE
  1

  0
ENDBLK
  5
1D
 67
     1
  8
0
  0
ENDSEC
  0
SECTION
  2
ENTITIES
  0
LINE
  5
12D39
  8
0
 10
4176.1264500804300042
 20
221.3416531519667103
 30
0.0
 11
4176.1264500804300042
 21
221.5936364500666969
 31
0.0
  0
LINE
  5
12D3A
  8
0
 10
4173.0018915081873274
 20
218.7072019832513945
 30
0.0
 11
4173.0018915081873274
 21
222.7388125545668061
 31
0.0
  0
LINE
  5
12D3B
  8
0
 10
4174.7207226200307559
 20
222.908891294766704
 30
0.0
 11
4174.7207226200307559
 21
222.7388125545668061
 31
0.0
  0
LINE
  5
12D3C
  8
0
 10
4176.1154507118162655
 20
218.1838663499667916
 30
0.0
 11
4173.0206031767866079
 21
218.1838663499667916
 31
0.0
  0
LINE
  5
12D3D
  8
0
 10
4176.1264500804300042
 20
218.1838663499667916
 30
0.0
 11
4195.1897500804298033
 21
218.1838663499667916
 31
0.0
  0
ARC
  5
12D3E
  8
0
 10
4176.1145527877888526
 20
218.1957669566145057
 30
0.0
 40
0.0119344336330662
 50
274.3149026769816032
 51
355.4785662948744971
  0
ARC
  5
12D3F
  8
0
 10
4173.0212396585193346
 20
218.1989699928172968
 30
0.0
 40
0.0151170478715671
 50
180.8292010868788111
 51
267.5869296495927188
  0
LINE
  5
12D40
  8
0
 10
4173.0061241937310115
 20
218.1987512221668055
 30
0.0
 11
4173.0018915081873274
 21
218.7072019832513945
 31
0.0
  0
LINE
  5
12D41
  8
0
 10
4172.5954860222127536
 20
222.908891294766704
 30
0.0
 11
4174.7207226200307559
 21
222.908891294766704
 31
0.0
  0
LINE
  5
12D42
  8
0
 10
4172.6126528181948743
 20
222.7388125545668061
 30
0.0
 11
4174.7207226200307559
 21
222.7388125545668061
 31
0.0
  0
ARC
  5
12D43
  8
0
 10
4172.6126532275247882
 20
222.7538127506182093
 30
0.0
 40
0.0150001960570024
 50
180.8007329846232096
 51
269.9984362519724073
  0
LINE
  5
12D44
  8
0
 10
4172.5976544963059496
 20
222.7536031232970117
 30
0.0
 11
4172.5954860222127536
 21
222.908891294766704
 31
0.0
  0
ARC
  5
12D45
  8
0
 10
4176.114639056831038
 20
218.4245379669667102
 30
0.0
 40
0.0118110236000009
 50
359.9999999999951115
 51
87.5000127604725009
  0
LINE
  5
12D46
  8
0
 10
4176.1151542438155957
 20
218.4363377492041138
 30
0.0
 11
4174.6157369413076594
 21
218.5018033878691881
 31
0.0
  0
ARC
  5
12D47
  8
0
 10
4174.6294752562162103
 20
218.8164641397169135
 30
0.0
 40
0.3149605214148439
 50
180.4999207150532925
 51
267.5000127604724867
  0
LINE
  5
12D48
  8
0
 10
4174.3145267237296139
 20
218.8137160613667049
 30
0.0
 11
4174.3143803877301252
 21
221.0281000236502109
 31
0.0
  0
ARC
  5
12D49
  8
0
 10
4174.6293744813983722
 20
221.0301094158419062
 30
0.0
 40
0.3150005027022806
 50
90.006086596994038
 51
180.3654929811200986
  0
LINE
  5
12D4A
  8
0
 10
4174.6293410185307948
 20
221.3451099167666882
 30
0.0
 11
4176.1146858844667804
 21
221.3451118600968073
 31
0.0
  0
ARC
  5
12D4B
  8
0
 10
4176.1146321783789972
 20
221.3570098937657065
 30
0.0
 40
0.0118981548792467
 50
270.2586235184685961
 51
353.3415613422426986
  0
LINE
  5
12D4C
  8
0
 10
4176.1264500804300042
 20
221.3416531519667103
 30
0.0
 11
4195.1897500804298033
 21
221.3416531519667103
 31
0.0
  0
ARC
  5
12D4D
  8
0
 10
4176.1140944027538353
 20
221.5808427066438071
 30
0.0
 40
0.0128369938474532
 50
15.7393787135979402
 51
85.2520052318951116
  0
LINE
  5
12D4E
  8
0
 10
4176.1151569634776024
 20
221.5936356490632022
 30
0.0
 11
4174.6217670754958817
 21
221.6588391420820017
 31
0.0
  0
ARC
  5
12D4F
  8
0
 10
4174.6295435998708854
 20
221.9739064282316008
 30
0.0
 40
0.3151632420398388
 50
180.0249577254126052
 51
268.5861065277189823
  0
LINE
  5
12D50
  8
0
 10
4174.3143803877301252
 20
221.9737691448667078
 30
0.0
 11
4174.314047139021568
 21
222.7388125545668061
 31
0.0
  0
LINE
  5
12D51
  8
0
 10
4176.1264500804300042
 20
221.5936364500666969
 30
0.0
 11
4195.2010615431881888
 21
221.5936364500666969
 31
0.0
  0
LINE
  5
12D52
  8
0
 10
4176.1264500804300042
 20
218.4363377491667109
 30
0.0
 11
4195.2010459161892868
 21
218.4363377491667109
 31
0.0
  0
LINE
  5
12D53
  8
0
 10
4176.1264500804300042
 20
218.4363377491667109
 30
0.0
 11
4176.1264500804300042
 21
218.1838663499667916
 31
0.0
  0
LINE
  5
12D65
  8
0
 10
4195.1897500804298033
 20
221.3416531519667103
 30
0.0
 11
4195.1897500804298033
 21
221.5936364500666969
 31
0.0
  0
LINE
  5
12D66
  8
0
 10
4198.3143086526742991
 20
218.7072019832513945
 30
0.0
 11
4198.3143086526742991
 21
222.7388125545668061
 31
0.0
  0
LINE
  5
12D67
  8
0
 10
4196.5954775408308706
 20
222.908891294766704
 30
0.0
 11
4196.5954775408308706
 21
222.7388125545668061
 31
0.0
  0
LINE
  5
12D68
  8
0
 10
4195.200749449045361
 20
218.1838663499667916
 30
0.0
 11
4198.2955969840741091
 21
218.1838663499667916
 31
0.0
  0
ARC
  5
12D69
  8
0
 10
4195.2016473730718644
 20
218.1957669566145057
 30
0.0
 40
0.0119344336330662
 50
184.5214337051255029
 51
265.6850973230183968
  0
ARC
  5
12D6A
  8
0
 10
4198.2949605023441109
 20
218.1989699928172968
 30
0.0
 40
0.0151170478715671
 50
272.4130703504072812
 51
359.1707989131211889
  0
LINE
  5
12D6B
  8
0
 10
4198.310075967130615
 20
218.1987512221668055
 30
0.0
 11
4198.3143086526742991
 21
218.7072019832513945
 31
0.0
  0
LINE
  5
12D6C
  8
0
 10
4198.7207141386470539
 20
222.908891294766704
 30
0.0
 11
4196.5954775408308706
 21
222.908891294766704
 31
0.0
  0
LINE
  5
12D6D
  8
0
 10
4198.7035473426658427
 20
222.7388125545668061
 30
0.0
 11
4196.5954775408308706
 21
222.7388125545668061
 31
0.0
  0
ARC
  5
12D6E
  8
0
 10
4198.7035469333359288
 20
222.7538127506182093
 30
0.0
 40
0.0150001960570024
 50
270.0015637480275927
 51
359.1992670153766767
  0
LINE
  5
12D6F
  8
0
 10
4198.7185456645538579
 20
222.7536031232970117
 30
0.0
 11
4198.7207141386470539
 21
222.908891294766704
 31
0.0
  0
ARC
  5
12D70
  8
0
 10
4195.201561104029679
 20
218.4245379669667102
 30
0.0
 40
0.0118110236000009
 50
92.4999872395274849
 51
180.0000000000048885
  0
LINE
  5
12D71
  8
0
 10
4195.2010459170451213
 20
218.4363377492041138
 30
0.0
 11
4196.7004632195539671
 21
218.5018033878691881
 31
0.0
  0
ARC
  5
12D72
  8
0
 10
4196.6867249046435973
 20
218.8164641397169135
 30
0.0
 40
0.3149605214148439
 50
272.4999872395275133
 51
359.5000792849467075
  0
LINE
  5
12D73
  8
0
 10
4197.0016734371311031
 20
218.8137160613667049
 30
0.0
 11
4197.0018197731296823
 21
221.0281000236502109
 31
0.0
  0
ARC
  5
12D74
  8
0
 10
4196.6868256794632543
 20
221.0301094158419062
 30
0.0
 40
0.3150005027022806
 50
359.6345070188799014
 51
89.9939134030059762
  0
LINE
  5
12D75
  8
0
 10
4196.6868591423308317
 20
221.3451099167666882
 30
0.0
 11
4195.2015142763930271
 21
221.3451118600968073
 31
0.0
  0
ARC
  5
12D76
  8
0
 10
4195.2015679824817198
 20
221.3570098937657065
 30
0.0
 40
0.0118981548792467
 50
186.6584386577573014
 51
269.7413764815312902
  0
ARC
  5
12D77
  8
0
 10
4195.2021057581077912
 20
221.5808427066438071
 30
0.0
 40
0.0128369938474532
 50
94.7479947681048742
 51
164.2606212864021131
  0
LINE
  5
12D78
  8
0
 10
4195.2010431973831146
 20
221.5936356490632022
 30
0.0
 11
4196.6944330853639258
 21
221.6588391420820017
 31
0.0
  0
ARC
  5
12D79
  8
0
 10
4196.6866565609907411
 20
221.9739064282316008
 30
0.0
 40
0.3151632420398388
 50
271.4138934722810177
 51
359.9750422745873948
  0
LINE
  5
12D7A
  8
0
 10
4197.0018197731296823
 20
221.9737691448667078
 30
0.0
 11
4197.0021530218400585
 21
222.7388125545668061
 31
0.0
  0
LINE
  5
12D7B
  8
0
 10
4195.1897500804298033
 20
218.4363377491667109
 30
0.0
 11
4195.1897500804298033
 21
218.1838663499667916
 31
0.0
  0
ATTDEF
  5
12D8A
  8
DEFPOINTS
 10
4185.6470716303383597
 20
222.906856898011398
 30
0.0
 40
0.001
  1
K-26643
  3

  2
MODELNUMBER
 70
     0
1001
ACDBATTR
1070
     0
1070
     1
  0
ATTDEF
  5
12D8B
  8
DEFPOINTS
 10
4185.6470716303383597
 20
222.9051902313447044
 30
0.0
 40
0.001
  1
HONESTY
  3

  2
TRADENAME
 70
     0
1001
ACDBATTR
1070
     0
1070
     1
  0
ATTDEF
  5
12D8C
  8
DEFPOINTS
 10
4185.6470716303383597
 20
222.9035235646780109
 30
0.0
 40
0.001
  1
TOWEL BAR
  3

  2
PRODUCT
 70
     0
1001
ACDBATTR
1070
     0
1070
     1
  0
ENDSEC
  0
EOF
