  0
SECTION
  2
HEADER
  9
$ACADVER
  1
AC1009
  9
$INSBASE
 10
2862.1352153316947806
 20
134.0096475414021029
 30
0.0
  9
$EXTMIN
 10
2853.5678254882759575
 20
130.528228594027695
 30
-0.0015258207003583
  9
$EXTMAX
 10
2870.6503334950280077
 20
138.0146013341488072
 30
0.0000000349246037
  9
$LIMMIN
 10
0.0
 20
0.0
  9
$LIMMAX
 10
11.6929133858000007
 20
8.2677165353999982
  9
$ORTHOMODE
 70
     1
  9
$REGENMODE
 70
     1
  9
$FILLMODE
 70
     1
  9
$QTEXTMODE
 70
     0
  9
$MIRRTEXT
 70
     0
  9
$DRAGMODE
 70
     2
  9
$LTSCALE
 40
0.6431102362
  9
$OSMODE
 70
  4095
  9
$ATTMODE
 70
     1
  9
$TEXTSIZE
 40
0.2
  9
$TRACEWID
 40
0.05
  9
$TEXTSTYLE
  7
STANDARD
  9
$CLAYER
  8
0
  9
$CELTYPE
  6
BYLAYER
  9
$CECOLOR
 62
   256
  9
$DIMSCALE
 40
1.0
  9
$DIMASZ
 40
0.1875
  9
$DIMEXO
 40
0.0625
  9
$DIMDLI
 40
0.4443307087
  9
$DIMRND
 40
0.0
  9
$DIMDLE
 40
0.0
  9
$DIMEXE
 40
0.125
  9
$DIMTP
 40
0.01
  9
$DIMTM
 40
0.01
  9
$DIMTXT
 40
2.0
  9
$DIMCEN
 40
0.1052362205
  9
$DIMTSZ
 40
0.0
  9
$DIMTOL
 70
     1
  9
$DIMLIM
 70
     0
  9
$DIMTIH
 70
     1
  9
$DIMTOH
 70
     1
  9
$DIMSE1
 70
     0
  9
$DIMSE2
 70
     0
  9
$DIMTAD
 70
     0
  9
$DIMZIN
 70
     0
  9
$DIMBLK
  1

  9
$DIMASO
 70
     1
  9
$DIMSHO
 70
     1
  9
$DIMPOST
  1
\X
  9
$DIMAPOST
  1

  9
$DIMALT
 70
     1
  9
$DIMALTD
 70
     2
  9
$DIMALTF
 40
25.3999999999999986
  9
$DIMLFAC
 40
1.0
  9
$DIMTOFL
 70
     0
  9
$DIMTVP
 40
0.0
  9
$DIMTIX
 70
     0
  9
$DIMSOXD
 70
     0
  9
$DIMSAH
 70
     0
  9
$DIMBLK1
  1

  9
$DIMBLK2
  1

  9
$DIMSTYLE
  2
STANDARD
  9
$DIMCLRD
 70
     0
  9
$DIMCLRE
 70
     0
  9
$DIMCLRT
 70
     0
  9
$DIMTFAC
 40
1.0
  9
$DIMGAP
 40
0.09
  9
$LUNITS
 70
     2
  9
$LUPREC
 70
     4
  9
$SKETCHINC
 40
0.1
  9
$FILLETRAD
 40
0.0
  9
$AUNITS
 70
     0
  9
$AUPREC
 70
     0
  9
$MENU
  1
.
  9
$ELEVATION
 40
0.0
  9
$PELEVATION
 40
0.0
  9
$THICKNESS
 40
0.0
  9
$LIMCHECK
 70
     0
  9
$BLIPMODE
 70
     0
  9
$CHAMFERA
 40
0.0
  9
$CHAMFERB
 40
0.0
  9
$SKPOLY
 70
     0
  9
$TDCREATE
 40
2458060.468368056230247
  9
$TDUPDATE
 40
2459676.4135995381511748
  9
$TDINDWG
 40
0.4641390046
  9
$TDUSRTIMER
 40
0.4641390046
  9
$USRTIMER
 70
     1
  9
$ANGBASE
 50
0.0
  9
$ANGDIR
 70
     0
  9
$PDMODE
 70
     0
  9
$PDSIZE
 40
0.3125
  9
$PLINEWID
 40
0.0
  9
$COORDS
 70
     1
  9
$SPLFRAME
 70
     0
  9
$SPLINETYPE
 70
     6
  9
$SPLINESEGS
 70
     8
  9
$ATTDIA
 70
     1
  9
$ATTREQ
 70
     1
  9
$HANDLING
 70
     1
  9
$HANDSEED
  5
3BAE9
  9
$SURFTAB1
 70
     6
  9
$SURFTAB2
 70
     6
  9
$SURFTYPE
 70
     6
  9
$SURFU
 70
     6
  9
$SURFV
 70
     6
  9
$UCSNAME
  2

  9
$UCSORG
 10
0.0
 20
0.0
 30
0.0
  9
$UCSXDIR
 10
1.0
 20
0.0
 30
0.0
  9
$UCSYDIR
 10
0.0
 20
1.0
 30
0.0
  9
$PUCSNAME
  2

  9
$PUCSORG
 10
0.0
 20
0.0
 30
0.0
  9
$PUCSXDIR
 10
1.0
 20
0.0
 30
0.0
  9
$PUCSYDIR
 10
0.0
 20
1.0
 30
0.0
  9
$USERI1
 70
     0
  9
$USERI2
 70
     0
  9
$USERI3
 70
     0
  9
$USERI4
 70
     0
  9
$USERI5
 70
     0
  9
$USERR1
 40
0.0
  9
$USERR2
 40
0.0
  9
$USERR3
 40
0.0
  9
$USERR4
 40
0.0
  9
$USERR5
 40
0.0
  9
$WORLDVIEW
 70
     1
  9
$SHADEDGE
 70
     3
  9
$SHADEDIF
 70
    70
  9
$TILEMODE
 70
     1
  9
$MAXACTVP
 70
    64
  9
$PLIMCHECK
 70
     0
  9
$PEXTMIN
 10
1.0000000000000000E+20
 20
1.0000000000000000E+20
 30
1.0000000000000000E+20
  9
$PEXTMAX
 10
-1.0000000000000000E+20
 20
-1.0000000000000000E+20
 30
-1.0000000000000000E+20
  9
$PLIMMIN
 10
0.0
 20
0.0
  9
$PLIMMAX
 10
12.0
 20
9.0
  9
$UNITMODE
 70
     0
  9
$VISRETAIN
 70
     1
  9
$PLINEGEN
 70
     0
  9
$PSLTSCALE
 70
     1
  0
ENDSEC
  0
SECTION
  2
TABLES
  0
TABLE
  2
VPORT
 70
     1
  0
VPORT
  2
*ACTIVE
 70
     0
 10
0.0
 20
0.0
 11
1.0
 21
1.0
 12
-941.4349878911607448
 22
8.2761527673383881
 13
0.0
 23
0.0
 14
1.0
 24
1.0
 15
0.0
 25
0.0
 16
0.0
 26
0.0
 36
17.1152628219792007
 17
3803.5440673828129547
 27
125.9952621967499056
 37
0.0
 40
7.5399744542507987
 41
2.2831541218637992
 42
50.0
 43
0.0
 44
0.0
 50
0.0
 51
0.0
 71
     0
 72
   100
 73
     1
 74
     1
 75
     0
 76
     0
 77
     0
 78
     0
  0
ENDTAB
  0
TABLE
  2
LTYPE
 70
     2
  0
LTYPE
  2
CONTINUOUS
 70
     0
  3
Solid line
 72
    65
 73
     0
 40
0.0
  0
LTYPE
  2
PHANTOM2
 70
     0
  3
___ _ _ ___ _ _ ___ _ _ ___ _ _
 72
    65
 73
     6
 40
1.25
 49
0.625
 49
-0.125
 49
0.125
 49
-0.125
 49
0.125
 49
-0.125
  0
ENDTAB
  0
TABLE
  2
LAYER
 70
     2
  0
LAYER
  2
0
 70
     0
 62
   255
  6
CONTINUOUS
  0
LAYER
  2
DEFPOINTS
 70
     0
 62
     7
  6
CONTINUOUS
  0
ENDTAB
  0
TABLE
  2
STYLE
 70
     1
  0
STYLE
  2
STANDARD
 70
     0
 40
0.0
 41
0.8
 50
0.0
 71
     0
 42
0.2
  3
txt
  4

  0
ENDTAB
  0
TABLE
  2
VIEW
 70
     0
  0
ENDTAB
  0
TABLE
  2
UCS
 70
     0
  0
ENDTAB
  0
TABLE
  2
APPID
 70
     9
  0
APPID
  2
ACAD
 70
     0
  0
APPID
  2
ACAD_MLEADERVER
 70
     0
  0
APPID
  2
ACAD_EXEMPT_FROM_CAD_STANDARDS
 70
     0
  0
APPID
  2
ACAD_NAV_VCDISPLAY
 70
     0
  0
APPID
  2
ACAECLAYERSTANDARD
 70
     0
  0
APPID
  2
ACCMTRANSPARENCY
 70
     0
  0
APPID
  2
ACAD_DSTYLE_DIMJAG
 70
     0
  0
APPID
  2
ACAD_DSTYLE_DIMTALN
 70
     0
  0
APPID
  2
ACDBATTR
 70
     0
  0
ENDTAB
  0
TABLE
  2
DIMSTYLE
 70
     1
  0
DIMSTYLE
  2
STANDARD
 70
     0
  3

  4

  5

  6

  7

 40
1.0
 41
0.1875
 42
0.0625
 43
0.38
 44
0.125
 45
0.0
 46
0.0
 47
0.01
 48
0.01
140
0.15625
141
0.09
142
0.0
143
25.3999999999999986
144
1.0
145
0.0
146
1.0
147
0.09
 71
     1
 72
     0
 73
     1
 74
     1
 75
     0
 76
     0
 77
     0
 78
     4
170
     0
171
     2
172
     0
173
     0
174
     0
175
     0
176
     0
177
     0
178
     0
  0
ENDTAB
  0
ENDSEC
  0
SECTION
  2
BLOCKS
  0
BLOCK
  8
0
  2
$MODEL_SPACE
 70
     0
 10
0.0
 20
0.0
 30
0.0
  3
$MODEL_SPACE
  1

  0
ENDBLK
  5
21
  8
0
  0
BLOCK
 67
     1
  8
0
  2
$PAPER_SPACE
 70
     0
 10
0.0
 20
0.0
 30
0.0
  3
$PAPER_SPACE
  1

  0
ENDBLK
  5
1D
 67
     1
  8
0
  0
BLOCK
  8
0
  2
_FILLED
 70
     0
 10
0.0
 20
0.0
 30
0.0
  3
_FILLED
  1

  0
SOLID
  5
3B959
  8
0
  6
BYBLOCK
 62
     0
 10
0.0
 20
0.0
 30
0.0
 11
-1.0
 21
0.1666666667
 31
0.0
 12
-1.0
 22
-0.1666666667
 32
0.0
 13
-1.0
 23
-0.1666666667
 33
0.0
  0
ENDBLK
  5
3B95A
  8
0
  6
BYBLOCK
 62
     0
  0
ENDSEC
  0
SECTION
  2
ENTITIES
  0
ATTDEF
  5
3B702
  8
DEFPOINTS
 10
2862.136503137580803
 20
134.0141915156578136
 30
0.0
 40
0.001
  1
K-26739T-1
  3

  2
MODELNUMBER
 70
     0
1001
ACDBATTR
1070
     0
1070
     1
  0
ATTDEF
  5
3B703
  8
DEFPOINTS
 10
2862.136503137580803
 20
134.0125248489912053
 30
0.0
 40
0.001
  1

  3

  2
TRADENAME
 70
     0
1001
ACDBATTR
1070
     0
1070
     1
  0
ATTDEF
  5
3B704
  8
DEFPOINTS
 10
2862.136503137580803
 20
134.0108581823245117
 30
0.0
 40
0.001
  1
BATHROOM SINK 
  3

  2
PRODUCT
 70
     0
1001
ACDBATTR
1070
     0
1070
     1
  0
LINE
  5
3B9A1
  8
0
 10
2860.8189917068448267
 20
130.5326057673021012
 30
0.0
 11
2863.4514389565451893
 21
130.5326057673021012
 31
0.0
  0
LINE
  5
3B9A2
  8
0
 10
2853.8839128198769686
 20
134.0096475414021029
 30
0.0
 11
2868.6060737930729374
 21
134.0096475414021029
 31
0.0
  0
ARC
  5
3B9A3
  8
0
 10
2853.8839099644437738
 20
134.0883806313588025
 30
0.0
 40
0.0787330901085189
 50
182.0148390440025992
 51
270.0020779601993013
  0
ARC
  5
3B9A4
  8
0
 10
9987.6669816163685027
 20
385.0554244332993221
 30
0.0
 40
7138.2749597612582875
 50
181.985145250671394
 51
182.0148390440025992
  0
ARC
  5
3B9A5
  8
0
 10
2857.1890874766140769
 20
137.9045654547620074
 30
0.0
 40
3.515079715572103
 50
181.099540218621911
 51
181.985145250671394
  0
ARC
  5
3B9A6
  8
0
 10
2853.8490303926628258
 20
137.8404598952922129
 30
0.0
 40
0.1744075007620504
 50
149.468263496341109
 51
181.099540218621911
  0
ARC
  5
3B9A7
  8
0
 10
2853.8348845423852254
 20
137.8488029955331911
 30
0.0
 40
0.1579845777050863
 50
114.2323748919352937
 51
149.468263496341109
  0
ARC
  5
3B9A8
  8
0
 10
2853.8221837966648309
 20
137.8770207819306108
 30
0.0
 40
0.1270402339408432
 50
74.6285909239037437
 51
114.2323748919345974
  0
ARC
  5
3B9A9
  8
0
 10
2853.8021057357191239
 20
137.8039855094843062
 30
0.0
 40
0.2027850657954841
 50
49.8784983002183395
 51
74.6285909239037437
  0
ARC
  5
3B9AA
  8
0
 10
2853.9220236724950155
 20
140.1471213707712877
 30
0.0
 40
2.1880967046403099
 50
270.2817256846084888
 51
273.2410638159963128
  0
ARC
  5
3B9AB
  8
0
 10
2863.3417022195699246
 20
-773.395763800935697
 30
0.0
 40
911.4056971289420517
 50
89.5759277820717301
 51
90.5844039406052985
  0
ARC
  5
3B9AC
  8
0
 10
2873.3465433092960666
 20
241.6270913662864075
 30
0.0
 40
103.693354027117195
 50
268.1988467416827007
 51
268.3600057309463978
  0
ARC
  5
3B9AD
  8
0
 10
2870.4481516941168593
 20
137.8494698896112141
 30
0.0
 40
0.1444265025048191
 50
353.7882864446352755
 51
118.6511963203432032
  0
ARC
  5
3B9AE
  8
0
 10
846.3980263881896917
 20
207.3191447416373876
 30
0.0
 40
2025.3859775282051032
 50
357.9891530959109218
 51
358.0339569931747974
  0
ARC
  5
3B9AF
  8
0
 10
2870.458083375042861
 20
136.2537420295062986
 30
0.0
 40
0.0787401574041695
 50
269.999999971834427
 51
358.0000006986172139
  0
LINE
  5
3B9B0
  8
0
 10
2870.458083375042861
 20
136.1750018721020865
 30
0.0
 11
2858.8234560521441381
 21
136.1750018721020865
 31
0.0
  0
ARC
  5
3B9B1
  8
0
 10
2868.5891185974569453
 20
134.090015588022311
 30
0.0
 40
0.0821370901356202
 50
281.9129632770398075
 51
349.1803338491289992
  0
LINE
  5
3B9B2
  8
0
 10
2868.6697955263789481
 20
134.0745969397135866
 30
0.0
 11
2869.0229519736658403
 21
136.0774967704720098
 31
0.0
  0
ARC
  5
3B9B3
  8
0
 10
2869.1392478199450125
 20
136.0568916359021046
 30
0.0
 40
0.1181071353999721
 50
90.0
 51
169.9526843504606006
  0
ARC
  5
3B9B4
  8
0
 10
2858.8234623652579103
 20
136.096229894605699
 30
0.0
 40
0.0787719777494452
 50
90.0045919212491441
 51
179.0372886098708989
  0
LINE
  5
3B9B5
  8
0
 10
2858.7447015068341898
 20
136.0975533971844129
 30
0.0
 11
2858.7108236944231976
 21
134.0815047564325937
 31
0.0
  0
ARC
  5
3B9B6
  8
0
 10
2858.6355070545960189
 20
134.0827703821441901
 30
0.0
 40
0.0753272729039085
 50
283.895517696486877
 51
359.0372886054440755
  0
ARC
  5
3B9B7
  8
0
 10
2865.4906887555639514
 20
136.1522305070432992
 30
0.0
 40
0.0646800468181779
 50
1.205270733718663
 51
20.4221915175164206
  0
ARC
  5
3B9B8
  8
0
 10
2867.4147891958518812
 20
136.192711744923912
 30
0.0
 40
1.859846189670165
 50
181.2052707337186064
 51
182.760962430892107
  0
LINE
  5
3B9B9
  8
0
 10
2865.5571019369840542
 20
136.1031243715119956
 30
0.0
 11
2865.5571019369840542
 21
134.4427184075020989
 31
0.0
  0
LINE
  5
3B9BA
  8
0
 10
2865.5571019369449459
 20
134.4427184075020989
 30
0.0
 11
2867.5256058739450964
 21
134.4427184075020989
 31
0.0
  0
LINE
  5
3B9BB
  8
0
 10
2867.5256058739450964
 20
134.4427184075020989
 30
0.0
 11
2867.525605874005123
 21
136.1031243715021049
 31
0.0
  0
ARC
  5
3B9BC
  8
0
 10
2867.9398297965981328
 20
136.1031243714870982
 30
0.0
 40
0.4142239225929032
 50
170.0072679376312124
 51
179.9999999979187919
  0
LINE
  5
3B9BD
  8
0
 10
2867.5318897452448255
 20
136.1750018544020975
 30
0.0
 11
2867.4075335777451983
 21
135.9832667997021076
 31
0.0
  0
LINE
  5
3B9BE
  8
0
 10
2867.4075335777451983
 20
135.9832667997021076
 30
0.0
 11
2865.675174233144844
 21
135.9832667997021076
 31
0.0
  0
LINE
  5
3B9BF
  8
0
 10
2865.675174233144844
 20
135.9832667997021076
 30
0.0
 11
2865.5571163594140671
 21
136.1750018721020865
 31
0.0
  0
LINE
  5
3B9C0
  8
0
 10
2865.6324292098452133
 20
134.4427184075020989
 30
0.0
 11
2865.675174233144844
 21
135.9832667997021076
 31
0.0
  0
LINE
  5
3B9C1
  8
0
 10
2867.450278601044829
 20
134.4427184075020989
 30
0.0
 11
2867.4075335777451983
 21
135.9832667997021076
 31
0.0
  0
ARC
  5
3B9C2
  8
0
 10
2860.952785475912151
 20
138.7671348440294992
 30
0.0
 40
6.220408239140732
 50
229.8909049173890935
 51
261.8675698590807883
  0
ARC
  5
3B9C3
  8
0
 10
2860.0453382160048932
 20
132.4168468682262869
 30
0.0
 40
0.1943885546121567
 50
3.41428744337151
 51
81.867569859080831
  0
ARC
  5
3B9C4
  8
0
 10
2865.5934930151688604
 20
132.7478564073400094
 30
0.0
 40
5.3636316855869142
 50
183.4142874433715065
 51
184.5857125247069064
  0
ARC
  5
3B9C5
  8
0
 10
2860.4487770825498956
 20
132.3352135750965886
 30
0.0
 40
0.2023938365493299
 50
184.5857125247069064
 51
224.4144922717869974
  0
ARC
  5
3B9C6
  8
0
 10
2876.6874681004828744
 20
148.24536294610769
 30
0.0
 40
22.9362439060769994
 50
224.4144922717869974
 51
225.826719949954196
  0
ARC
  5
3B9C7
  8
0
 10
2860.5727376062231997
 20
131.6587525424401122
 30
0.0
 40
0.1895032945150724
 50
2.0784851090729588
 51
45.8267199499542102
  0
LINE
  5
3B9C8
  8
0
 10
2860.7621162233449468
 20
131.665625533702098
 30
0.0
 11
2860.8189917068448267
 21
130.5326057673021012
 31
0.0
  0
LINE
  5
3B9C9
  8
0
 10
2863.4514389565451893
 20
130.5326057673021012
 30
0.0
 11
2863.455847202078985
 21
130.617996914179713
 31
0.0
  0
ARC
  5
3B9CA
  8
0
 10
2863.65243581054483
 20
130.6078481940020879
 30
0.0
 40
0.1968503937000027
 50
98.2182493184911749
 51
177.0447773893050964
  0
ARC
  5
3B9CB
  8
0
 10
2876.5661171016690787
 20
-13.4733053545088204
 30
0.0
 40
144.8552719462909124
 50
94.9580596838359838
 51
95.1258175945823865
  0
ARC
  5
3B9CC
  8
0
 10
2863.9953118092807927
 20
131.4282552778165041
 30
0.0
 40
0.5905511811494593
 50
274.9999998870118247
 51
338.4578527144016107
  0
ARC
  5
3B9CD
  8
0
 10
2865.930393372657818
 20
130.6620717987005094
 30
0.0
 40
1.4906935371911849
 50
138.7841512593421953
 51
158.3759915809015126
  0
ARC
  5
3B9CE
  8
0
 10
2864.2198509846530214
 20
132.157633478978795
 30
0.0
 40
0.7814570102388575
 50
318.9353239558608948
 51
354.9444731162658968
  0
LINE
  5
3B9CF
  8
0
 10
2864.9982679437221122
 20
132.088770595756813
 30
0.0
 11
2865.158025689301212
 21
133.9081367446079867
 31
0.0
  0
ARC
  5
3B9D0
  8
0
 10
2865.7470740384651435
 20
133.874588822846988
 30
0.0
 40
0.5900028988972621
 50
166.766977388504813
 51
176.7403692359623903
  0
LINE
  5
3B9D1
  8
0
 10
2860.7031061616448824
 20
131.794671061702104
 30
0.0
 11
2862.7758247678648331
 21
131.7940401379946138
 31
0.0
  0
ARC
  5
3B9D2
  8
0
 10
2860.4596018654810905
 20
138.8135054920188907
 30
0.0
 40
6.2162955024517901
 50
266.4345392275732252
 51
274.1035094829442755
  0
ARC
  5
3B9D3
  8
0
 10
2863.5514414856129406
 20
95.7171342133375873
 30
0.0
 40
36.990841519417252
 50
92.3422405573472531
 51
94.103509482944304
  0
ARC
  5
3B9D4
  8
0
 10
2862.4085633578069974
 20
123.6585905076111942
 30
0.0
 40
9.0260216512360181
 50
89.3602782054891094
 51
92.3422405573472531
  0
ARC
  5
3B9D5
  8
0
 10
2862.5058562310000525
 20
132.372127256544502
 30
0.0
 40
0.3119417469555496
 50
27.437440381556339
 51
89.3602782054891094
  0
ARC
  5
3B9D6
  8
0
 10
2869.0088319289297942
 20
134.9512127065831066
 30
0.0
 40
6.6854716224326891
 50
201.3629608073653117
 51
207.492216486606992
  0
ARC
  5
3B9D7
  8
0
 10
2863.573636294384869
 20
132.3753141867767056
 30
0.0
 40
0.7111544812266015
 50
225.8542168334163023
 51
292.7893543699682937
  0
ARC
  5
3B9D8
  8
0
 10
2862.9231311650478347
 20
134.1122540294076089
 30
0.0
 40
2.565510598312557
 50
291.1572501577903154
 51
310.49986274012889
  0
ARC
  5
3B9D9
  8
0
 10
2863.5747230709412179
 20
133.3229577617561006
 30
0.0
 40
1.542245012177218
 50
311.1362742132794779
 51
346.7476830979005058
  0
LINE
  5
3B9DA
  8
0
 10
2862.7758247678648331
 20
131.7940401379946138
 30
0.0
 11
2862.8881061910451535
 21
131.8560389964021056
 31
0.0
  0
ARC
  5
3B9DB
  8
0
 10
2862.9923303747750651
 20
131.6672986769254976
 30
0.0
 40
0.2156051684682902
 50
66.4930071406952834
 51
118.9078937389185029
  0
ARC
  5
3B9DC
  8
0
 10
2863.4473922854058401
 20
132.2913106667404008
 30
0.0
 40
1.499108166613663
 50
267.5144867953969197
 51
276.777081314576094
  0
ARC
  5
3B9DD
  8
0
 10
2863.4032987391569804
 20
131.2755087224626038
 30
0.0
 40
0.4823496747291859
 50
205.1496030470106859
 51
267.5144867953969197
  0
LINE
  5
3B9DE
  8
0
 10
2862.9666752276448278
 20
131.0705181912020976
 30
0.0
 11
2862.827584439245129
 21
131.6896595255020941
 31
0.0
  0
LINE
  5
3B9DF
  8
0
 10
2862.827584439245129
 20
131.6896595255020941
 30
0.0
 11
2862.7758247678648331
 21
131.7940401379946138
 31
0.0
  0
ENDSEC
  0
EOF
