  0
SECTION
  2
HEADER
  9
$ACADVER
  1
AC1009
  9
$INSBASE
 10
699.9378271598510537
 20
21.6653062759019193
 30
0.0
  9
$EXTMIN
 10
695.7350713013012182
 20
16.4227866592768308
 30
0.0
  9
$EXTMAX
 10
704.1405830184012302
 20
36.0418373550381119
 30
0.0
  9
$LIMMIN
 10
0.0
 20
0.0
  9
$LIMMAX
 10
11.6929133858000007
 20
8.2677165353999982
  9
$ORTHOMODE
 70
     1
  9
$REGENMODE
 70
     1
  9
$FILLMODE
 70
     1
  9
$QTEXTMODE
 70
     0
  9
$MIRRTEXT
 70
     0
  9
$DRAGMODE
 70
     2
  9
$LTSCALE
 40
0.6431102362
  9
$OSMODE
 70
  4095
  9
$ATTMODE
 70
     1
  9
$TEXTSIZE
 40
0.2
  9
$TRACEWID
 40
0.05
  9
$TEXTSTYLE
  7
STANDARD
  9
$CLAYER
  8
0
  9
$CELTYPE
  6
BYLAYER
  9
$CECOLOR
 62
   256
  9
$DIMSCALE
 40
1.0
  9
$DIMASZ
 40
0.1875
  9
$DIMEXO
 40
0.0625
  9
$DIMDLI
 40
0.4443307087
  9
$DIMRND
 40
0.0
  9
$DIMDLE
 40
0.0
  9
$DIMEXE
 40
0.125
  9
$DIMTP
 40
0.01
  9
$DIMTM
 40
0.01
  9
$DIMTXT
 40
1.0
  9
$DIMCEN
 40
0.1052362205
  9
$DIMTSZ
 40
0.0
  9
$DIMTOL
 70
     1
  9
$DIMLIM
 70
     0
  9
$DIMTIH
 70
     1
  9
$DIMTOH
 70
     1
  9
$DIMSE1
 70
     0
  9
$DIMSE2
 70
     0
  9
$DIMTAD
 70
     0
  9
$DIMZIN
 70
     0
  9
$DIMBLK
  1

  9
$DIMASO
 70
     1
  9
$DIMSHO
 70
     1
  9
$DIMPOST
  1
\X
  9
$DIMAPOST
  1

  9
$DIMALT
 70
     1
  9
$DIMALTD
 70
     2
  9
$DIMALTF
 40
25.3999999999999986
  9
$DIMLFAC
 40
1.0
  9
$DIMTOFL
 70
     0
  9
$DIMTVP
 40
0.0
  9
$DIMTIX
 70
     0
  9
$DIMSOXD
 70
     0
  9
$DIMSAH
 70
     0
  9
$DIMBLK1
  1

  9
$DIMBLK2
  1

  9
$DIMSTYLE
  2
STANDARD
  9
$DIMCLRD
 70
     0
  9
$DIMCLRE
 70
     0
  9
$DIMCLRT
 70
     0
  9
$DIMTFAC
 40
1.0
  9
$DIMGAP
 40
0.09
  9
$LUNITS
 70
     2
  9
$LUPREC
 70
     4
  9
$SKETCHINC
 40
0.1
  9
$FILLETRAD
 40
0.0
  9
$AUNITS
 70
     0
  9
$AUPREC
 70
     0
  9
$MENU
  1
.
  9
$ELEVATION
 40
0.0
  9
$PELEVATION
 40
0.0
  9
$THICKNESS
 40
0.0
  9
$LIMCHECK
 70
     0
  9
$BLIPMODE
 70
     0
  9
$CHAMFERA
 40
0.0
  9
$CHAMFERB
 40
0.0
  9
$SKPOLY
 70
     0
  9
$TDCREATE
 40
2458306.6094560190103948
  9
$TDUPDATE
 40
2459907.9154050932265818
  9
$TDINDWG
 40
0.0735043981
  9
$TDUSRTIMER
 40
0.0735042708
  9
$USRTIMER
 70
     1
  9
$ANGBASE
 50
0.0
  9
$ANGDIR
 70
     0
  9
$PDMODE
 70
     0
  9
$PDSIZE
 40
0.3125
  9
$PLINEWID
 40
0.0
  9
$COORDS
 70
     1
  9
$SPLFRAME
 70
     0
  9
$SPLINETYPE
 70
     6
  9
$SPLINESEGS
 70
     8
  9
$ATTDIA
 70
     1
  9
$ATTREQ
 70
     1
  9
$HANDLING
 70
     1
  9
$HANDSEED
  5
35EB
  9
$SURFTAB1
 70
     6
  9
$SURFTAB2
 70
     6
  9
$SURFTYPE
 70
     6
  9
$SURFU
 70
     6
  9
$SURFV
 70
     6
  9
$UCSNAME
  2

  9
$UCSORG
 10
0.0
 20
0.0
 30
0.0
  9
$UCSXDIR
 10
1.0
 20
0.0
 30
0.0
  9
$UCSYDIR
 10
0.0
 20
1.0
 30
0.0
  9
$PUCSNAME
  2

  9
$PUCSORG
 10
0.0
 20
0.0
 30
0.0
  9
$PUCSXDIR
 10
1.0
 20
0.0
 30
0.0
  9
$PUCSYDIR
 10
0.0
 20
1.0
 30
0.0
  9
$USERI1
 70
     0
  9
$USERI2
 70
     0
  9
$USERI3
 70
     0
  9
$USERI4
 70
     0
  9
$USERI5
 70
     0
  9
$USERR1
 40
0.0
  9
$USERR2
 40
0.0
  9
$USERR3
 40
0.0
  9
$USERR4
 40
0.0
  9
$USERR5
 40
0.0
  9
$WORLDVIEW
 70
     1
  9
$SHADEDGE
 70
     3
  9
$SHADEDIF
 70
    70
  9
$TILEMODE
 70
     1
  9
$MAXACTVP
 70
    64
  9
$PLIMCHECK
 70
     0
  9
$PEXTMIN
 10
1.0000000000000000E+20
 20
1.0000000000000000E+20
 30
1.0000000000000000E+20
  9
$PEXTMAX
 10
-1.0000000000000000E+20
 20
-1.0000000000000000E+20
 30
-1.0000000000000000E+20
  9
$PLIMMIN
 10
0.0
 20
0.0
  9
$PLIMMAX
 10
12.0
 20
9.0
  9
$UNITMODE
 70
     0
  9
$VISRETAIN
 70
     1
  9
$PLINEGEN
 70
     0
  9
$PSLTSCALE
 70
     1
  0
ENDSEC
  0
SECTION
  2
TABLES
  0
TABLE
  2
VPORT
 70
     1
  0
VPORT
  2
*ACTIVE
 70
     0
 10
0.0
 20
0.0
 11
1.0
 21
1.0
 12
0.0
 22
0.0
 13
0.0
 23
0.0
 14
1.0
 24
1.0
 15
0.0
 25
0.0
 16
0.0
 26
0.0
 36
61.328231071006357
 17
699.93780517578125
 27
26.2323112487793004
 37
0.0
 40
21.3438471756179702
 41
2.156179775280898
 42
50.0
 43
0.0
 44
0.0
 50
0.0
 51
0.0
 71
     0
 72
   100
 73
     1
 74
     1
 75
     0
 76
     0
 77
     0
 78
     0
  0
ENDTAB
  0
TABLE
  2
LTYPE
 70
     1
  0
LTYPE
  2
CONTINUOUS
 70
     0
  3
Solid line
 72
    65
 73
     0
 40
0.0
  0
ENDTAB
  0
TABLE
  2
LAYER
 70
     2
  0
LAYER
  2
0
 70
     0
 62
   255
  6
CONTINUOUS
  0
LAYER
  2
DEFPOINT
 70
     0
 62
     7
  6
CONTINUOUS
  0
ENDTAB
  0
TABLE
  2
STYLE
 70
     1
  0
STYLE
  2
STANDARD
 70
     0
 40
0.0
 41
0.8
 50
0.0
 71
     0
 42
0.2
  3
txt
  4

  0
ENDTAB
  0
TABLE
  2
VIEW
 70
     0
  0
ENDTAB
  0
TABLE
  2
UCS
 70
     0
  0
ENDTAB
  0
TABLE
  2
APPID
 70
    10
  0
APPID
  2
ACAD
 70
     0
  0
APPID
  2
ACADANNOTATIVE
 70
     0
  0
APPID
  2
ACAD_MLEADERVER
 70
     0
  0
APPID
  2
ACAD_EXEMPT_FROM_CAD_STANDARDS
 70
     0
  0
APPID
  2
ACAD_DSTYLE_DIMJAG
 70
     0
  0
APPID
  2
ACAD_DSTYLE_DIMTALN
 70
     0
  0
APPID
  2
ACAD_NAV_VCDISPLAY
 70
     0
  0
APPID
  2
ACAECLAYERSTANDARD
 70
     0
  0
APPID
  2
ACCMTRANSPARENCY
 70
     0
  0
APPID
  2
ACDBATTR
 70
     0
  0
ENDTAB
  0
TABLE
  2
DIMSTYLE
 70
     1
  0
DIMSTYLE
  2
STANDARD
 70
     0
  3

  4

  5

  6

  7

 40
1.0
 41
0.1875
 42
0.0625
 43
0.38
 44
0.125
 45
0.0
 46
0.0
 47
0.01
 48
0.01
140
0.15625
141
0.09
142
0.0
143
25.3999999999999986
144
1.0
145
0.0
146
1.0
147
0.09
 71
     1
 72
     0
 73
     1
 74
     1
 75
     0
 76
     0
 77
     0
 78
     4
170
     0
171
     2
172
     0
173
     0
174
     0
175
     0
176
     0
177
     0
178
     0
  0
ENDTAB
  0
ENDSEC
  0
SECTION
  2
BLOCKS
  0
BLOCK
  8
0
  2
$MODEL_SPACE
 70
     0
 10
0.0
 20
0.0
 30
0.0
  3
$MODEL_SPACE
  1

  0
ENDBLK
  5
1598
  8
0
  0
BLOCK
 67
     1
  8
0
  2
$PAPER_SPACE
 70
     0
 10
0.0
 20
0.0
 30
0.0
  3
$PAPER_SPACE
  1

  0
ENDBLK
  5
1594
 67
     1
  8
0
  0
ENDSEC
  0
SECTION
  2
ENTITIES
  0
ATTDEF
  5
659
  8
DEFPOINT
 10
699.9326803405732562
 20
21.6635235683116996
 30
0.0
 40
0.001
  1
K-26747T-4
  3

  2
MODELNUMBER
 70
     0
1001
ACDBATTR
1070
     0
1070
     1
  0
ATTDEF
  5
65A
  8
DEFPOINT
 10
699.9326803405732562
 20
21.6618569016450415
 30
0.0
 40
0.001
  1
ATOM
  3

  2
TRADENAME
 70
     0
1001
ACDBATTR
1070
     0
1070
     1
  0
ATTDEF
  5
65B
  8
DEFPOINT
 10
699.9326803405732562
 20
21.6601902349783693
 30
0.0
 40
0.001
  1
BATH AND SHOWER FAUCET
  3

  2
PRODUCT
 70
     0
1001
ACDBATTR
1070
     0
1070
     1
  0
LINE
  5
2DA4
  8
0
 10
700.0756223885011877
 20
18.4549022135019207
 30
0.0
 11
699.8000319313010777
 21
18.4549022135019207
 31
0.0
  0
LINE
  5
2DA5
  8
0
 10
699.4949138211012496
 20
19.7304927647019213
 30
0.0
 11
699.583496498201157
 21
19.7304927647019213
 31
0.0
  0
LINE
  5
2DA6
  8
0
 10
699.583496498201157
 20
19.8092329222019288
 30
0.0
 11
699.4949138210012052
 21
19.8092329222019288
 31
0.0
  0
LINE
  5
2DA7
  8
0
 10
699.4853729804011664
 20
19.8190754418019317
 30
0.0
 11
699.4854711919010697
 21
19.8190754418019317
 31
0.0
  0
LINE
  5
2DA8
  8
0
 10
699.4880642996012057
 20
19.8190754418019317
 30
0.0
 11
699.4883583286011799
 21
19.8190754418019317
 31
0.0
  0
LINE
  5
2DA9
  8
0
 10
699.4935285568011523
 20
19.8190754418019317
 30
0.0
 11
699.4940165905012464
 21
19.8190754418019317
 31
0.0
  0
LINE
  5
2DAA
  8
0
 10
699.5017320628012385
 20
19.8190754418019317
 30
0.0
 11
699.5024110924011893
 21
19.8190754418019317
 31
0.0
  0
LINE
  5
2DAB
  8
0
 10
699.5126242405012817
 20
19.8190754418019317
 30
0.0
 11
699.5134900794012083
 21
19.8190754418019317
 31
0.0
  0
LINE
  5
2DAC
  8
0
 10
699.5261379358012164
 20
19.8190754418019317
 30
0.0
 11
699.5271852459012507
 21
19.8190754418019317
 31
0.0
  0
LINE
  5
2DAD
  8
0
 10
699.5421898324011636
 20
19.8190754418019317
 30
0.0
 11
699.5434121567011516
 21
19.8190754418019317
 31
0.0
  0
LINE
  5
2DAE
  8
0
 10
699.5606809649010529
 20
19.8190754418019317
 30
0.0
 11
699.5620707674012237
 21
19.8190754418019317
 31
0.0
  0
LINE
  5
2DAF
  8
0
 10
699.5814973295010759
 20
19.8190754418019317
 30
0.0
 11
699.583046041501234
 21
19.8190754418019317
 31
0.0
  0
LINE
  5
2DB0
  8
0
 10
699.4949138210012052
 20
20.1714376466019303
 30
0.0
 11
699.583496498201157
 21
20.1714376466019303
 31
0.0
  0
LINE
  5
2DB1
  8
0
 10
699.583496498201157
 20
20.25017780410192
 30
0.0
 11
699.4949138211012496
 21
20.25017780410192
 31
0.0
  0
LINE
  5
2DB2
  8
0
 10
699.583496498201157
 20
20.3052959143019187
 30
0.0
 11
699.5303468919011038
 21
20.3052959143019187
 31
0.0
  0
LINE
  5
2DB3
  8
0
 10
699.5303468919011038
 20
20.3525400088019204
 30
0.0
 11
699.583496498201157
 21
20.3525400088019204
 31
0.0
  0
LINE
  5
2DB4
  8
0
 10
699.4752287816012313
 20
20.3840360718019298
 30
0.0
 11
699.583496498201157
 21
20.3840360718019298
 31
0.0
  0
LINE
  5
2DB5
  8
0
 10
696.9653862620010614
 20
21.0061268347019308
 30
0.0
 11
696.4240476793012249
 21
21.3186688111019294
 31
0.0
  0
LINE
  5
2DB6
  8
0
 10
699.0387671649011736
 20
21.0976846895019285
 30
0.0
 11
698.8233538003047443
 21
21.0995183365134089
 31
0.0
  0
LINE
  5
2DB7
  8
0
 10
697.0047563407010784
 20
22.3244857171019184
 30
0.0
 11
697.2129214545260538
 21
22.2043015325697688
 31
0.0
  0
LINE
  5
2DB8
  8
0
 10
696.404362639901251
 20
21.3527642995019313
 30
0.0
 11
696.404362639901251
 21
21.4471482058746012
 31
0.0
  0
LINE
  5
2DB9
  8
0
 10
696.404362639901251
 20
21.883450578495431
 30
0.0
 11
696.404362639901251
 21
21.9778482523019285
 31
0.0
  0
LINE
  5
2DBA
  8
0
 10
699.7803468919012175
 20
22.2344297726019313
 30
0.0
 11
700.0953074278012309
 21
22.2344297726019313
 31
0.0
  0
LINE
  5
2DBB
  8
0
 10
700.0821840682815491
 20
22.2608431370019311
 30
0.0
 11
699.7934702515012759
 21
22.2608431370019311
 31
0.0
  0
LINE
  5
2DBC
  8
0
 10
698.1922206004012423
 20
35.2113310332019296
 30
0.0
 11
698.1723943069010829
 21
34.7101232846019414
 31
0.0
  0
LINE
  5
2DBD
  8
0
 10
699.4964751140011003
 20
29.59349514390194
 30
0.0
 11
699.4851080386011972
 21
29.8543632925019295
 31
0.0
  0
LINE
  5
2DBE
  8
0
 10
699.4752287816012313
 20
20.6527297131019303
 30
0.0
 11
699.4752287816012313
 21
20.3840360718019298
 31
0.0
  0
LINE
  5
2DBF
  8
0
 10
699.4853729804011664
 20
19.8190754418019317
 30
0.0
 11
699.4853729804011664
 21
20.1615948178019302
 31
0.0
  0
LINE
  5
2DC0
  8
0
 10
699.4854711919010697
 20
20.1615948178019302
 30
0.0
 11
699.4854711920038426
 21
19.8190754419158495
 31
0.0
  0
LINE
  5
2DC1
  8
0
 10
699.4880642996012057
 20
19.8190754418019317
 30
0.0
 11
699.4880642996012057
 21
20.1615948178019302
 31
0.0
  0
LINE
  5
2DC2
  8
0
 10
699.4883583286011799
 20
20.1615948178019302
 30
0.0
 11
699.4883583285852637
 21
19.8190754418384607
 31
0.0
  0
LINE
  5
2DC3
  8
0
 10
699.4935285568011523
 20
19.8190754418019317
 30
0.0
 11
699.4935285568011523
 21
20.1615948178019302
 31
0.0
  0
LINE
  5
2DC4
  8
0
 10
699.4940165905012464
 20
20.1615948178019302
 30
0.0
 11
699.4940165904949936
 21
19.8190754417222195
 31
0.0
  0
LINE
  5
2DC5
  8
0
 10
699.4949138210012052
 20
20.25017780410192
 30
0.0
 11
699.4949138210012052
 21
20.1714376466019303
 31
0.0
  0
LINE
  5
2DC6
  8
0
 10
699.4949138210012052
 20
19.8092329222019288
 30
0.0
 11
699.4949138210012052
 21
19.7304927647019213
 31
0.0
  0
LINE
  5
2DC7
  8
0
 10
699.4985915167012536
 20
29.87487445980193
 30
0.0
 11
699.4985915167012536
 21
29.9951619935942517
 31
0.0
  0
LINE
  5
2DC8
  8
0
 10
699.5017320628012385
 20
19.8190754418019317
 30
0.0
 11
699.5017320628012385
 21
20.1615948178019302
 31
0.0
  0
LINE
  5
2DC9
  8
0
 10
699.5024110924011893
 20
20.1615948178019302
 30
0.0
 11
699.5024110924173328
 21
19.8190754417368282
 31
0.0
  0
LINE
  5
2DCA
  8
0
 10
699.5126242405012817
 20
19.8190754418019317
 30
0.0
 11
699.5126242405012817
 21
20.1615948178019302
 31
0.0
  0
LINE
  5
2DCB
  8
0
 10
699.5134900794012083
 20
20.1615948178019302
 30
0.0
 11
699.5134900794193982
 21
19.8190754418363184
 31
0.0
  0
LINE
  5
2DCC
  8
0
 10
699.5261379358012164
 20
19.8190754418019317
 30
0.0
 11
699.5261379358012164
 21
20.1615948178019302
 31
0.0
  0
LINE
  5
2DCD
  8
0
 10
699.5271852459012507
 20
20.1615948178019302
 30
0.0
 11
699.5271852459165984
 21
19.8190754418106714
 31
0.0
  0
LINE
  5
2DCE
  8
0
 10
699.5303468919011038
 20
20.3840360718019298
 30
0.0
 11
699.5303468919011038
 21
20.3525400088019204
 31
0.0
  0
LINE
  5
2DCF
  8
0
 10
699.5303468919011038
 20
20.3052959143019187
 30
0.0
 11
699.5303468919011038
 21
20.25017780410192
 31
0.0
  0
LINE
  5
2DD0
  8
0
 10
699.5421898324011636
 20
19.8190754418019317
 30
0.0
 11
699.5421898324011636
 21
20.1615948178019302
 31
0.0
  0
LINE
  5
2DD1
  8
0
 10
699.5434121567011516
 20
20.1615948178019302
 30
0.0
 11
699.5434121567174088
 21
19.8190754417860191
 31
0.0
  0
LINE
  5
2DD2
  8
0
 10
699.5606809649500519
 20
19.8190754418057509
 30
0.0
 11
699.5606809649010529
 21
20.1615948178019302
 31
0.0
  0
LINE
  5
2DD3
  8
0
 10
699.5620707674012237
 20
20.1615948178019302
 30
0.0
 11
699.5620707673734842
 21
19.8190754417995691
 31
0.0
  0
LINE
  5
2DD4
  8
0
 10
699.5736539785011701
 20
20.3525400088019204
 30
0.0
 11
699.5736539785011701
 21
20.3052959143019187
 31
0.0
  0
LINE
  5
2DD5
  8
0
 10
699.5795027507010673
 20
20.1714373375020095
 30
0.0
 11
699.5795027507225541
 21
19.8092329222547789
 31
0.0
  0
LINE
  5
2DD6
  8
0
 10
699.5814973294576475
 20
19.81907544186544
 30
0.0
 11
699.5814973295010759
 21
20.1615948178019302
 31
0.0
  0
LINE
  5
2DD7
  8
0
 10
699.583046041501234
 20
20.1615948178019302
 30
0.0
 11
699.583046041501234
 21
19.8190754418019317
 31
0.0
  0
LINE
  5
2DD8
  8
0
 10
699.583496498201157
 20
18.6714376466019303
 30
0.0
 11
699.583496498201157
 21
20.6124215097019317
 31
0.0
  0
LINE
  5
2DD9
  8
0
 10
699.7803468919012175
 20
22.2422839039019209
 30
0.0
 11
699.7803468919012175
 21
22.2344297726019313
 31
0.0
  0
LINE
  5
2DDA
  8
0
 10
699.8223546921011575
 20
22.2263262235351284
 30
0.0
 11
699.8223546921011575
 21
22.2344297726019313
 31
0.0
  0
LINE
  5
2DDB
  8
0
 10
699.8297306137011446
 20
22.22733274566259
 30
0.0
 11
699.8297306137011446
 21
22.2344297726019313
 31
0.0
  0
LINE
  5
2DDC
  8
0
 10
699.8473504590012908
 20
22.2344297726019313
 30
0.0
 11
699.8473504590012908
 21
22.2294642549845385
 31
0.0
  0
LINE
  5
2DDD
  8
0
 10
696.4240476793012249
 20
22.0119437407019198
 30
0.0
 11
696.9653862620010614
 21
22.3244857171019184
 31
0.0
  0
LINE
  5
2DDE
  8
0
 10
697.2129427988280668
 20
21.1263233423451595
 30
0.0
 11
697.0047563407010784
 21
21.0061268347019308
 31
0.0
  0
ARC
  5
2DDF
  8
0
 10
696.4140108508333924
 20
19.9738325496155618
 30
0.0
 40
3.1504733881096021
 50
357.0051612692026879
 51
357.1843917304112779
  0
ARC
  5
2DE0
  8
0
 10
696.4437327186011544
 20
21.3527642995019313
 30
0.0
 40
0.0393700787
 50
180.0
 51
239.999999999999801
  0
ARC
  5
2DE1
  8
0
 10
696.9850713013012182
 20
21.0402223231019292
 30
0.0
 40
0.0393700787
 50
240.0000000002023057
 51
300.0000000000001137
  0
ARC
  5
2DE2
  8
0
 10
696.9850713013012182
 20
21.6653062759019193
 30
0.0
 40
1.25
 50
26.4548927180260094
 51
333.5477904262735933
  0
ARC
  5
2DE3
  8
0
 10
696.9850713013012182
 20
21.6653062759019193
 30
0.0
 40
0.7096286611
 50
50.083004567968203
 51
309.9203397996424769
  0
ARC
  5
2DE4
  8
0
 10
696.9850713013012182
 20
21.6653062759019193
 30
0.0
 40
0.6671457977000002
 50
54.4441667438606913
 51
305.559169107109426
  0
ARC
  5
2DE5
  8
0
 10
696.9850713013012182
 20
21.6653062759019193
 30
0.0
 40
0.5807086614000001
 50
234.4851758971942957
 51
291.9231275122800753
  0
ARC
  5
2DE6
  8
0
 10
696.9850713013012182
 20
21.6653062759019193
 30
0.0
 40
0.5807086614000001
 50
68.0798790366307287
 51
125.5228307948254951
  0
ARC
  5
2DE7
  8
0
 10
696.4437327188207973
 20
21.9778482522430885
 30
0.0
 40
0.0393700789195855
 50
120.0000001004790988
 51
179.999999914372296
  0
ARC
  5
2DE8
  8
0
 10
696.9850713013012182
 20
22.2903902288019289
 30
0.0
 40
0.0393700787
 50
60.0000000002022489
 51
120.0000000000000995
  0
ARC
  5
2DE9
  8
0
 10
699.7909608364575433
 20
-84.1328097055066877
 30
0.0
 40
106.3683576704736993
 50
90.5212133085188668
 51
91.5685073500495861
  0
ARC
  5
2DEA
  8
0
 10
699.952496795699517
 20
-99.6220735226384022
 30
0.0
 40
121.8584517976816954
 50
90.0809419951294785
 51
90.5309118287821519
  0
ARC
  5
2DEB
  8
0
 10
698.7618381922396793
 20
19.9800553552152813
 30
0.0
 40
0.8353176843685726
 50
348.1997712466520056
 51
348.8886124838871865
  0
ARC
  5
2DEC
  8
0
 10
699.8048777394917579
 20
18.6762834548916317
 30
0.0
 40
0.22143426992504
 50
181.2539455911652055
 51
268.7460543989321877
  0
ARC
  5
2DED
  8
0
 10
699.922621862711253
 20
20.4459517074229815
 30
0.0
 40
0.7326485197768706
 50
238.8294364370883898
 51
240.3501042726454955
  0
ARC
  5
2DEE
  8
0
 10
699.8987087842772326
 20
20.4051967792646387
 30
0.0
 40
0.6939509793901339
 50
237.6306991094000978
 51
239.1819122945564118
  0
ARC
  5
2DEF
  8
0
 10
699.8752816301039275
 20
20.3589739963965393
 30
0.0
 40
0.6499104364550812
 50
236.1735555859831095
 51
237.7654897044772895
  0
ARC
  5
2DF0
  8
0
 10
699.8557864849510679
 20
20.3130433908307388
 30
0.0
 40
0.6073536883295688
 50
234.4207813542840881
 51
236.049197925477614
  0
ARC
  5
2DF1
  8
0
 10
699.838586633083878
 20
20.2652086051479117
 30
0.0
 40
0.5637049881654086
 50
232.319369447606789
 51
233.9876841394639939
  0
ARC
  5
2DF2
  8
0
 10
699.8251844054871071
 20
20.2177649033439693
 30
0.0
 40
0.5219244129325724
 50
229.8077676775712064
 51
231.5122891455764034
  0
ARC
  5
2DF3
  8
0
 10
699.8159776429079102
 20
20.1711463011028194
 30
0.0
 40
0.4828958522558467
 50
226.8095221529733863
 51
228.5440269161231015
  0
ARC
  5
2DF4
  8
0
 10
699.8445632278645689
 20
20.0556527545503904
 30
0.0
 40
0.4233133179996743
 50
213.9777191191874977
 51
215.5999045117521007
  0
ARC
  5
2DF5
  8
0
 10
699.8169789911509042
 20
20.0852485023263512
 30
0.0
 40
0.4231228810477455
 50
218.9813939918695098
 51
220.7174749427819904
  0
ARC
  5
2DF6
  8
0
 10
699.5047563407011921
 20
20.6124215097019317
 30
0.0
 40
0.0787401575
 50
0.0
 51
61.4281218577032391
  0
ARC
  5
2DF7
  8
0
 10
699.9378272068781826
 20
21.407658119035549
 30
0.0
 40
0.8267716535663806
 50
90.0000032590049699
 51
241.428121852022997
  0
ARC
  5
2DF8
  8
0
 10
699.9489046409314597
 20
20.4838348001734403
 30
0.0
 40
0.769119919292792
 50
239.8042050731974086
 51
241.2955468497335971
  0
ARC
  5
2DF9
  8
0
 10
699.9392872546015951
 20
26.5777948660000796
 30
0.0
 40
3.46313569090188
 50
98.0050492826071462
 51
101.2404588913016994
  0
ARC
  5
2DFA
  8
0
 10
699.9378272068012166
 20
21.8525400088019204
 30
0.0
 40
0.4330708661
 50
90.0000062115367854
 51
109.4712206344999004
  0
ARC
  5
2DFB
  8
0
 10
699.8013259980360772
 20
22.2413688605807387
 30
0.0
 40
0.0209990523237846
 50
111.9687016796611942
 51
177.5025193664625078
  0
ARC
  5
2DFC
  8
0
 10
699.9917124827634325
 20
31.7785380512590798
 30
0.0
 40
1.8502968546215119
 50
249.9378303593279043
 51
268.3311660748559007
  0
ARC
  5
2DFD
  8
0
 10
699.7989488366915793
 20
128.1011749895606044
 30
0.0
 40
107.0061040883724957
 50
268.4365644073108115
 51
269.477616225728184
  0
LINE
  5
2DFE
  8
0
 10
699.5017320628012385
 20
19.8190754418019317
 30
0.0
 11
699.5071511337112042
 21
19.8092329222019288
 31
0.0
  0
LINE
  5
2DFF
  8
0
 10
699.5126242405012817
 20
19.8190754418019317
 30
0.0
 11
699.5165910922531793
 21
19.8092329222019288
 31
0.0
  0
LINE
  5
2E00
  8
0
 10
699.5261379358012164
 20
19.8190754418019317
 30
0.0
 11
699.5286285949858893
 21
19.8092329222019288
 31
0.0
  0
LINE
  5
2E01
  8
0
 10
699.5421898324011636
 20
19.8190754418019317
 30
0.0
 11
699.5431879791595975
 21
19.8092329222019288
 31
0.0
  0
LINE
  5
2E02
  8
0
 10
699.4853729804011664
 20
20.1615948178019302
 30
0.0
 11
699.4854711919010697
 21
20.1615948178019302
 31
0.0
  0
LINE
  5
2E03
  8
0
 10
699.4880642996012057
 20
20.1615948178019302
 30
0.0
 11
699.4883583286011799
 21
20.1615948178019302
 31
0.0
  0
LINE
  5
2E04
  8
0
 10
699.4935285568011523
 20
20.1615948178019302
 30
0.0
 11
699.4940165905012464
 21
20.1615948178019302
 31
0.0
  0
LINE
  5
2E05
  8
0
 10
699.5017320628012385
 20
20.1615948178019302
 30
0.0
 11
699.5024110924011893
 21
20.1615948178019302
 31
0.0
  0
LINE
  5
2E06
  8
0
 10
699.5126242405012817
 20
20.1615948178019302
 30
0.0
 11
699.5134900794012083
 21
20.1615948178019302
 31
0.0
  0
LINE
  5
2E07
  8
0
 10
699.5261379358012164
 20
20.1615948178019302
 30
0.0
 11
699.5271852459012507
 21
20.1615948178019302
 31
0.0
  0
LINE
  5
2E08
  8
0
 10
699.5421898324011636
 20
20.1615948178019302
 30
0.0
 11
699.5434121567011516
 21
20.1615948178019302
 31
0.0
  0
LINE
  5
2E09
  8
0
 10
699.5606809649010529
 20
20.1615948178019302
 30
0.0
 11
699.5620707674012237
 21
20.1615948178019302
 31
0.0
  0
LINE
  5
2E0A
  8
0
 10
699.5814973295010759
 20
20.1615948178019302
 30
0.0
 11
699.583046041501234
 21
20.1615948178019302
 31
0.0
  0
ARC
  5
2E0B
  8
0
 10
696.4140108508333924
 20
20.0068377099882895
 30
0.0
 40
3.1504733881096021
 50
2.8156082695879161
 51
2.994838730796511
  0
ARC
  5
2E0C
  8
0
 10
698.7618381922396793
 20
20.0006149043885593
 30
0.0
 40
0.8353176843685726
 50
11.1113875161119804
 51
11.8002287533479802
  0
ARC
  5
2E0D
  8
0
 10
699.922621862711253
 20
19.5347185521808804
 30
0.0
 40
0.7326485197768706
 50
119.6498957273545045
 51
121.170563562911596
  0
ARC
  5
2E0E
  8
0
 10
699.8987087842772326
 20
19.575473480339209
 30
0.0
 40
0.6939509793901339
 50
120.8180877054436024
 51
122.3693008906000017
  0
ARC
  5
2E0F
  8
0
 10
699.8752816301039275
 20
19.6216962632073084
 30
0.0
 40
0.6499104364550812
 50
122.2345102955226963
 51
123.8264444140168052
  0
ARC
  5
2E10
  8
0
 10
699.8557864849510679
 20
19.6676268687731088
 30
0.0
 40
0.6073536883295688
 50
123.9508020745224002
 51
125.5792186457157982
  0
ARC
  5
2E11
  8
0
 10
699.838586633083878
 20
19.7154616544559502
 30
0.0
 40
0.5637049881654086
 50
126.0123158605360061
 51
127.6806305523931968
  0
ARC
  5
2E12
  8
0
 10
699.8251844054871071
 20
19.7629053562598784
 30
0.0
 40
0.5219244129325724
 50
128.4877108544235114
 51
130.1922323224287936
  0
ARC
  5
2E13
  8
0
 10
699.8159776429079102
 20
19.8095239585010283
 30
0.0
 40
0.4828958522558467
 50
131.4559730838768132
 51
133.1904778470266137
  0
ARC
  5
2E14
  8
0
 10
699.8445632278645689
 20
19.9250175050534608
 30
0.0
 40
0.4233133179996743
 50
144.400095488247814
 51
146.0222808808125023
  0
ARC
  5
2E15
  8
0
 10
699.8169789911509042
 20
19.8954217572775001
 30
0.0
 40
0.4231228810477455
 50
139.2825250572178959
 51
141.0186060081304049
  0
ARC
  5
2E16
  8
0
 10
699.9489046409314597
 20
19.496835459430411
 30
0.0
 40
0.769119919292792
 50
118.7044531502664029
 51
120.1957949268025061
  0
LINE
  5
2E17
  8
0
 10
699.5017320628012385
 20
20.1615948178019302
 30
0.0
 11
699.5071511337112042
 21
20.1714373374019189
 31
0.0
  0
LINE
  5
2E18
  8
0
 10
699.5126242405012817
 20
20.1615948178019302
 30
0.0
 11
699.5165910922531793
 21
20.1714373374019189
 31
0.0
  0
LINE
  5
2E19
  8
0
 10
699.5261379358012164
 20
20.1615948178019302
 30
0.0
 11
699.5286285949858893
 21
20.1714373374019189
 31
0.0
  0
LINE
  5
2E1A
  8
0
 10
699.5421898324011636
 20
20.1615948178019302
 30
0.0
 11
699.5431879791595975
 21
20.1714373374019189
 31
0.0
  0
ARC
  5
2E1B
  8
0
 10
699.3374336049157591
 20
20.652729835875359
 30
0.0
 40
0.1377951766854243
 50
359.9999489503211976
 51
51.5048132321920065
  0
ARC
  5
2E1C
  8
0
 10
696.888915319859052
 20
21.6637399164300213
 30
0.0
 40
0.5320376628392748
 50
91.0220732128422441
 51
179.8360381424566015
  0
ARC
  5
2E1D
  8
0
 10
696.8889154818725729
 20
21.6668594317146592
 30
0.0
 40
0.5320380432099882
 50
180.171982876204396
 51
268.9779100677317842
  0
ARC
  5
2E1E
  8
0
 10
699.0371248014399725
 20
20.8811745986672683
 30
0.0
 40
0.2165163199183126
 50
30.3061581295227498
 51
89.5653842758618737
  0
ARC
  5
2E1F
  8
0
 10
700.0063247202859884
 20
31.5050356645249785
 30
0.0
 40
4.53731875614094
 50
90.8649976822870684
 51
97.5786360434406248
  0
ARC
  5
2E20
  8
0
 10
699.7206626595711896
 20
33.6420249471057389
 30
0.0
 40
2.3813218507313869
 50
97.5467295396916541
 51
117.740987752916098
  0
ARC
  5
2E21
  8
0
 10
699.0371186953118467
 20
34.9248629820676371
 30
0.0
 40
0.9277924681957985
 50
117.2562934372997034
 51
146.4919997846434114
  0
ARC
  5
2E22
  8
0
 10
698.6671610053916766
 20
35.1854381571072992
 30
0.0
 40
0.4756456972633119
 50
148.0621924426554017
 51
176.8794288711096101
  0
ARC
  5
2E23
  8
0
 10
698.6520121513551658
 20
34.6978081326396506
 30
0.0
 40
0.4797759265392933
 50
178.5291389172249978
 51
213.6867940342434906
  0
ARC
  5
2E24
  8
0
 10
699.0688087536426565
 20
35.0006480374976903
 30
0.0
 40
0.9947735241595395
 50
214.8854875173576886
 51
247.2691496107437956
  0
ARC
  5
2E25
  8
0
 10
699.7473691243610574
 20
36.3634401906645479
 30
0.0
 40
2.515874649610319
 50
245.007814719336892
 51
256.6552794301207996
  0
ARC
  5
2E26
  8
0
 10
699.1489431819611582
 20
33.6086081905964278
 30
0.0
 40
0.3032055346048356
 50
34.3477049448887612
 51
77.7651123844243841
  0
ARC
  5
2E27
  8
0
 10
699.2715938213422078
 20
33.7228009914956885
 30
0.0
 40
0.1397808185342815
 50
358.3361154273231932
 51
24.0116330473019985
  0
ARC
  5
2E28
  8
0
 10
908.2139050386085728
 20
26.5667704152803203
 30
0.0
 40
208.9250392246322861
 50
178.0382539108811955
 51
179.0317673846857929
  0
ARC
  5
2E29
  8
0
 10
699.3836822139221567
 20
30.0998233965943918
 30
0.0
 40
0.0650387859933401
 50
182.3164074229781875
 51
245.7672826041784049
  0
ARC
  5
2E2A
  8
0
 10
699.2950461168132961
 20
29.8212909435808804
 30
0.0
 40
0.156277582641213
 50
101.3731046584516946
 51
141.6164195624486979
  0
ARC
  5
2E2B
  8
0
 10
700.1533337498699439
 20
29.2409291501323807
 30
0.0
 40
1.191979723378056
 50
145.3684640534995935
 51
212.3349421593310922
  0
ARC
  5
2E2C
  8
0
 10
699.8658007726960477
 20
29.0464163937148498
 30
0.0
 40
0.8450601855421993
 50
211.6190364249519007
 51
256.6685350031414146
  0
ARC
  5
2E2D
  8
0
 10
699.5334571001038739
 20
29.8543630466943917
 30
0.0
 40
0.0483490615033574
 50
136.1472123175836941
 51
179.9997087071783994
  0
ARC
  5
2E2E
  8
0
 10
699.605265543034875
 20
29.8965981664911915
 30
0.0
 40
0.1088635261535486
 50
191.5106401514711933
 51
251.8283468639772025
  0
ARC
  5
2E2F
  8
0
 10
699.8222311680524399
 20
30.3718173590066414
 30
0.0
 40
0.6307128191559942
 50
246.5574231220516879
 51
263.5629217753267994
  0
ARC
  5
2E30
  8
0
 10
699.9584345820601357
 20
31.3053446230081818
 30
0.0
 40
1.5739239156013209
 50
262.4458165415500162
 51
269.2498035993543795
  0
ARC
  5
2E31
  8
0
 10
699.5631772830107593
 20
29.871114289396111
 30
0.0
 40
0.0798461196279075
 50
192.1101043108342878
 51
245.8262583461703912
  0
ARC
  5
2E32
  8
0
 10
699.7704196967638381
 20
30.2530523123806887
 30
0.0
 40
0.5141964769682624
 50
242.1841989298231965
 51
261.2906816561242067
  0
ARC
  5
2E33
  8
0
 10
699.9493324715050449
 20
31.29285854344079
 30
0.0
 40
1.569224174154189
 50
260.5823028620301898
 51
269.5799123434396165
  0
ARC
  5
2E34
  8
0
 10
699.6707267728368151
 20
30.0478379099153514
 30
0.0
 40
0.4866117443039732
 50
249.016949003841404
 51
254.7081995926172908
  0
ARC
  5
2E35
  8
0
 10
699.5297537317653678
 20
29.5358717319253614
 30
0.0
 40
0.0444182283944701
 50
27.794101333143189
 51
73.4717064809191953
  0
ARC
  5
2E36
  8
0
 10
699.5244590835062581
 20
29.5912361875681107
 30
0.0
 40
0.0403110449863789
 50
136.2125495212490023
 51
167.8936874262292065
  0
ARC
  5
2E37
  8
0
 10
699.5183213770692419
 20
29.6474446609149389
 30
0.0
 40
0.0582048932304894
 50
235.1298363003614043
 51
247.9550555161179943
  0
ARC
  5
2E38
  8
0
 10
699.5216280422542923
 20
29.7313826801712402
 30
0.0
 40
0.035425227685875
 50
154.1037249189380134
 51
172.2145720828171136
  0
ARC
  5
2E39
  8
0
 10
699.66172284744232
 20
30.025088736684161
 30
0.0
 40
0.3378759342494503
 50
238.7673554197058081
 51
239.5235147613715867
  0
ARC
  5
2E3A
  8
0
 10
-2827.9918855741889274
 20
15.8117344759398293
 30
0.0
 40
3527.5877106905782057
 50
0.2089529447080294
 51
0.2232471340208317
  0
ARC
  5
2E3B
  8
0
 10
699.9499109545912461
 20
29.6902695548033684
 30
0.0
 40
1.08176593532136
 50
249.5733870538016959
 51
269.3599679785307899
  0
ARC
  5
2E3C
  8
0
 10
510.2949899204671738
 20
27.863249644550919
 30
0.0
 40
189.27912396749241
 50
0.1263055778860289
 51
0.2461834799874719
  0
ARC
  5
2E3D
  8
0
 10
699.7456479656030979
 20
28.5141353191656783
 30
0.0
 40
0.2901118806524734
 50
233.6402010866985961
 51
255.0076144447722868
  0
ARC
  5
2E3E
  8
0
 10
699.9671712811154975
 20
30.4349361453687699
 30
0.0
 40
1.3063121207505941
 50
252.3205454141088921
 51
268.7128376866684789
  0
ARC
  5
2E3F
  8
0
 10
699.9425705431018514
 20
30.1706409729479184
 30
0.0
 40
1.114598942866819
 50
250.5115655007789996
 51
269.7561664103740782
  0
ARC
  5
2E40
  8
0
 10
698.6694784056193157
 20
34.6692060383336269
 30
0.0
 40
0.4987652977508882
 50
138.5035350153258946
 51
175.2943334708301109
  0
ARC
  5
2E41
  8
0
 10
699.4094706843005724
 20
33.8450957956824965
 30
0.0
 40
1.604082798667112
 50
106.3993774360555022
 51
133.9640731018220094
  0
ARC
  5
2E42
  8
0
 10
699.9970957953391917
 20
31.5935218143989296
 30
0.0
 40
3.930619847276454
 50
90.863978583514367
 51
105.3502217815759963
  0
ARC
  5
2E43
  8
0
 10
700.0168144688310576
 20
30.2461707133638988
 30
0.0
 40
5.1774320365894191
 50
90.8741428147362456
 51
94.6180657357751755
  0
ARC
  5
2E44
  8
0
 10
699.8675738152479653
 20
32.4842528407009823
 30
0.0
 40
2.9347683072338859
 50
95.2318648326214969
 51
106.9950906429280053
  0
ARC
  5
2E45
  8
0
 10
699.4379837119779495
 20
33.7936535188386387
 30
0.0
 40
1.5572382707451751
 50
105.9609466939876938
 51
128.2901360635721915
  0
ARC
  5
2E46
  8
0
 10
698.8584532576237507
 20
34.5385182192040503
 30
0.0
 40
0.6135405101862026
 50
128.9146400410922979
 51
156.7585231308889036
  0
ARC
  5
2E47
  8
0
 10
698.6447009095011254
 20
34.6390497576458714
 30
0.0
 40
0.3775490169488497
 50
157.9764945319732021
 51
194.1092939161680135
  0
ARC
  5
2E48
  8
0
 10
698.7682774275361908
 20
34.6793416860059622
 30
0.0
 40
0.5072985853909843
 50
195.120398376424987
 51
227.3270579737611001
  0
ARC
  5
2E49
  8
0
 10
699.1660227273332566
 20
35.0669013050013021
 30
0.0
 40
1.062259134118658
 50
225.7225581327693078
 51
242.8900043580783006
  0
ARC
  5
2E4A
  8
0
 10
699.7062492878900457
 20
36.1385712634030583
 30
0.0
 40
2.2623820110996329
 50
243.0796049411572994
 51
247.7177239245469025
  0
ARC
  5
2E4B
  8
0
 10
699.7062492878900457
 20
36.1385712634030583
 30
0.0
 40
2.2623820110996329
 50
249.9886016906878012
 51
255.577257196202396
  0
ARC
  5
2E4C
  8
0
 10
699.7062492878900457
 20
36.1385712634030583
 30
0.0
 40
2.2623820110996329
 50
258.9527683011514227
 51
260.5709425824566097
  0
ARC
  5
2E4D
  8
0
 10
699.929891926846949
 20
37.2275401972607867
 30
0.0
 40
3.3735408439375871
 50
259.8538764052574948
 51
262.5449490827007821
  0
ARC
  5
2E4E
  8
0
 10
699.929891926846949
 20
37.2275401972607867
 30
0.0
 40
3.3735408439375871
 50
265.0174740986699931
 51
268.8736397196677785
  0
ARC
  5
2E4F
  8
0
 10
700.097636405017397
 20
28.0954006132854488
 30
0.0
 40
7.347071340364085
 50
91.2463629415931621
 51
93.6477977832959567
  0
ARC
  5
2E50
  8
0
 10
700.0095787755927859
 20
31.6323710136940583
 30
0.0
 40
3.8141311241730498
 50
95.7085618143789247
 51
104.421643334167797
  0
ARC
  5
2E51
  8
0
 10
699.5578944014241642
 20
33.4735327282919286
 30
0.0
 40
1.9186074230680401
 50
105.0517845749239996
 51
120.4414998763668052
  0
ARC
  5
2E52
  8
0
 10
698.9528450214451141
 20
34.4557937207084422
 30
0.0
 40
0.7655761722099508
 50
118.6472363646987986
 51
154.4124895884804971
  0
ARC
  5
2E53
  8
0
 10
698.6284441848582674
 20
34.6398369415596505
 30
0.0
 40
0.3943547921878952
 50
158.1765043860613957
 51
186.3157914316481936
  0
ARC
  5
2E54
  8
0
 10
698.6557743166302998
 20
34.64871424279211
 30
0.0
 40
0.4225356661426043
 50
187.104584750292787
 51
209.7076648054330974
  0
ARC
  5
2E55
  8
0
 10
698.8867878628866492
 20
34.7868355969367613
 30
0.0
 40
0.6916572031057546
 50
210.1618640825039961
 51
231.8202572234924901
  0
ARC
  5
2E56
  8
0
 10
699.2874431057952052
 20
35.2811833304152529
 30
0.0
 40
1.3279421535987741
 50
231.4158071455655943
 51
247.1358318440844073
  0
ARC
  5
2E57
  8
0
 10
699.6010322011344442
 20
35.9481677250026124
 30
0.0
 40
2.064579981547328
 50
246.3089484716068966
 51
251.9614271345581074
  0
ARC
  5
2E58
  8
0
 10
699.7816308783437762
 20
36.391575448455761
 30
0.0
 40
2.542350103338507
 50
251.185750987881903
 51
255.6152671836204888
  0
ARC
  5
2E59
  8
0
 10
699.7816308783437762
 20
36.391575448455761
 30
0.0
 40
2.542350103338507
 50
257.7800291469196168
 51
261.8634972481772252
  0
ARC
  5
2E5A
  8
0
 10
699.9321817173433828
 20
37.3461446400141028
 30
0.0
 40
3.5086457231863908
 50
261.6359671865599239
 51
262.8873270315119157
  0
ARC
  5
2E5B
  8
0
 10
699.9321817173433828
 20
37.3461446400141028
 30
0.0
 40
3.5086457231863908
 50
264.927212733428405
 51
269.0069030096552751
  0
LINE
  5
2E5C
  8
0
 10
700.3807404986010852
 20
19.7304927647019213
 30
0.0
 11
700.2921578215010641
 21
19.7304927647019213
 31
0.0
  0
LINE
  5
2E5D
  8
0
 10
700.2921578215010641
 20
19.8092329222019288
 30
0.0
 11
700.3807404987012433
 21
19.8092329222019288
 31
0.0
  0
LINE
  5
2E5E
  8
0
 10
700.3902813393011684
 20
19.8190754418019317
 30
0.0
 11
700.3901831278011514
 21
19.8190754418019317
 31
0.0
  0
LINE
  5
2E5F
  8
0
 10
700.3875900201012428
 20
19.8190754418019317
 30
0.0
 11
700.3872959911012686
 21
19.8190754418019317
 31
0.0
  0
LINE
  5
2E60
  8
0
 10
700.3821257629010688
 20
19.8190754418019317
 30
0.0
 11
700.3816377292012021
 21
19.8190754418019317
 31
0.0
  0
LINE
  5
2E61
  8
0
 10
700.3739222569012099
 20
19.8190754418019317
 30
0.0
 11
700.3732432273011455
 21
19.8190754418019317
 31
0.0
  0
LINE
  5
2E62
  8
0
 10
700.3630300792011667
 20
19.8190754418019317
 30
0.0
 11
700.3621642403012402
 21
19.8190754418019317
 31
0.0
  0
LINE
  5
2E63
  8
0
 10
700.3495163839012321
 20
19.8190754418019317
 30
0.0
 11
700.3484690738010841
 21
19.8190754418019317
 31
0.0
  0
LINE
  5
2E64
  8
0
 10
700.3334644873010575
 20
19.8190754418019317
 30
0.0
 11
700.3322421630010695
 21
19.8190754418019317
 31
0.0
  0
LINE
  5
2E65
  8
0
 10
700.3149733548011682
 20
19.8190754418019317
 30
0.0
 11
700.313583552301111
 21
19.8190754418019317
 31
0.0
  0
LINE
  5
2E66
  8
0
 10
700.2941569902011452
 20
19.8190754418019317
 30
0.0
 11
700.2926082782011008
 21
19.8190754418019317
 31
0.0
  0
LINE
  5
2E67
  8
0
 10
700.3807404987012433
 20
20.1714376466019303
 30
0.0
 11
700.2921578215010641
 21
20.1714376466019303
 31
0.0
  0
LINE
  5
2E68
  8
0
 10
700.2921578215010641
 20
20.25017780410192
 30
0.0
 11
700.3807404986010852
 21
20.25017780410192
 31
0.0
  0
LINE
  5
2E69
  8
0
 10
700.2921578215010641
 20
20.3052959143019187
 30
0.0
 11
700.3453074278012309
 21
20.3052959143019187
 31
0.0
  0
LINE
  5
2E6A
  8
0
 10
700.3453074278012309
 20
20.3525400088019204
 30
0.0
 11
700.2921578215010641
 21
20.3525400088019204
 31
0.0
  0
LINE
  5
2E6B
  8
0
 10
700.4004255381012172
 20
20.3840360718019298
 30
0.0
 11
700.2921578215010641
 21
20.3840360718019298
 31
0.0
  0
LINE
  5
2E6C
  8
0
 10
702.9102680577011597
 20
21.0061268347019308
 30
0.0
 11
703.4516066404012236
 21
21.3186688111019294
 31
0.0
  0
LINE
  5
2E6D
  8
0
 10
700.8368871548012748
 20
21.0976846895019285
 30
0.0
 11
701.0245452704868967
 21
21.0992820775918091
 31
0.0
  0
LINE
  5
2E6E
  8
0
 10
702.8708979790012563
 20
22.3244857171019184
 30
0.0
 11
702.6627328651762809
 21
22.2043015325697688
 31
0.0
  0
LINE
  5
2E6F
  8
0
 10
703.4712916798011975
 20
21.3527642995019313
 30
0.0
 11
703.4712916798011975
 21
21.4471482058746012
 31
0.0
  0
LINE
  5
2E70
  8
0
 10
703.4712916798011975
 20
21.883450578495431
 30
0.0
 11
703.4712916798011975
 21
21.9778482523019285
 31
0.0
  0
LINE
  5
2E71
  8
0
 10
701.6834337193012061
 20
35.2113310332019296
 30
0.0
 11
701.7032600128012518
 21
34.7101232846019414
 31
0.0
  0
LINE
  5
2E72
  8
0
 10
700.3791792057012344
 20
29.59349514390194
 30
0.0
 11
700.3905462811012512
 21
29.8543632925019295
 31
0.0
  0
LINE
  5
2E73
  8
0
 10
700.4004255381012172
 20
20.6527297131019303
 30
0.0
 11
700.4004255381012172
 21
20.3840360718019298
 31
0.0
  0
LINE
  5
2E74
  8
0
 10
700.3902813393011684
 20
19.8190754418019317
 30
0.0
 11
700.3902813393011684
 21
20.1615948178019302
 31
0.0
  0
LINE
  5
2E75
  8
0
 10
700.3901831278011514
 20
20.1615948178019302
 30
0.0
 11
700.3901831276983785
 21
19.8190754419158495
 31
0.0
  0
LINE
  5
2E76
  8
0
 10
700.3875900201012428
 20
19.8190754418019317
 30
0.0
 11
700.3875900201012428
 21
20.1615948178019302
 31
0.0
  0
LINE
  5
2E77
  8
0
 10
700.3872959911012686
 20
20.1615948178019302
 30
0.0
 11
700.3872959911171847
 21
19.8190754418384607
 31
0.0
  0
LINE
  5
2E78
  8
0
 10
700.3821257629010688
 20
19.8190754418019317
 30
0.0
 11
700.3821257629010688
 21
20.1615948178019302
 31
0.0
  0
LINE
  5
2E79
  8
0
 10
700.3816377292012021
 20
20.1615948178019302
 30
0.0
 11
700.3816377292073412
 21
19.8190754417222195
 31
0.0
  0
LINE
  5
2E7A
  8
0
 10
700.3807404987012433
 20
20.25017780410192
 30
0.0
 11
700.3807404987012433
 21
20.1714376466019303
 31
0.0
  0
LINE
  5
2E7B
  8
0
 10
700.3807404987012433
 20
19.8092329222019288
 30
0.0
 11
700.3807404987012433
 21
19.7304927647019213
 31
0.0
  0
LINE
  5
2E7C
  8
0
 10
700.3770628030011949
 20
29.87487445980193
 30
0.0
 11
700.3770628030011949
 21
29.9951619935942517
 31
0.0
  0
LINE
  5
2E7D
  8
0
 10
700.3739222569012099
 20
19.8190754418019317
 30
0.0
 11
700.3739222569012099
 21
20.1615948178019302
 31
0.0
  0
LINE
  5
2E7E
  8
0
 10
700.3732432273011455
 20
20.1615948178019302
 30
0.0
 11
700.3732432272852293
 21
19.8190754417368282
 31
0.0
  0
LINE
  5
2E7F
  8
0
 10
700.3630300792011667
 20
19.8190754418019317
 30
0.0
 11
700.3630300792011667
 21
20.1615948178019302
 31
0.0
  0
LINE
  5
2E80
  8
0
 10
700.3621642403012402
 20
20.1615948178019302
 30
0.0
 11
700.3621642402829366
 21
19.8190754418363184
 31
0.0
  0
LINE
  5
2E81
  8
0
 10
700.3495163839012321
 20
19.8190754418019317
 30
0.0
 11
700.3495163839012321
 21
20.1615948178019302
 31
0.0
  0
LINE
  5
2E82
  8
0
 10
700.3484690738010841
 20
20.1615948178019302
 30
0.0
 11
700.34846907378585
 21
19.8190754418106714
 31
0.0
  0
LINE
  5
2E83
  8
0
 10
700.3453074278012309
 20
20.3840360718019298
 30
0.0
 11
700.3453074278012309
 21
20.3525400088019204
 31
0.0
  0
LINE
  5
2E84
  8
0
 10
700.3453074278012309
 20
20.3052959143019187
 30
0.0
 11
700.3453074278012309
 21
20.25017780410192
 31
0.0
  0
LINE
  5
2E85
  8
0
 10
700.3334644873010575
 20
19.8190754418019317
 30
0.0
 11
700.3334644873010575
 21
20.1615948178019302
 31
0.0
  0
LINE
  5
2E86
  8
0
 10
700.3322421630010695
 20
20.1615948178019302
 30
0.0
 11
700.3322421629850396
 21
19.8190754417860191
 31
0.0
  0
LINE
  5
2E87
  8
0
 10
700.3149733547521691
 20
19.8190754418057509
 30
0.0
 11
700.3149733548011682
 21
20.1615948178019302
 31
0.0
  0
LINE
  5
2E88
  8
0
 10
700.313583552301111
 20
20.1615948178019302
 30
0.0
 11
700.3135835523288506
 21
19.8190754417995691
 31
0.0
  0
LINE
  5
2E89
  8
0
 10
700.302000341201051
 20
20.3525400088019204
 30
0.0
 11
700.302000341201051
 21
20.3052959143019187
 31
0.0
  0
LINE
  5
2E8A
  8
0
 10
700.2961515690011538
 20
20.1714373375020095
 30
0.0
 11
700.2961515689798944
 21
19.8092329222547789
 31
0.0
  0
LINE
  5
2E8B
  8
0
 10
700.2941569902445735
 20
19.81907544186544
 30
0.0
 11
700.2941569902011452
 21
20.1615948178019302
 31
0.0
  0
LINE
  5
2E8C
  8
0
 10
700.2926082782011008
 20
20.1615948178019302
 30
0.0
 11
700.2926082782011008
 21
19.8190754418019317
 31
0.0
  0
LINE
  5
2E8D
  8
0
 10
700.2921578215010641
 20
18.6714376466019303
 30
0.0
 11
700.2921578215010641
 21
20.6124215097019317
 31
0.0
  0
LINE
  5
2E8E
  8
0
 10
700.0953074278012309
 20
22.2422839039019209
 30
0.0
 11
700.0953074278012309
 21
22.2344297726019313
 31
0.0
  0
LINE
  5
2E8F
  8
0
 10
700.0532996276012909
 20
22.2263262235351284
 30
0.0
 11
700.0532996276012909
 21
22.2344297726019313
 31
0.0
  0
LINE
  5
2E90
  8
0
 10
700.0459237060010764
 20
22.22733274566259
 30
0.0
 11
700.0459237060010764
 21
22.2344297726019313
 31
0.0
  0
LINE
  5
2E91
  8
0
 10
700.0283038607012713
 20
22.2344297726019313
 30
0.0
 11
700.0283038607012713
 21
22.2294642549845385
 31
0.0
  0
LINE
  5
2E92
  8
0
 10
703.4516066404012236
 20
22.0119437407019198
 30
0.0
 11
702.9102680577011597
 21
22.3244857171019184
 31
0.0
  0
LINE
  5
2E93
  8
0
 10
702.6627115208741543
 20
21.1263233423451595
 30
0.0
 11
702.8708979790012563
 21
21.0061268347019308
 31
0.0
  0
ARC
  5
2E94
  8
0
 10
703.4616434688690561
 20
19.9738325496155618
 30
0.0
 40
3.1504733881096021
 50
182.8156082695878979
 51
182.9948387307964879
  0
ARC
  5
2E95
  8
0
 10
703.4319216011010667
 20
21.3527642995019313
 30
0.0
 40
0.0393700787
 50
300.0000000000001137
 51
0.0
  0
ARC
  5
2E96
  8
0
 10
702.8905830184012302
 20
21.0402223231019292
 30
0.0
 40
0.0393700787
 50
239.999999999999801
 51
299.999999999797808
  0
ARC
  5
2E97
  8
0
 10
702.8905830184012302
 20
21.6653062759019193
 30
0.0
 40
1.25
 50
206.4522095737264067
 51
153.5451072819739977
  0
ARC
  5
2E98
  8
0
 10
702.8905830184012302
 20
21.6653062759019193
 30
0.0
 40
0.7096286611
 50
230.0796602003574947
 51
129.916995432031797
  0
ARC
  5
2E99
  8
0
 10
702.8905830184012302
 20
21.6653062759019193
 30
0.0
 40
0.6671457977000002
 50
234.4408308928852875
 51
125.5558332561392945
  0
ARC
  5
2E9A
  8
0
 10
702.8905830184012302
 20
21.6653062759019193
 30
0.0
 40
0.5807086614000001
 50
248.0768724877198963
 51
305.5148241028056759
  0
ARC
  5
2E9B
  8
0
 10
702.8905830184012302
 20
21.6653062759019193
 30
0.0
 40
0.5807086614000001
 50
54.4771692051744623
 51
111.9201209633692997
  0
ARC
  5
2E9C
  8
0
 10
703.4319216008816511
 20
21.9778482522430885
 30
0.0
 40
0.0393700789195855
 50
0.0000000856276565
 51
59.9999998995209012
  0
ARC
  5
2E9D
  8
0
 10
702.8905830184012302
 20
22.2903902288019289
 30
0.0
 40
0.0393700787
 50
59.9999999999998579
 51
119.9999999997976943
  0
ARC
  5
2E9E
  8
0
 10
700.0846934832450188
 20
-84.1328097055066877
 30
0.0
 40
106.3683576704736993
 50
88.4314926499504281
 51
89.2135302183818339
  0
ARC
  5
2E9F
  8
0
 10
699.9231575240029315
 20
-99.6220735226384022
 30
0.0
 40
121.8584517976816954
 50
89.4956301559301153
 51
89.9190580048705357
  0
ARC
  5
2EA0
  8
0
 10
701.1138161274627691
 20
19.9800553552152813
 30
0.0
 40
0.8353176843685726
 50
191.1113875161119893
 51
191.8002287533471133
  0
ARC
  5
2EA1
  8
0
 10
700.0707765802106906
 20
18.6762834548916317
 30
0.0
 40
0.22143426992504
 50
271.2539456010678123
 51
358.7460544088347092
  0
ARC
  5
2EA2
  8
0
 10
699.9530324569911954
 20
20.4459517074229815
 30
0.0
 40
0.7326485197768706
 50
299.6498957273544761
 51
301.1705635629115818
  0
ARC
  5
2EA3
  8
0
 10
699.9769455354252159
 20
20.4051967792646387
 30
0.0
 40
0.6939509793901339
 50
300.8180877054435882
 51
302.3693008906000159
  0
ARC
  5
2EA4
  8
0
 10
700.000372689598521
 20
20.3589739963965393
 30
0.0
 40
0.6499104364550812
 50
302.2345102955226821
 51
303.8264444140168052
  0
ARC
  5
2EA5
  8
0
 10
700.0198678347513805
 20
20.3130433908307388
 30
0.0
 40
0.6073536883295688
 50
303.9508020745224144
 51
305.5792186457157982
  0
ARC
  5
2EA6
  8
0
 10
700.0370676866184567
 20
20.2652086051479117
 30
0.0
 40
0.5637049881654086
 50
306.0123158605359777
 51
307.680630552393211
  0
ARC
  5
2EA7
  8
0
 10
700.0504699142153413
 20
20.2177649033439693
 30
0.0
 40
0.5219244129325724
 50
308.4877108544234829
 51
310.192232322428822
  0
ARC
  5
2EA8
  8
0
 10
700.0596766767945383
 20
20.1711463011028194
 30
0.0
 40
0.4828958522558467
 50
311.4559730838769269
 51
313.1904778470266137
  0
ARC
  5
2EA9
  8
0
 10
700.0310910918376521
 20
20.0556527545503904
 30
0.0
 40
0.4233133179996743
 50
324.400095488247814
 51
326.0222808808125023
  0
ARC
  5
2EAA
  8
0
 10
700.0586753285515442
 20
20.0852485023263512
 30
0.0
 40
0.4231228810477455
 50
319.2825250572179243
 51
321.0186060081304049
  0
ARC
  5
2EAB
  8
0
 10
700.3708979790012563
 20
20.6124215097019317
 30
0.0
 40
0.0787401575
 50
118.571878142296697
 51
180.0
  0
ARC
  5
2EAC
  8
0
 10
699.9378271128241522
 20
21.407658119035549
 30
0.0
 40
0.8267716535663808
 50
298.5718781479769746
 51
89.9999967409950443
  0
ARC
  5
2EAD
  8
0
 10
699.9267496787708751
 20
20.4838348001734403
 30
0.0
 40
0.769119919292792
 50
298.7044531502663745
 51
300.1957949268024777
  0
ARC
  5
2EAE
  8
0
 10
699.9363670651008533
 20
26.5777948660000796
 30
0.0
 40
3.46313569090188
 50
78.7595411086982722
 51
81.9949507173928822
  0
ARC
  5
2EAF
  8
0
 10
699.9378271129012319
 20
21.8525400088019204
 30
0.0
 40
0.4330708661
 50
70.5287793655000854
 51
89.9999937884567061
  0
ARC
  5
2EB0
  8
0
 10
700.0743283216663713
 20
22.2413688605807387
 30
0.0
 40
0.0209990523237846
 50
2.4974806335374429
 51
68.0312983203387915
  0
ARC
  5
2EB1
  8
0
 10
700.0767054830108691
 20
128.1011749895606044
 30
0.0
 40
107.0061040883724957
 50
270.7922894078428726
 51
271.5634355926891885
  0
LINE
  5
2EB2
  8
0
 10
700.3739222569012099
 20
19.8190754418019317
 30
0.0
 11
700.3685031859912442
 21
19.8092329222019288
 31
0.0
  0
LINE
  5
2EB3
  8
0
 10
700.3630300792011667
 20
19.8190754418019317
 30
0.0
 11
700.3590632274492691
 21
19.8092329222019288
 31
0.0
  0
LINE
  5
2EB4
  8
0
 10
700.3495163839012321
 20
19.8190754418019317
 30
0.0
 11
700.3470257247164454
 21
19.8092329222019288
 31
0.0
  0
LINE
  5
2EB5
  8
0
 10
700.3334644873010575
 20
19.8190754418019317
 30
0.0
 11
700.332466340542851
 21
19.8092329222019288
 31
0.0
  0
LINE
  5
2EB6
  8
0
 10
700.3902813393011684
 20
20.1615948178019302
 30
0.0
 11
700.3901831278011514
 21
20.1615948178019302
 31
0.0
  0
LINE
  5
2EB7
  8
0
 10
700.3875900201012428
 20
20.1615948178019302
 30
0.0
 11
700.3872959911012686
 21
20.1615948178019302
 31
0.0
  0
LINE
  5
2EB8
  8
0
 10
700.3821257629010688
 20
20.1615948178019302
 30
0.0
 11
700.3816377292012021
 21
20.1615948178019302
 31
0.0
  0
LINE
  5
2EB9
  8
0
 10
700.3739222569012099
 20
20.1615948178019302
 30
0.0
 11
700.3732432273011455
 21
20.1615948178019302
 31
0.0
  0
LINE
  5
2EBA
  8
0
 10
700.3630300792011667
 20
20.1615948178019302
 30
0.0
 11
700.3621642403012402
 21
20.1615948178019302
 31
0.0
  0
LINE
  5
2EBB
  8
0
 10
700.3495163839012321
 20
20.1615948178019302
 30
0.0
 11
700.3484690738010841
 21
20.1615948178019302
 31
0.0
  0
LINE
  5
2EBC
  8
0
 10
700.3334644873010575
 20
20.1615948178019302
 30
0.0
 11
700.3322421630010695
 21
20.1615948178019302
 31
0.0
  0
LINE
  5
2EBD
  8
0
 10
700.3149733548011682
 20
20.1615948178019302
 30
0.0
 11
700.313583552301111
 21
20.1615948178019302
 31
0.0
  0
LINE
  5
2EBE
  8
0
 10
700.2941569902011452
 20
20.1615948178019302
 30
0.0
 11
700.2926082782011008
 21
20.1615948178019302
 31
0.0
  0
ARC
  5
2EBF
  8
0
 10
703.4616434688690561
 20
20.0068377099882895
 30
0.0
 40
3.1504733881096021
 50
177.0051612692035121
 51
177.1843917304121021
  0
ARC
  5
2EC0
  8
0
 10
701.1138161274627691
 20
20.0006149043885593
 30
0.0
 40
0.8353176843685726
 50
168.1997712466520056
 51
168.8886124838880107
  0
ARC
  5
2EC1
  8
0
 10
699.9530324569911954
 20
19.5347185521808804
 30
0.0
 40
0.7326485197768706
 50
58.8294364370883969
 51
60.3501042726454529
  0
ARC
  5
2EC2
  8
0
 10
699.9769455354252159
 20
19.575473480339209
 30
0.0
 40
0.6939509793901339
 50
57.6306991094000409
 51
59.1819122945563976
  0
ARC
  5
2EC3
  8
0
 10
700.000372689598521
 20
19.6216962632073084
 30
0.0
 40
0.6499104364550812
 50
56.1735555859831521
 51
57.7654897044772966
  0
ARC
  5
2EC4
  8
0
 10
700.0198678347513805
 20
19.6676268687731088
 30
0.0
 40
0.6073536883295688
 50
54.4207813542841805
 51
56.0491979254776425
  0
ARC
  5
2EC5
  8
0
 10
700.0370676866184567
 20
19.7154616544559502
 30
0.0
 40
0.5637049881654086
 50
52.319369447606789
 51
53.9876841394639371
  0
ARC
  5
2EC6
  8
0
 10
700.0504699142153413
 20
19.7629053562598784
 30
0.0
 40
0.5219244129325724
 50
49.8077676775712135
 51
51.5122891455764176
  0
ARC
  5
2EC7
  8
0
 10
700.0596766767945383
 20
19.8095239585010283
 30
0.0
 40
0.4828958522558467
 50
46.8095221529733934
 51
48.544026916123137
  0
ARC
  5
2EC8
  8
0
 10
700.0310910918376521
 20
19.9250175050534608
 30
0.0
 40
0.4233133179996743
 50
33.9777191191875119
 51
35.5999045117521575
  0
ARC
  5
2EC9
  8
0
 10
700.0586753285515442
 20
19.8954217572775001
 30
0.0
 40
0.4231228810477455
 50
38.9813939918695525
 51
40.7174749427820615
  0
ARC
  5
2ECA
  8
0
 10
699.9267496787708751
 20
19.496835459430411
 30
0.0
 40
0.769119919292792
 50
59.8042050731974513
 51
61.2955468497336184
  0
LINE
  5
2ECB
  8
0
 10
700.3739222569012099
 20
20.1615948178019302
 30
0.0
 11
700.3685031859912442
 21
20.1714373374019189
 31
0.0
  0
LINE
  5
2ECC
  8
0
 10
700.3630300792011667
 20
20.1615948178019302
 30
0.0
 11
700.3590632274492691
 21
20.1714373374019189
 31
0.0
  0
LINE
  5
2ECD
  8
0
 10
700.3495163839012321
 20
20.1615948178019302
 30
0.0
 11
700.3470257247164454
 21
20.1714373374019189
 31
0.0
  0
LINE
  5
2ECE
  8
0
 10
700.3334644873010575
 20
20.1615948178019302
 30
0.0
 11
700.332466340542851
 21
20.1714373374019189
 31
0.0
  0
ARC
  5
2ECF
  8
0
 10
700.5382207147864619
 20
20.652729835875359
 30
0.0
 40
0.1377951766854243
 50
128.4951867678080077
 51
180.0000510496788024
  0
ARC
  5
2ED0
  8
0
 10
702.9867389998435101
 20
21.6637399164300213
 30
0.0
 40
0.5320376628392748
 50
0.1639618575434133
 51
88.9779267871512047
  0
ARC
  5
2ED1
  8
0
 10
702.9867388378296482
 20
21.6668594317146592
 30
0.0
 40
0.5320380432099882
 50
271.0220899322682158
 51
359.8280171237955756
  0
ARC
  5
2ED2
  8
0
 10
700.8385295182622485
 20
20.8811745986672683
 30
0.0
 40
0.2165163199183126
 50
90.4346157241381405
 51
149.6938418704772005
  0
ARC
  5
2ED3
  8
0
 10
699.8693295994163464
 20
31.5050356645249998
 30
0.0
 40
4.5373187561409232
 50
82.4213639565593752
 51
89.1350023177129174
  0
ARC
  5
2ED4
  8
0
 10
700.1549916601311452
 20
33.6420249471057389
 30
0.0
 40
2.3813218507313869
 50
62.2590122470838878
 51
82.4532704603083459
  0
ARC
  5
2ED5
  8
0
 10
700.8385356243906017
 20
34.9248629820676371
 30
0.0
 40
0.9277924681957985
 50
33.5080002153565317
 51
62.7437065627003108
  0
ARC
  5
2ED6
  8
0
 10
701.2084933143105445
 20
35.1854381571072992
 30
0.0
 40
0.4756456972633119
 50
3.120571128890389
 51
31.9378075573445415
  0
ARC
  5
2ED7
  8
0
 10
701.2236421683470553
 20
34.6978081326396506
 30
0.0
 40
0.4797759265392933
 50
326.313205965756481
 51
1.470861082774984
  0
ARC
  5
2ED8
  8
0
 10
700.8068455660595646
 20
35.0006480374976903
 30
0.0
 40
0.9947735241595395
 50
292.7308503892560907
 51
325.1145124826423967
  0
ARC
  5
2ED9
  8
0
 10
700.128285195341391
 20
36.3634401906645479
 30
0.0
 40
2.515874649610319
 50
283.3447205698793141
 51
294.9921852806630795
  0
ARC
  5
2EDA
  8
0
 10
700.7267111377410629
 20
33.6086081905964278
 30
0.0
 40
0.3032055346048356
 50
102.2348876155756017
 51
145.6522950551112103
  0
ARC
  5
2EDB
  8
0
 10
700.604060498360127
 20
33.7228009914956885
 30
0.0
 40
0.1397808185342815
 50
155.9883669526979872
 51
181.6638845726768068
  0
ARC
  5
2EDC
  8
0
 10
491.6617492810938757
 20
26.5667704152803203
 30
0.0
 40
208.9250392246322861
 50
0.9682326153141513
 51
1.9617460891187799
  0
ARC
  5
2EDD
  8
0
 10
700.491972105780178
 20
30.0998233965943918
 30
0.0
 40
0.0650387859933401
 50
294.2327173958215099
 51
357.6835925770218978
  0
ARC
  5
2EDE
  8
0
 10
700.5806082028891524
 20
29.8212909435808804
 30
0.0
 40
0.156277582641213
 50
38.3835804375513518
 51
78.6268953415483054
  0
ARC
  5
2EDF
  8
0
 10
699.7223205698323909
 20
29.2409291501323807
 30
0.0
 40
1.191979723378056
 50
327.6650578406687941
 51
34.631535946500378
  0
ARC
  5
2EE0
  8
0
 10
700.0098535470064007
 20
29.0464163937148498
 30
0.0
 40
0.8450601855421993
 50
284.562703808421702
 51
328.380963575048213
  0
ARC
  5
2EE1
  8
0
 10
700.3421972195983471
 20
29.8543630466943917
 30
0.0
 40
0.0483490615033574
 50
0.0002912928215649
 51
43.8527876824162774
  0
ARC
  5
2EE2
  8
0
 10
700.2703887766673461
 20
29.8965981664911915
 30
0.0
 40
0.1088635261535486
 50
288.1716531360228259
 51
348.4893598485288067
  0
ARC
  5
2EE3
  8
0
 10
700.0534231516500085
 20
30.3718173590066414
 30
0.0
 40
0.6307128191559942
 50
276.4370782246730869
 51
293.4425768779482837
  0
ARC
  5
2EE4
  8
0
 10
699.9172197376423128
 20
31.3053446230081995
 30
0.0
 40
1.573923915601328
 50
270.7501964006456205
 51
277.5541834584499838
  0
ARC
  5
2EE5
  8
0
 10
700.3124770366915754
 20
29.871114289396111
 30
0.0
 40
0.0798461196279075
 50
294.1737416538296088
 51
347.8898956891657122
  0
ARC
  5
2EE6
  8
0
 10
700.1052346229386103
 20
30.2530523123806887
 30
0.0
 40
0.5141964769682624
 50
278.7093183438757933
 51
297.8158010701768035
  0
ARC
  5
2EE7
  8
0
 10
699.9263218481972899
 20
31.2928585434408006
 30
0.0
 40
1.569224174154205
 50
270.4200876565603835
 51
279.4176971379698102
  0
ARC
  5
2EE8
  8
0
 10
700.2049275468656333
 20
30.0478379099153514
 30
0.0
 40
0.4866117443039732
 50
285.2918004073827092
 51
290.9830509961586245
  0
ARC
  5
2EE9
  8
0
 10
700.3459005879370807
 20
29.5358717319253614
 30
0.0
 40
0.0444182283944701
 50
106.5282935190808047
 51
152.2058986668567968
  0
ARC
  5
2EEA
  8
0
 10
700.3511952361961903
 20
29.5912361875681107
 30
0.0
 40
0.0403110449863789
 50
12.1063125737708397
 51
43.7874504787509977
  0
ARC
  5
2EEB
  8
0
 10
700.3573329426330929
 20
29.6474446609149389
 30
0.0
 40
0.0582048932304894
 50
292.0449444838820909
 51
304.8701636996386242
  0
ARC
  5
2EEC
  8
0
 10
700.3540262774480425
 20
29.7313826801712402
 30
0.0
 40
0.035425227685875
 50
7.7854279171828624
 51
25.8962750810619902
  0
ARC
  5
2EED
  8
0
 10
700.2139314722601284
 20
30.025088736684161
 30
0.0
 40
0.3378759342494503
 50
300.4764852386282996
 51
301.2326445802942203
  0
ARC
  5
2EEE
  8
0
 10
4227.8675398938921717
 20
15.8117344759398293
 30
0.0
 40
3527.5877106905782057
 50
179.7767528659792049
 51
179.7910470552920117
  0
ARC
  5
2EEF
  8
0
 10
699.925743365110975
 20
29.6902695548033684
 30
0.0
 40
1.08176593532136
 50
270.6400320214626731
 51
290.4266129461983041
  0
ARC
  5
2EF0
  8
0
 10
889.5806643992352747
 20
27.863249644550919
 30
0.0
 40
189.27912396749241
 50
179.7538165200124922
 51
179.8736944221139993
  0
ARC
  5
2EF1
  8
0
 10
700.1300063540992369
 20
28.5141353191656783
 30
0.0
 40
0.2901118806524734
 50
288.4789007989139122
 51
306.3597989133012902
  0
ARC
  5
2EF2
  8
0
 10
699.9084830385869509
 20
30.4349361453687486
 30
0.0
 40
1.3063121207505799
 50
271.2871623133314074
 51
287.6794545858911079
  0
ARC
  5
2EF3
  8
0
 10
699.933083776600597
 20
30.1706409729479184
 30
0.0
 40
1.1145989428668179
 50
270.2438335896259218
 51
289.4884344992210004
  0
ARC
  5
2EF4
  8
0
 10
701.2061759140831327
 20
34.6692060383336269
 30
0.0
 40
0.4987652977508882
 50
4.7056665291698998
 51
41.4964649846740699
  0
ARC
  5
2EF5
  8
0
 10
700.4661836354017623
 20
33.8450957956824965
 30
0.0
 40
1.604082798667112
 50
46.0359268981779834
 51
73.6006225639444551
  0
ARC
  5
2EF6
  8
0
 10
699.8785585243632568
 20
31.5935218143989296
 30
0.0
 40
3.930619847276454
 50
74.6497782184240037
 51
89.136021416485633
  0
ARC
  5
2EF7
  8
0
 10
699.8588398508711634
 20
30.2461707133638811
 30
0.0
 40
5.1774320365894351
 50
85.3819342642248102
 51
89.1258571852637544
  0
ARC
  5
2EF8
  8
0
 10
700.0080805044544832
 20
32.4842528407009823
 30
0.0
 40
2.9347683072338859
 50
73.0049093570720089
 51
84.7681351673785173
  0
ARC
  5
2EF9
  8
0
 10
700.437670607724499
 20
33.7936535188386387
 30
0.0
 40
1.5572382707451751
 50
51.7098639364277801
 51
74.0390533060122493
  0
ARC
  5
2EFA
  8
0
 10
701.0172010620784704
 20
34.5385182192040503
 30
0.0
 40
0.6135405101862026
 50
23.2414768691110503
 51
51.0853599589076524
  0
ARC
  5
2EFB
  8
0
 10
701.2309534102014368
 20
34.6390497576458714
 30
0.0
 40
0.3775490169488497
 50
345.8907060838320149
 51
22.0235054680268192
  0
ARC
  5
2EFC
  8
0
 10
701.107376892166144
 20
34.6793416860059622
 30
0.0
 40
0.5072985853909843
 50
312.6729420262388999
 51
344.879601623575013
  0
ARC
  5
2EFD
  8
0
 10
700.7096315923689644
 20
35.0669013050013021
 30
0.0
 40
1.062259134118658
 50
297.1099956419217278
 51
314.2774418672307206
  0
ARC
  5
2EFE
  8
0
 10
700.1694050318121754
 20
36.1385712634030583
 30
0.0
 40
2.2623820110996329
 50
279.4290574175433903
 51
281.0472316988485773
  0
ARC
  5
2EFF
  8
0
 10
700.1694050318121754
 20
36.1385712634030583
 30
0.0
 40
2.2623820110996329
 50
284.4266440061945218
 51
290.0113983093120851
  0
ARC
  5
2F00
  8
0
 10
700.1694050318121754
 20
36.1385712634030583
 30
0.0
 40
2.2623820110996329
 50
292.2822760754531259
 51
296.9203950588425869
  0
ARC
  5
2F01
  8
0
 10
699.9457623928552721
 20
37.2275401972607867
 30
0.0
 40
3.3735408439375871
 50
271.1263602803322215
 51
274.9825259013300069
  0
ARC
  5
2F02
  8
0
 10
699.9457623928552721
 20
37.2275401972607867
 30
0.0
 40
3.3735408439375871
 50
277.4632959950470763
 51
280.1461235947425052
  0
ARC
  5
2F03
  8
0
 10
699.7780179146850514
 20
28.0954006132853102
 30
0.0
 40
7.347071340364236
 50
86.3522022167040149
 51
88.7536370584068237
  0
ARC
  5
2F04
  8
0
 10
699.8660755441095489
 20
31.6323710136940583
 30
0.0
 40
3.8141311241730498
 50
75.5783566658321888
 51
84.2914381856210753
  0
ARC
  5
2F05
  8
0
 10
700.3177599182780568
 20
33.4735327282919286
 30
0.0
 40
1.9186074230680401
 50
59.5585001236332019
 51
74.948215425075972
  0
ARC
  5
2F06
  8
0
 10
700.9228092982573344
 20
34.4557937207084422
 30
0.0
 40
0.7655761722099508
 50
25.5875104115194887
 51
61.3527636353011729
  0
ARC
  5
2F07
  8
0
 10
701.2472101348439537
 20
34.6398369415596505
 30
0.0
 40
0.3943547921878952
 50
353.684208568351778
 51
21.8234956139385687
  0
ARC
  5
2F08
  8
0
 10
701.2198800030720349
 20
34.64871424279211
 30
0.0
 40
0.4225356661426043
 50
330.2923351945668742
 51
352.8954152497071846
  0
ARC
  5
2F09
  8
0
 10
700.9888664568157992
 20
34.7868355969367613
 30
0.0
 40
0.6916572031057546
 50
308.1797427765075099
 51
329.8381359174960039
  0
ARC
  5
2F0A
  8
0
 10
700.5882112139072433
 20
35.2811833304152529
 30
0.0
 40
1.3279421535987741
 50
292.8641681559155927
 51
308.5841928544343773
  0
ARC
  5
2F0B
  8
0
 10
700.2746221185680042
 20
35.9481677250026124
 30
0.0
 40
2.064579981547328
 50
288.038572865441779
 51
293.6910515283930749
  0
ARC
  5
2F0C
  8
0
 10
700.0940234413586722
 20
36.391575448455761
 30
0.0
 40
2.542350103338507
 50
278.1365027518227748
 51
282.2199708530804969
  0
ARC
  5
2F0D
  8
0
 10
700.0940234413586722
 20
36.391575448455761
 30
0.0
 40
2.542350103338507
 50
284.3847328163794828
 51
288.8142490121181254
  0
ARC
  5
2F0E
  8
0
 10
699.9434726023589519
 20
37.3461446400141028
 30
0.0
 40
3.5086457231863908
 50
270.9930969903447249
 51
275.072787266571595
  0
ARC
  5
2F0F
  8
0
 10
699.9434726023589519
 20
37.3461446400141028
 30
0.0
 40
3.5086457231863908
 50
277.112672968488198
 51
278.3640328134400761
  0
ARC
  5
2F10
  8
0
 10
699.883941836939016
 20
31.7785380512590798
 30
0.0
 40
1.8502968546215119
 50
271.6688339251439857
 51
290.0621696406720957
  0
LINE
  5
2F11
  8
0
 10
699.5903701479169285
 20
34.4171893064865912
 30
0.0
 11
699.5867616794168953
 21
34.4474533376866034
 31
0.0
  0
ARC
  5
2F12
  8
0
 10
699.6686644870305827
 20
34.3795704894327017
 30
0.0
 40
0.0333124890067253
 50
96.4185212513989995
 51
134.1242982986819925
  0
ARC
  5
2F13
  8
0
 10
699.6673252971836519
 20
34.4245592303226999
 30
0.0
 40
0.0303607479682646
 50
223.9623712410659948
 51
265.4948092088542921
  0
ARC
  5
2F14
  8
0
 10
699.6302090564091714
 20
34.4238866120166307
 30
0.0
 40
0.0403979273134158
 50
189.542746474700607
 51
242.3722589792340045
  0
ARC
  5
2F15
  8
0
 10
699.6568241247730384
 20
34.4678181983474019
 30
0.0
 40
0.0917185985503799
 50
240.3677049084409134
 51
263.2667505281572744
  0
ARC
  5
2F16
  8
0
 10
699.6715305352355472
 20
34.6044178546603121
 30
0.0
 40
0.2291047246613083
 50
263.6196064521910216
 51
268.3516946715320728
  0
ARC
  5
2F17
  8
0
 10
699.6119789964150186
 20
34.4181573620205228
 30
0.0
 40
0.0216305216055767
 50
131.5436386626832928
 51
182.5650804805945029
  0
ARC
  5
2F18
  8
0
 10
699.6420531119633779
 20
34.3831686607911493
 30
0.0
 40
0.0677662711059484
 50
105.2070120727100004
 51
130.9558680870819103
  0
ARC
  5
2F19
  8
0
 10
699.6622795259199847
 20
34.3204111545330903
 30
0.0
 40
0.1336667698514042
 50
94.5457161000095851
 51
106.5172510737237985
  0
ARC
  5
2F1A
  8
0
 10
699.6855363978544347
 20
33.8037272365728327
 30
0.0
 40
0.6508111565202995
 50
91.8135158206331425
 51
92.9814641444325645
  0
LINE
  5
2F1B
  8
0
 10
699.739510808616842
 20
34.4171893064865912
 30
0.0
 11
699.7431192771167616
 21
34.4474533376866034
 31
0.0
  0
ARC
  5
2F1C
  8
0
 10
699.6612164695033016
 20
34.3795704894327017
 30
0.0
 40
0.0333124890067253
 50
45.8757017013179791
 51
83.5814787486009863
  0
ARC
  5
2F1D
  8
0
 10
699.6625556593502324
 20
34.4245592303226999
 30
0.0
 40
0.0303607479682646
 50
274.5051907911455942
 51
316.0376287589334083
  0
ARC
  5
2F1E
  8
0
 10
699.6996719001245992
 20
34.4238866120166307
 30
0.0
 40
0.0403979273134158
 50
297.6277410207659955
 51
350.457253525299393
  0
ARC
  5
2F1F
  8
0
 10
699.6730568317607322
 20
34.4678181983474019
 30
0.0
 40
0.0917185985503799
 50
276.7332494718427256
 51
299.632295091559115
  0
ARC
  5
2F20
  8
0
 10
699.6583504212983371
 20
34.6044178546603121
 30
0.0
 40
0.2291047246613083
 50
271.6483053284679272
 51
276.3803935478089784
  0
ARC
  5
2F21
  8
0
 10
699.7179019601188656
 20
34.4181573620205228
 30
0.0
 40
0.0216305216055767
 50
357.4349195194055255
 51
48.4563613373166788
  0
ARC
  5
2F22
  8
0
 10
699.6878278445703927
 20
34.3831686607911493
 30
0.0
 40
0.0677662711059484
 50
49.0441319129181323
 51
74.7929879272899854
  0
ARC
  5
2F23
  8
0
 10
699.6676014306137859
 20
34.3204111545330903
 30
0.0
 40
0.1336667698514042
 50
73.4827489262761588
 51
85.4542838999904149
  0
ARC
  5
2F24
  8
0
 10
699.6443445586793359
 20
33.8037272365728327
 30
0.0
 40
0.6508111565202995
 50
87.0185358555674355
 51
88.1864841793668717
  0
ARC
  5
2F25
  8
0
 10
699.6131406236014527
 20
34.4489712286541874
 30
0.0
 40
0.0264225791564705
 50
120.2495699796525059
 51
183.2932686671749138
  0
ARC
  5
2F26
  8
0
 10
699.6587034721007967
 20
34.3556604479963283
 30
0.0
 40
0.1302059839604101
 50
56.9355844709224286
 51
116.8822273020840044
  0
ARC
  5
2F27
  8
0
 10
699.6992203320121462
 20
34.4273882562774389
 30
0.0
 40
0.048267223591841
 50
24.5639241348906303
 51
50.7772852487177317
  0
LINE
  5
2F28
  8
0
 10
699.4895223659545991
 20
35.1826220229064504
 30
0.0
 11
699.4859138974546795
 21
35.2128860541064412
 31
0.0
  0
ARC
  5
2F29
  8
0
 10
699.5678167050682532
 20
35.1450032058525466
 30
0.0
 40
0.0333124890067253
 50
96.4185212513989995
 51
134.1242982986819925
  0
ARC
  5
2F2A
  8
0
 10
699.5664775152213224
 20
35.1899919467425519
 30
0.0
 40
0.0303607479682646
 50
223.9623712410659948
 51
265.4948092088542921
  0
ARC
  5
2F2B
  8
0
 10
699.5293612744469556
 20
35.1893193284364827
 30
0.0
 40
0.0403979273134158
 50
189.542746474700607
 51
242.3722589792340045
  0
ARC
  5
2F2C
  8
0
 10
699.5559763428108226
 20
35.2332509147672681
 30
0.0
 40
0.0917185985503799
 50
240.3677049084409134
 51
263.2667505281572744
  0
ARC
  5
2F2D
  8
0
 10
699.5706827532732177
 20
35.3698505710801712
 30
0.0
 40
0.2291047246613083
 50
263.6196064521910216
 51
268.3516946715320728
  0
ARC
  5
2F2E
  8
0
 10
699.5111312144525755
 20
35.1835900784403819
 30
0.0
 40
0.0216305216055767
 50
131.5436386626832928
 51
182.5650804805945029
  0
ARC
  5
2F2F
  8
0
 10
699.5412053300010484
 20
35.14860137721098
 30
0.0
 40
0.0677662711059484
 50
105.2070120727100004
 51
130.9558680870819103
  0
ARC
  5
2F30
  8
0
 10
699.5614317439576553
 20
35.0858438709529423
 30
0.0
 40
0.1336667698514042
 50
94.5457161000095851
 51
106.5172510737237985
  0
ARC
  5
2F31
  8
0
 10
699.5846886158922189
 20
34.5691599529926776
 30
0.0
 40
0.6508111565202995
 50
91.8135158206331425
 51
92.9814641444325645
  0
LINE
  5
2F32
  8
0
 10
699.6386630266546263
 20
35.1826220229064504
 30
0.0
 11
699.6422714951545458
 21
35.2128860541064412
 31
0.0
  0
ARC
  5
2F33
  8
0
 10
699.5603686875408584
 20
35.1450032058525466
 30
0.0
 40
0.0333124890067253
 50
45.8757017013179791
 51
83.5814787486009863
  0
ARC
  5
2F34
  8
0
 10
699.561707877387903
 20
35.1899919467425519
 30
0.0
 40
0.0303607479682646
 50
274.5051907911455942
 51
316.0376287589334083
  0
ARC
  5
2F35
  8
0
 10
699.5988241181622698
 20
35.1893193284364827
 30
0.0
 40
0.0403979273134158
 50
297.6277410207659955
 51
350.457253525299393
  0
ARC
  5
2F36
  8
0
 10
699.572209049798289
 20
35.2332509147672681
 30
0.0
 40
0.0917185985503799
 50
276.7332494718427256
 51
299.632295091559115
  0
ARC
  5
2F37
  8
0
 10
699.5575026393360076
 20
35.3698505710801712
 30
0.0
 40
0.2291047246613083
 50
271.6483053284679272
 51
276.3803935478089784
  0
ARC
  5
2F38
  8
0
 10
699.6170541781565362
 20
35.1835900784403819
 30
0.0
 40
0.0216305216055767
 50
357.4349195194055255
 51
48.4563613373166788
  0
ARC
  5
2F39
  8
0
 10
699.5869800626080632
 20
35.14860137721098
 30
0.0
 40
0.0677662711059484
 50
49.0441319129181323
 51
74.7929879272899854
  0
ARC
  5
2F3A
  8
0
 10
699.5667536486514564
 20
35.0858438709529423
 30
0.0
 40
0.1336667698514042
 50
73.4827489262761588
 51
85.4542838999904149
  0
ARC
  5
2F3B
  8
0
 10
699.5434967767171202
 20
34.5691599529926776
 30
0.0
 40
0.6508111565202995
 50
87.0185358555674355
 51
88.1864841793668717
  0
ARC
  5
2F3C
  8
0
 10
699.5122928416391233
 20
35.2144039450740394
 30
0.0
 40
0.0264225791564705
 50
120.2495699796525059
 51
183.2932686671749138
  0
ARC
  5
2F3D
  8
0
 10
699.5578556901383536
 20
35.1210931644161803
 30
0.0
 40
0.1302059839604101
 50
56.9355844709224286
 51
116.8822273020840044
  0
ARC
  5
2F3E
  8
0
 10
699.5983725500499304
 20
35.1928209726972909
 30
0.0
 40
0.048267223591841
 50
24.5639241348906303
 51
50.7772852487177317
  0
LINE
  5
2F3F
  8
0
 10
699.1441536047261707
 20
35.1152198999624119
 30
0.0
 11
699.1405451362262511
 21
35.145483931162417
 31
0.0
  0
ARC
  5
2F40
  8
0
 10
699.2224479438398248
 20
35.0776010829085294
 30
0.0
 40
0.0333124890067253
 50
96.4185212513989995
 51
134.1242982986819925
  0
ARC
  5
2F41
  8
0
 10
699.221108753992894
 20
35.1225898237985419
 30
0.0
 40
0.0303607479682646
 50
223.9623712410659948
 51
265.4948092088542921
  0
ARC
  5
2F42
  8
0
 10
699.1839925132185272
 20
35.1219172054924513
 30
0.0
 40
0.0403979273134158
 50
189.542746474700607
 51
242.3722589792340045
  0
ARC
  5
2F43
  8
0
 10
699.2106075815823942
 20
35.1658487918232368
 30
0.0
 40
0.0917185985503799
 50
240.3677049084409134
 51
263.2667505281572744
  0
ARC
  5
2F44
  8
0
 10
699.225313992044903
 20
35.3024484481361469
 30
0.0
 40
0.2291047246613083
 50
263.6196064521910216
 51
268.3516946715320728
  0
ARC
  5
2F45
  8
0
 10
699.1657624532241471
 20
35.1161879554963576
 30
0.0
 40
0.0216305216055767
 50
131.5436386626832928
 51
182.5650804805945029
  0
ARC
  5
2F46
  8
0
 10
699.1958365687727337
 20
35.0811992542669628
 30
0.0
 40
0.0677662711059484
 50
105.2070120727100004
 51
130.9558680870819103
  0
ARC
  5
2F47
  8
0
 10
699.2160629827293405
 20
35.018441748008911
 30
0.0
 40
0.1336667698514042
 50
94.5457161000095851
 51
106.5172510737237985
  0
ARC
  5
2F48
  8
0
 10
699.2393198546636768
 20
34.5017578300486605
 30
0.0
 40
0.6508111565202995
 50
91.8135158206331425
 51
92.9814641444325645
  0
LINE
  5
2F49
  8
0
 10
699.2932942654263115
 20
35.1152198999624119
 30
0.0
 11
699.2969027339262311
 21
35.145483931162417
 31
0.0
  0
ARC
  5
2F4A
  8
0
 10
699.2149999263125437
 20
35.0776010829085294
 30
0.0
 40
0.0333124890067253
 50
45.8757017013179791
 51
83.5814787486009863
  0
ARC
  5
2F4B
  8
0
 10
699.2163391161595882
 20
35.1225898237985419
 30
0.0
 40
0.0303607479682646
 50
274.5051907911455942
 51
316.0376287589334083
  0
ARC
  5
2F4C
  8
0
 10
699.253455356933955
 20
35.1219172054924513
 30
0.0
 40
0.0403979273134158
 50
297.6277410207659955
 51
350.457253525299393
  0
ARC
  5
2F4D
  8
0
 10
699.2268402885699743
 20
35.1658487918232368
 30
0.0
 40
0.0917185985503799
 50
276.7332494718427256
 51
299.632295091559115
  0
ARC
  5
2F4E
  8
0
 10
699.2121338781075792
 20
35.3024484481361469
 30
0.0
 40
0.2291047246613083
 50
271.6483053284679272
 51
276.3803935478089784
  0
ARC
  5
2F4F
  8
0
 10
699.2716854169282215
 20
35.1161879554963576
 30
0.0
 40
0.0216305216055767
 50
357.4349195194055255
 51
48.4563613373166788
  0
ARC
  5
2F50
  8
0
 10
699.2416113013797485
 20
35.0811992542669628
 30
0.0
 40
0.0677662711059484
 50
49.0441319129181323
 51
74.7929879272899854
  0
ARC
  5
2F51
  8
0
 10
699.2213848874231417
 20
35.018441748008911
 30
0.0
 40
0.1336667698514042
 50
73.4827489262761588
 51
85.4542838999904149
  0
ARC
  5
2F52
  8
0
 10
699.1981280154885781
 20
34.5017578300486605
 30
0.0
 40
0.6508111565202995
 50
87.0185358555674355
 51
88.1864841793668717
  0
ARC
  5
2F53
  8
0
 10
699.1669240804108085
 20
35.147001822130008
 30
0.0
 40
0.0264225791564705
 50
120.2495699796525059
 51
183.2932686671749138
  0
ARC
  5
2F54
  8
0
 10
699.2124869289101525
 20
35.053691041472149
 30
0.0
 40
0.1302059839604101
 50
56.9355844709224286
 51
116.8822273020840044
  0
ARC
  5
2F55
  8
0
 10
699.253003788821502
 20
35.1254188497532667
 30
0.0
 40
0.048267223591841
 50
24.5639241348906303
 51
50.7772852487177317
  0
LINE
  5
2F56
  8
0
 10
698.8493238896852517
 20
35.0080239449298105
 30
0.0
 11
698.8457154211853322
 21
35.0382879761298085
 31
0.0
  0
ARC
  5
2F57
  8
0
 10
698.9276182287990196
 20
34.9704051278759209
 30
0.0
 40
0.0333124890067253
 50
96.4185212513989995
 51
134.1242982986819925
  0
ARC
  5
2F58
  8
0
 10
698.9262790389520887
 20
35.0153938687659334
 30
0.0
 40
0.0303607479682646
 50
223.9623712410659948
 51
265.4948092088542921
  0
ARC
  5
2F59
  8
0
 10
698.8891627981776082
 20
35.0147212504598428
 30
0.0
 40
0.0403979273134158
 50
189.542746474700607
 51
242.3722589792340045
  0
ARC
  5
2F5A
  8
0
 10
698.9157778665414753
 20
35.0586528367906283
 30
0.0
 40
0.0917185985503799
 50
240.3677049084409134
 51
263.2667505281572744
  0
ARC
  5
2F5B
  8
0
 10
698.9304842770039841
 20
35.1952524931035384
 30
0.0
 40
0.2291047246613083
 50
263.6196064521910216
 51
268.3516946715320728
  0
ARC
  5
2F5C
  8
0
 10
698.8709327381834555
 20
35.0089920004637492
 30
0.0
 40
0.0216305216055767
 50
131.5436386626832928
 51
182.5650804805945029
  0
ARC
  5
2F5D
  8
0
 10
698.9010068537318148
 20
34.9740032992343473
 30
0.0
 40
0.0677662711059484
 50
105.2070120727100004
 51
130.9558680870819103
  0
ARC
  5
2F5E
  8
0
 10
698.9212332676884216
 20
34.9112457929763025
 30
0.0
 40
0.1336667698514042
 50
94.5457161000095851
 51
106.5172510737237985
  0
ARC
  5
2F5F
  8
0
 10
698.9444901396227579
 20
34.394561875016052
 30
0.0
 40
0.6508111565202995
 50
91.8135158206331425
 51
92.9814641444325645
  0
LINE
  5
2F60
  8
0
 10
698.9984645503852789
 20
35.0080239449298105
 30
0.0
 11
699.0020730188851985
 21
35.0382879761298085
 31
0.0
  0
ARC
  5
2F61
  8
0
 10
698.9201702112717385
 20
34.9704051278759209
 30
0.0
 40
0.0333124890067253
 50
45.8757017013179791
 51
83.5814787486009863
  0
ARC
  5
2F62
  8
0
 10
698.9215094011186693
 20
35.0153938687659334
 30
0.0
 40
0.0303607479682646
 50
274.5051907911455942
 51
316.0376287589334083
  0
ARC
  5
2F63
  8
0
 10
698.9586256418930361
 20
35.0147212504598428
 30
0.0
 40
0.0403979273134158
 50
297.6277410207659955
 51
350.457253525299393
  0
ARC
  5
2F64
  8
0
 10
698.9320105735290554
 20
35.0586528367906283
 30
0.0
 40
0.0917185985503799
 50
276.7332494718427256
 51
299.632295091559115
  0
ARC
  5
2F65
  8
0
 10
698.9173041630666603
 20
35.1952524931035384
 30
0.0
 40
0.2291047246613083
 50
271.6483053284679272
 51
276.3803935478089784
  0
ARC
  5
2F66
  8
0
 10
698.9768557018873025
 20
35.0089920004637492
 30
0.0
 40
0.0216305216055767
 50
357.4349195194055255
 51
48.4563613373166788
  0
ARC
  5
2F67
  8
0
 10
698.9467815863388296
 20
34.9740032992343473
 30
0.0
 40
0.0677662711059484
 50
49.0441319129181323
 51
74.7929879272899854
  0
ARC
  5
2F68
  8
0
 10
698.9265551723822227
 20
34.9112457929763025
 30
0.0
 40
0.1336667698514042
 50
73.4827489262761588
 51
85.4542838999904149
  0
ARC
  5
2F69
  8
0
 10
698.9032983004476591
 20
34.394561875016052
 30
0.0
 40
0.6508111565202995
 50
87.0185358555674355
 51
88.1864841793668717
  0
ARC
  5
2F6A
  8
0
 10
698.8720943653698896
 20
35.0398058670973995
 30
0.0
 40
0.0264225791564705
 50
120.2495699796525059
 51
183.2932686671749138
  0
ARC
  5
2F6B
  8
0
 10
698.9176572138692336
 20
34.9464950864395405
 30
0.0
 40
0.1302059839604101
 50
56.9355844709224286
 51
116.8822273020840044
  0
ARC
  5
2F6C
  8
0
 10
698.9581740737804694
 20
35.0182228947206582
 30
0.0
 40
0.048267223591841
 50
24.5639241348906303
 51
50.7772852487177317
  0
LINE
  5
2F6D
  8
0
 10
698.6187423047723541
 20
34.8682867071434401
 30
0.0
 11
698.6151338362725483
 21
34.898550738343431
 31
0.0
  0
ARC
  5
2F6E
  8
0
 10
698.6970366438860083
 20
34.8306678900895506
 30
0.0
 40
0.0333124890067253
 50
96.4185212513989995
 51
134.1242982986819925
  0
ARC
  5
2F6F
  8
0
 10
698.6956974540390775
 20
34.8756566309795488
 30
0.0
 40
0.0303607479682646
 50
223.9623712410659948
 51
265.4948092088542921
  0
ARC
  5
2F70
  8
0
 10
698.6585812132648243
 20
34.8749840126734796
 30
0.0
 40
0.0403979273134158
 50
189.542746474700607
 51
242.3722589792340045
  0
ARC
  5
2F71
  8
0
 10
698.6851962816285777
 20
34.9189155990042721
 30
0.0
 40
0.0917185985503799
 50
240.3677049084409134
 51
263.2667505281572744
  0
ARC
  5
2F72
  8
0
 10
698.6999026920909728
 20
35.0555152553171609
 30
0.0
 40
0.2291047246613083
 50
263.6196064521910216
 51
268.3516946715320728
  0
ARC
  5
2F73
  8
0
 10
698.6403511532705579
 20
34.8692547626773717
 30
0.0
 40
0.0216305216055767
 50
131.5436386626832928
 51
182.5650804805945029
  0
ARC
  5
2F74
  8
0
 10
698.6704252688190309
 20
34.8342660614479769
 30
0.0
 40
0.0677662711059484
 50
105.2070120727100004
 51
130.9558680870819103
  0
ARC
  5
2F75
  8
0
 10
698.690651682775524
 20
34.7715085551899392
 30
0.0
 40
0.1336667698514042
 50
94.5457161000095851
 51
106.5172510737237985
  0
ARC
  5
2F76
  8
0
 10
698.7139085547099739
 20
34.2548246372296816
 30
0.0
 40
0.6508111565202995
 50
91.8135158206331425
 51
92.9814641444325645
  0
LINE
  5
2F77
  8
0
 10
698.767882965472495
 20
34.8682867071434401
 30
0.0
 11
698.7714914339725283
 21
34.898550738343431
 31
0.0
  0
ARC
  5
2F78
  8
0
 10
698.6895886263588409
 20
34.8306678900895506
 30
0.0
 40
0.0333124890067253
 50
45.8757017013179791
 51
83.5814787486009863
  0
ARC
  5
2F79
  8
0
 10
698.690927816205658
 20
34.8756566309795488
 30
0.0
 40
0.0303607479682646
 50
274.5051907911455942
 51
316.0376287589334083
  0
ARC
  5
2F7A
  8
0
 10
698.7280440569802522
 20
34.8749840126734796
 30
0.0
 40
0.0403979273134158
 50
297.6277410207659955
 51
350.457253525299393
  0
ARC
  5
2F7B
  8
0
 10
698.7014289886161578
 20
34.9189155990042721
 30
0.0
 40
0.0917185985503799
 50
276.7332494718427256
 51
299.632295091559115
  0
ARC
  5
2F7C
  8
0
 10
698.6867225781537627
 20
35.0555152553171609
 30
0.0
 40
0.2291047246613083
 50
271.6483053284679272
 51
276.3803935478089784
  0
ARC
  5
2F7D
  8
0
 10
698.7462741169744049
 20
34.8692547626773717
 30
0.0
 40
0.0216305216055767
 50
357.4349195194055255
 51
48.4563613373166788
  0
ARC
  5
2F7E
  8
0
 10
698.7162000014260457
 20
34.8342660614479769
 30
0.0
 40
0.0677662711059484
 50
49.0441319129181323
 51
74.7929879272899854
  0
ARC
  5
2F7F
  8
0
 10
698.6959735874694388
 20
34.7715085551899392
 30
0.0
 40
0.1336667698514042
 50
73.4827489262761588
 51
85.4542838999904149
  0
ARC
  5
2F80
  8
0
 10
698.6727167155349889
 20
34.2548246372296816
 30
0.0
 40
0.6508111565202995
 50
87.0185358555674355
 51
88.1864841793668717
  0
ARC
  5
2F81
  8
0
 10
698.6415127804568783
 20
34.9000686293110434
 30
0.0
 40
0.0264225791564705
 50
120.2495699796525059
 51
183.2932686671749138
  0
ARC
  5
2F82
  8
0
 10
698.687075628956336
 20
34.8067578486531772
 30
0.0
 40
0.1302059839604101
 50
56.9355844709224286
 51
116.8822273020840044
  0
ARC
  5
2F83
  8
0
 10
698.7275924888676855
 20
34.8784856569342878
 30
0.0
 40
0.048267223591841
 50
24.5639241348906303
 51
50.7772852487177317
  0
LINE
  5
2F84
  8
0
 10
698.4736474009290532
 20
34.7055839784347171
 30
0.0
 11
698.47003893242902
 21
34.7358480096347222
 31
0.0
  0
ARC
  5
2F85
  8
0
 10
698.5519417400425937
 20
34.6679651613808417
 30
0.0
 40
0.0333124890067253
 50
96.4185212513989995
 51
134.1242982986819925
  0
ARC
  5
2F86
  8
0
 10
698.5506025501955492
 20
34.71295390227084
 30
0.0
 40
0.0303607479682646
 50
223.9623712410659948
 51
265.4948092088542921
  0
ARC
  5
2F87
  8
0
 10
698.513486309421296
 20
34.7122812839647565
 30
0.0
 40
0.0403979273134158
 50
189.542746474700607
 51
242.3722589792340045
  0
ARC
  5
2F88
  8
0
 10
698.5401013777851631
 20
34.756212870295542
 30
0.0
 40
0.0917185985503799
 50
240.3677049084409134
 51
263.2667505281572744
  0
ARC
  5
2F89
  8
0
 10
698.5548077882476719
 20
34.8928125266084521
 30
0.0
 40
0.2291047246613083
 50
263.6196064521910216
 51
268.3516946715320728
  0
ARC
  5
2F8A
  8
0
 10
698.4952562494270296
 20
34.7065520339686628
 30
0.0
 40
0.0216305216055767
 50
131.5436386626832928
 51
182.5650804805945029
  0
ARC
  5
2F8B
  8
0
 10
698.5253303649755026
 20
34.671563332739268
 30
0.0
 40
0.0677662711059484
 50
105.2070120727100004
 51
130.9558680870819103
  0
ARC
  5
2F8C
  8
0
 10
698.5455567789321094
 20
34.6088058264812233
 30
0.0
 40
0.1336667698514042
 50
94.5457161000095851
 51
106.5172510737237985
  0
ARC
  5
2F8D
  8
0
 10
698.5688136508664456
 20
34.0921219085209728
 30
0.0
 40
0.6508111565202995
 50
91.8135158206331425
 51
92.9814641444325645
  0
LINE
  5
2F8E
  8
0
 10
698.622788061628853
 20
34.7055839784347171
 30
0.0
 11
698.626396530129
 21
34.7358480096347222
 31
0.0
  0
ARC
  5
2F8F
  8
0
 10
698.5444937225154263
 20
34.6679651613808417
 30
0.0
 40
0.0333124890067253
 50
45.8757017013179791
 51
83.5814787486009863
  0
ARC
  5
2F90
  8
0
 10
698.5458329123622434
 20
34.71295390227084
 30
0.0
 40
0.0303607479682646
 50
274.5051907911455942
 51
316.0376287589334083
  0
ARC
  5
2F91
  8
0
 10
698.5829491531367239
 20
34.7122812839647565
 30
0.0
 40
0.0403979273134158
 50
297.6277410207659955
 51
350.457253525299393
  0
ARC
  5
2F92
  8
0
 10
698.5563340847728568
 20
34.756212870295542
 30
0.0
 40
0.0917185985503799
 50
276.7332494718427256
 51
299.632295091559115
  0
ARC
  5
2F93
  8
0
 10
698.5416276743103481
 20
34.8928125266084521
 30
0.0
 40
0.2291047246613083
 50
271.6483053284679272
 51
276.3803935478089784
  0
ARC
  5
2F94
  8
0
 10
698.6011792131309903
 20
34.7065520339686628
 30
0.0
 40
0.0216305216055767
 50
357.4349195194055255
 51
48.4563613373166788
  0
ARC
  5
2F95
  8
0
 10
698.5711050975825174
 20
34.671563332739268
 30
0.0
 40
0.0677662711059484
 50
49.0441319129181323
 51
74.7929879272899854
  0
ARC
  5
2F96
  8
0
 10
698.5508786836259105
 20
34.6088058264812233
 30
0.0
 40
0.1336667698514042
 50
73.4827489262761588
 51
85.4542838999904149
  0
ARC
  5
2F97
  8
0
 10
698.5276218116913469
 20
34.0921219085209728
 30
0.0
 40
0.6508111565202995
 50
87.0185358555674355
 51
88.1864841793668717
  0
ARC
  5
2F98
  8
0
 10
698.4964178766134637
 20
34.7373659006023274
 30
0.0
 40
0.0264225791564705
 50
120.2495699796525059
 51
183.2932686671749138
  0
ARC
  5
2F99
  8
0
 10
698.5419807251129214
 20
34.6440551199444613
 30
0.0
 40
0.1302059839604101
 50
56.9355844709224286
 51
116.8822273020840044
  0
ARC
  5
2F9A
  8
0
 10
698.5824975850241572
 20
34.715782928225579
 30
0.0
 40
0.048267223591841
 50
24.5639241348906303
 51
50.7772852487177317
  0
LINE
  5
2F9B
  8
0
 10
698.4230092026799639
 20
34.5310073974044016
 30
0.0
 11
698.4194007341800443
 21
34.5612714286043783
 31
0.0
  0
ARC
  5
2F9C
  8
0
 10
698.501303541793618
 20
34.4933885803504978
 30
0.0
 40
0.0333124890067253
 50
96.4185212513989995
 51
134.1242982986819925
  0
ARC
  5
2F9D
  8
0
 10
698.4999643519466872
 20
34.5383773212405032
 30
0.0
 40
0.0303607479682646
 50
223.9623712410659948
 51
265.4948092088542921
  0
ARC
  5
2F9E
  8
0
 10
698.4628481111723204
 20
34.5377047029344411
 30
0.0
 40
0.0403979273134158
 50
189.542746474700607
 51
242.3722589792340045
  0
ARC
  5
2F9F
  8
0
 10
698.4894631795361875
 20
34.5816362892652194
 30
0.0
 40
0.0917185985503799
 50
240.3677049084409134
 51
263.2667505281572744
  0
ARC
  5
2FA0
  8
0
 10
698.5041695899986962
 20
34.7182359455781082
 30
0.0
 40
0.2291047246613083
 50
263.6196064521910216
 51
268.3516946715320728
  0
ARC
  5
2FA1
  8
0
 10
698.444618051178054
 20
34.5319754529383331
 30
0.0
 40
0.0216305216055767
 50
131.5436386626832928
 51
182.5650804805945029
  0
ARC
  5
2FA2
  8
0
 10
698.4746921667265269
 20
34.4969867517089313
 30
0.0
 40
0.0677662711059484
 50
105.2070120727100004
 51
130.9558680870819103
  0
ARC
  5
2FA3
  8
0
 10
698.4949185806831338
 20
34.4342292454508865
 30
0.0
 40
0.1336667698514042
 50
94.5457161000095851
 51
106.5172510737237985
  0
ARC
  5
2FA4
  8
0
 10
698.51817545261747
 20
33.9175453274906289
 30
0.0
 40
0.6508111565202995
 50
91.8135158206331425
 51
92.9814641444325645
  0
LINE
  5
2FA5
  8
0
 10
698.5721498633798774
 20
34.5310073974044016
 30
0.0
 11
698.5757583318800243
 21
34.5612714286043783
 31
0.0
  0
ARC
  5
2FA6
  8
0
 10
698.4938555242663369
 20
34.4933885803504978
 30
0.0
 40
0.0333124890067253
 50
45.8757017013179791
 51
83.5814787486009863
  0
ARC
  5
2FA7
  8
0
 10
698.4951947141133815
 20
34.5383773212405032
 30
0.0
 40
0.0303607479682646
 50
274.5051907911455942
 51
316.0376287589334083
  0
ARC
  5
2FA8
  8
0
 10
698.5323109548877483
 20
34.5377047029344411
 30
0.0
 40
0.0403979273134158
 50
297.6277410207659955
 51
350.457253525299393
  0
ARC
  5
2FA9
  8
0
 10
698.5056958865237675
 20
34.5816362892652194
 30
0.0
 40
0.0917185985503799
 50
276.7332494718427256
 51
299.632295091559115
  0
ARC
  5
2FAA
  8
0
 10
698.4909894760613724
 20
34.7182359455781082
 30
0.0
 40
0.2291047246613083
 50
271.6483053284679272
 51
276.3803935478089784
  0
ARC
  5
2FAB
  8
0
 10
698.5505410148817873
 20
34.5319754529383331
 30
0.0
 40
0.0216305216055767
 50
357.4349195194055255
 51
48.4563613373166788
  0
ARC
  5
2FAC
  8
0
 10
698.5204668993335417
 20
34.4969867517089313
 30
0.0
 40
0.0677662711059484
 50
49.0441319129181323
 51
74.7929879272899854
  0
ARC
  5
2FAD
  8
0
 10
698.5002404853769349
 20
34.4342292454508865
 30
0.0
 40
0.1336667698514042
 50
73.4827489262761588
 51
85.4542838999904149
  0
ARC
  5
2FAE
  8
0
 10
698.4769836134423713
 20
33.9175453274906289
 30
0.0
 40
0.6508111565202995
 50
87.0185358555674355
 51
88.1864841793668717
  0
ARC
  5
2FAF
  8
0
 10
698.4457796783646018
 20
34.5627893195719906
 30
0.0
 40
0.0264225791564705
 50
120.2495699796525059
 51
183.2932686671749138
  0
ARC
  5
2FB0
  8
0
 10
698.4913425268639457
 20
34.4694785389141316
 30
0.0
 40
0.1302059839604101
 50
56.9355844709224286
 51
116.8822273020840044
  0
ARC
  5
2FB1
  8
0
 10
698.5318593867751815
 20
34.5412063471952493
 30
0.0
 40
0.048267223591841
 50
24.5639241348906303
 51
50.7772852487177317
  0
LINE
  5
2FB2
  8
0
 10
698.4746005355962097
 20
34.3586675731355129
 30
0.0
 11
698.4709920670961765
 21
34.3889316043355109
 31
0.0
  0
ARC
  5
2FB3
  8
0
 10
698.5528948747097502
 20
34.3210487560816091
 30
0.0
 40
0.0333124890067253
 50
96.4185212513989995
 51
134.1242982986819925
  0
ARC
  5
2FB4
  8
0
 10
698.5515556848628194
 20
34.3660374969716074
 30
0.0
 40
0.0303607479682646
 50
223.9623712410659948
 51
265.4948092088542921
  0
ARC
  5
2FB5
  8
0
 10
698.5144394440884525
 20
34.3653648786655381
 30
0.0
 40
0.0403979273134158
 50
189.542746474700607
 51
242.3722589792340045
  0
ARC
  5
2FB6
  8
0
 10
698.5410545124523196
 20
34.4092964649963307
 30
0.0
 40
0.0917185985503799
 50
240.3677049084409134
 51
263.2667505281572744
  0
ARC
  5
2FB7
  8
0
 10
698.5557609229148284
 20
34.5458961213092266
 30
0.0
 40
0.2291047246613083
 50
263.6196064521910216
 51
268.3516946715320728
  0
ARC
  5
2FB8
  8
0
 10
698.4962093840940724
 20
34.3596356286694515
 30
0.0
 40
0.0216305216055767
 50
131.5436386626832928
 51
182.5650804805945029
  0
ARC
  5
2FB9
  8
0
 10
698.5262834996425454
 20
34.3246469274400567
 30
0.0
 40
0.0677662711059484
 50
105.2070120727100004
 51
130.9558680870819103
  0
ARC
  5
2FBA
  8
0
 10
698.5465099135992659
 20
34.261889421182012
 30
0.0
 40
0.1336667698514042
 50
94.5457161000095851
 51
106.5172510737237985
  0
ARC
  5
2FBB
  8
0
 10
698.5697667855337158
 20
33.7452055032217402
 30
0.0
 40
0.6508111565202995
 50
91.8135158206331425
 51
92.9814641444325645
  0
LINE
  5
2FBC
  8
0
 10
698.6237411962961232
 20
34.3586675731355129
 30
0.0
 11
698.6273496647961565
 21
34.3889316043355109
 31
0.0
  0
ARC
  5
2FBD
  8
0
 10
698.5454468571823554
 20
34.3210487560816091
 30
0.0
 40
0.0333124890067253
 50
45.8757017013179791
 51
83.5814787486009863
  0
ARC
  5
2FBE
  8
0
 10
698.5467860470293999
 20
34.3660374969716074
 30
0.0
 40
0.0303607479682646
 50
274.5051907911455942
 51
316.0376287589334083
  0
ARC
  5
2FBF
  8
0
 10
698.5839022878038804
 20
34.3653648786655381
 30
0.0
 40
0.0403979273134158
 50
297.6277410207659955
 51
350.457253525299393
  0
ARC
  5
2FC0
  8
0
 10
698.5572872194400134
 20
34.4092964649963307
 30
0.0
 40
0.0917185985503799
 50
276.7332494718427256
 51
299.632295091559115
  0
ARC
  5
2FC1
  8
0
 10
698.5425808089773909
 20
34.5458961213092266
 30
0.0
 40
0.2291047246613083
 50
271.6483053284679272
 51
276.3803935478089784
  0
ARC
  5
2FC2
  8
0
 10
698.6021323477980332
 20
34.3596356286694515
 30
0.0
 40
0.0216305216055767
 50
357.4349195194055255
 51
48.4563613373166788
  0
ARC
  5
2FC3
  8
0
 10
698.5720582322495602
 20
34.3246469274400567
 30
0.0
 40
0.0677662711059484
 50
49.0441319129181323
 51
74.7929879272899854
  0
ARC
  5
2FC4
  8
0
 10
698.5518318182929534
 20
34.261889421182012
 30
0.0
 40
0.1336667698514042
 50
73.4827489262761588
 51
85.4542838999904149
  0
ARC
  5
2FC5
  8
0
 10
698.5285749463586171
 20
33.7452055032217402
 30
0.0
 40
0.6508111565202995
 50
87.0185358555674355
 51
88.1864841793668717
  0
ARC
  5
2FC6
  8
0
 10
698.4973710112807339
 20
34.3904494953031019
 30
0.0
 40
0.0264225791564705
 50
120.2495699796525059
 51
183.2932686671749138
  0
ARC
  5
2FC7
  8
0
 10
698.5429338597800779
 20
34.2971387146452429
 30
0.0
 40
0.1302059839604101
 50
56.9355844709224286
 51
116.8822273020840044
  0
ARC
  5
2FC8
  8
0
 10
698.5834507196914274
 20
34.3688665229263535
 30
0.0
 40
0.048267223591841
 50
24.5639241348906303
 51
50.7772852487177317
  0
LINE
  5
2FC9
  8
0
 10
698.6137559173356522
 20
34.1960634795229623
 30
0.0
 11
698.6101474488358463
 21
34.2263275107229674
 31
0.0
  0
ARC
  5
2FCA
  8
0
 10
698.69205025644942
 20
34.1584446624690727
 30
0.0
 40
0.0333124890067253
 50
96.4185212513989995
 51
134.1242982986819925
  0
ARC
  5
2FCB
  8
0
 10
698.6907110666024892
 20
34.203433403359071
 30
0.0
 40
0.0303607479682646
 50
223.9623712410659948
 51
265.4948092088542921
  0
ARC
  5
2FCC
  8
0
 10
698.6535948258281223
 20
34.2027607850530018
 30
0.0
 40
0.0403979273134158
 50
189.542746474700607
 51
242.3722589792340045
  0
ARC
  5
2FCD
  8
0
 10
698.6802098941919894
 20
34.2466923713837872
 30
0.0
 40
0.0917185985503799
 50
240.3677049084409134
 51
263.2667505281572744
  0
ARC
  5
2FCE
  8
0
 10
698.6949163046544982
 20
34.3832920276966902
 30
0.0
 40
0.2291047246613083
 50
263.6196064521910216
 51
268.3516946715320728
  0
ARC
  5
2FCF
  8
0
 10
698.6353647658338559
 20
34.1970315350569081
 30
0.0
 40
0.0216305216055767
 50
131.5436386626832928
 51
182.5650804805945029
  0
ARC
  5
2FD0
  8
0
 10
698.6654388813823289
 20
34.1620428338275133
 30
0.0
 40
0.0677662711059484
 50
105.2070120727100004
 51
130.9558680870819103
  0
ARC
  5
2FD1
  8
0
 10
698.6856652953389357
 20
34.0992853275694614
 30
0.0
 40
0.1336667698514042
 50
94.5457161000095851
 51
106.5172510737237985
  0
ARC
  5
2FD2
  8
0
 10
698.708922167273272
 20
33.5826014096091967
 30
0.0
 40
0.6508111565202995
 50
91.8135158206331425
 51
92.9814641444325645
  0
LINE
  5
2FD3
  8
0
 10
698.7628965780356793
 20
34.1960634795229623
 30
0.0
 11
698.7665050465358263
 21
34.2263275107229674
 31
0.0
  0
ARC
  5
2FD4
  8
0
 10
698.6846022389221389
 20
34.1584446624690727
 30
0.0
 40
0.0333124890067253
 50
45.8757017013179791
 51
83.5814787486009863
  0
ARC
  5
2FD5
  8
0
 10
698.6859414287691834
 20
34.203433403359071
 30
0.0
 40
0.0303607479682646
 50
274.5051907911455942
 51
316.0376287589334083
  0
ARC
  5
2FD6
  8
0
 10
698.7230576695435502
 20
34.2027607850530018
 30
0.0
 40
0.0403979273134158
 50
297.6277410207659955
 51
350.457253525299393
  0
ARC
  5
2FD7
  8
0
 10
698.6964426011795695
 20
34.2466923713837872
 30
0.0
 40
0.0917185985503799
 50
276.7332494718427256
 51
299.632295091559115
  0
ARC
  5
2FD8
  8
0
 10
698.6817361907171744
 20
34.3832920276966902
 30
0.0
 40
0.2291047246613083
 50
271.6483053284679272
 51
276.3803935478089784
  0
ARC
  5
2FD9
  8
0
 10
698.7412877295375893
 20
34.1970315350569081
 30
0.0
 40
0.0216305216055767
 50
357.4349195194055255
 51
48.4563613373166788
  0
ARC
  5
2FDA
  8
0
 10
698.7112136139893437
 20
34.1620428338275133
 30
0.0
 40
0.0677662711059484
 50
49.0441319129181323
 51
74.7929879272899854
  0
ARC
  5
2FDB
  8
0
 10
698.6909872000327368
 20
34.0992853275694614
 30
0.0
 40
0.1336667698514042
 50
73.4827489262761588
 51
85.4542838999904149
  0
ARC
  5
2FDC
  8
0
 10
698.6677303280981732
 20
33.5826014096091967
 30
0.0
 40
0.6508111565202995
 50
87.0185358555674355
 51
88.1864841793668717
  0
ARC
  5
2FDD
  8
0
 10
698.6365263930204037
 20
34.2278454016905584
 30
0.0
 40
0.0264225791564705
 50
120.2495699796525059
 51
183.2932686671749138
  0
ARC
  5
2FDE
  8
0
 10
698.682089241519634
 20
34.1345346210326994
 30
0.0
 40
0.1302059839604101
 50
56.9355844709224286
 51
116.8822273020840044
  0
ARC
  5
2FDF
  8
0
 10
698.7226061014310972
 20
34.20626242931381
 30
0.0
 40
0.048267223591841
 50
24.5639241348906303
 51
50.7772852487177317
  0
LINE
  5
2FE0
  8
0
 10
698.8458872414875032
 20
34.0539353914781771
 30
0.0
 11
698.8422787729874699
 21
34.0841994226781821
 31
0.0
  0
ARC
  5
2FE1
  8
0
 10
698.9241815806011573
 20
34.0163165744242804
 30
0.0
 40
0.0333124890067253
 50
96.4185212513989995
 51
134.1242982986819925
  0
ARC
  5
2FE2
  8
0
 10
698.9228423907542265
 20
34.0613053153142928
 30
0.0
 40
0.0303607479682646
 50
223.9623712410659948
 51
265.4948092088542921
  0
ARC
  5
2FE3
  8
0
 10
698.8857261499798597
 20
34.0606326970082165
 30
0.0
 40
0.0403979273134158
 50
189.542746474700607
 51
242.3722589792340045
  0
ARC
  5
2FE4
  8
0
 10
698.9123412183437267
 20
34.1045642833389877
 30
0.0
 40
0.0917185985503799
 50
240.3677049084409134
 51
263.2667505281572744
  0
ARC
  5
2FE5
  8
0
 10
698.9270476288062355
 20
34.2411639396518979
 30
0.0
 40
0.2291047246613083
 50
263.6196064521910216
 51
268.3516946715320728
  0
ARC
  5
2FE6
  8
0
 10
698.8674960899857069
 20
34.0549034470121086
 30
0.0
 40
0.0216305216055767
 50
131.5436386626832928
 51
182.5650804805945029
  0
ARC
  5
2FE7
  8
0
 10
698.8975702055339525
 20
34.019914745782728
 30
0.0
 40
0.0677662711059484
 50
105.2070120727100004
 51
130.9558680870819103
  0
ARC
  5
2FE8
  8
0
 10
698.9177966194905594
 20
33.9571572395246832
 30
0.0
 40
0.1336667698514042
 50
94.5457161000095851
 51
106.5172510737237985
  0
ARC
  5
2FE9
  8
0
 10
698.941053491425123
 20
33.4404733215644114
 30
0.0
 40
0.6508111565202995
 50
91.8135158206331425
 51
92.9814641444325645
  0
LINE
  5
2FEA
  8
0
 10
698.9950279021875303
 20
34.0539353914781771
 30
0.0
 11
698.9986363706875636
 21
34.0841994226781821
 31
0.0
  0
ARC
  5
2FEB
  8
0
 10
698.9167335630739899
 20
34.0163165744242804
 30
0.0
 40
0.0333124890067253
 50
45.8757017013179791
 51
83.5814787486009863
  0
ARC
  5
2FEC
  8
0
 10
698.9180727529209207
 20
34.0613053153142928
 30
0.0
 40
0.0303607479682646
 50
274.5051907911455942
 51
316.0376287589334083
  0
ARC
  5
2FED
  8
0
 10
698.9551889936952875
 20
34.0606326970082165
 30
0.0
 40
0.0403979273134158
 50
297.6277410207659955
 51
350.457253525299393
  0
ARC
  5
2FEE
  8
0
 10
698.9285739253314205
 20
34.1045642833389877
 30
0.0
 40
0.0917185985503799
 50
276.7332494718427256
 51
299.632295091559115
  0
ARC
  5
2FEF
  8
0
 10
698.9138675148690254
 20
34.2411639396518979
 30
0.0
 40
0.2291047246613083
 50
271.6483053284679272
 51
276.3803935478089784
  0
ARC
  5
2FF0
  8
0
 10
698.9734190536895539
 20
34.0549034470121086
 30
0.0
 40
0.0216305216055767
 50
357.4349195194055255
 51
48.4563613373166788
  0
ARC
  5
2FF1
  8
0
 10
698.943344938141081
 20
34.019914745782728
 30
0.0
 40
0.0677662711059484
 50
49.0441319129181323
 51
74.7929879272899854
  0
ARC
  5
2FF2
  8
0
 10
698.9231185241844742
 20
33.9571572395246832
 30
0.0
 40
0.1336667698514042
 50
73.4827489262761588
 51
85.4542838999904149
  0
ARC
  5
2FF3
  8
0
 10
698.8998616522500242
 20
33.4404733215644114
 30
0.0
 40
0.6508111565202995
 50
87.0185358555674355
 51
88.1864841793668717
  0
ARC
  5
2FF4
  8
0
 10
698.868657717172141
 20
34.0857173136457803
 30
0.0
 40
0.0264225791564705
 50
120.2495699796525059
 51
183.2932686671749138
  0
ARC
  5
2FF5
  8
0
 10
698.9142205656713713
 20
33.9924065329879213
 30
0.0
 40
0.1302059839604101
 50
56.9355844709224286
 51
116.8822273020840044
  0
ARC
  5
2FF6
  8
0
 10
698.9547374255828345
 20
34.0641343412690318
 30
0.0
 40
0.048267223591841
 50
24.5639241348906303
 51
50.7772852487177317
  0
LINE
  5
2FF7
  8
0
 10
698.9374948591794237
 20
34.1911549402205992
 30
0.0
 11
698.9338863906793904
 21
34.2214189714205972
 31
0.0
  0
ARC
  5
2FF8
  8
0
 10
699.0157891982930778
 20
34.1535361231667167
 30
0.0
 40
0.0333124890067253
 50
96.4185212513989995
 51
134.1242982986819925
  0
ARC
  5
2FF9
  8
0
 10
699.014450008446147
 20
34.1985248640567221
 30
0.0
 40
0.0303607479682646
 50
223.9623712410659948
 51
265.4948092088542921
  0
ARC
  5
2FFA
  8
0
 10
698.9773337676717802
 20
34.1978522457506386
 30
0.0
 40
0.0403979273134158
 50
189.542746474700607
 51
242.3722589792340045
  0
ARC
  5
2FFB
  8
0
 10
699.0039488360355335
 20
34.241783832081417
 30
0.0
 40
0.0917185985503799
 50
240.3677049084409134
 51
263.2667505281572744
  0
ARC
  5
2FFC
  8
0
 10
699.0186552464980423
 20
34.3783834883943271
 30
0.0
 40
0.2291047246613083
 50
263.6196064521910216
 51
268.3516946715320728
  0
ARC
  5
2FFD
  8
0
 10
698.9591037076775137
 20
34.1921229957545521
 30
0.0
 40
0.0216305216055767
 50
131.5436386626832928
 51
182.5650804805945029
  0
ARC
  5
2FFE
  8
0
 10
698.989177823225873
 20
34.1571342945251502
 30
0.0
 40
0.0677662711059484
 50
105.2070120727100004
 51
130.9558680870819103
  0
ARC
  5
2FFF
  8
0
 10
699.0094042371824798
 20
34.0943767882670983
 30
0.0
 40
0.1336667698514042
 50
94.5457161000095851
 51
106.5172510737237985
  0
ARC
  5
3000
  8
0
 10
699.0326611091169298
 20
33.5776928703068478
 30
0.0
 40
0.6508111565202995
 50
91.8135158206331425
 51
92.9814641444325645
  0
LINE
  5
3001
  8
0
 10
699.0866355198794508
 20
34.1911549402205992
 30
0.0
 11
699.0902439883792567
 21
34.2214189714205972
 31
0.0
  0
ARC
  5
3002
  8
0
 10
699.0083411807657967
 20
34.1535361231667167
 30
0.0
 40
0.0333124890067253
 50
45.8757017013179791
 51
83.5814787486009863
  0
ARC
  5
3003
  8
0
 10
699.0096803706127275
 20
34.1985248640567221
 30
0.0
 40
0.0303607479682646
 50
274.5051907911455942
 51
316.0376287589334083
  0
ARC
  5
3004
  8
0
 10
699.0467966113870943
 20
34.1978522457506386
 30
0.0
 40
0.0403979273134158
 50
297.6277410207659955
 51
350.457253525299393
  0
ARC
  5
3005
  8
0
 10
699.0201815430232273
 20
34.241783832081417
 30
0.0
 40
0.0917185985503799
 50
276.7332494718427256
 51
299.632295091559115
  0
ARC
  5
3006
  8
0
 10
699.0054751325608322
 20
34.3783834883943271
 30
0.0
 40
0.2291047246613083
 50
271.6483053284679272
 51
276.3803935478089784
  0
ARC
  5
3007
  8
0
 10
699.0650266713813608
 20
34.1921229957545521
 30
0.0
 40
0.0216305216055767
 50
357.4349195194055255
 51
48.4563613373166788
  0
ARC
  5
3008
  8
0
 10
699.0349525558328878
 20
34.1571342945251502
 30
0.0
 40
0.0677662711059484
 50
49.0441319129181323
 51
74.7929879272899854
  0
ARC
  5
3009
  8
0
 10
699.0147261418763946
 20
34.0943767882670983
 30
0.0
 40
0.1336667698514042
 50
73.4827489262761588
 51
85.4542838999904149
  0
ARC
  5
300A
  8
0
 10
698.991469269941831
 20
33.5776928703068478
 30
0.0
 40
0.6508111565202995
 50
87.0185358555674355
 51
88.1864841793668717
  0
ARC
  5
300B
  8
0
 10
698.9602653348639478
 20
34.2229368623882024
 30
0.0
 40
0.0264225791564705
 50
120.2495699796525059
 51
183.2932686671749138
  0
ARC
  5
300C
  8
0
 10
699.0058281833632918
 20
34.1296260817303434
 30
0.0
 40
0.1302059839604101
 50
56.9355844709224286
 51
116.8822273020840044
  0
ARC
  5
300D
  8
0
 10
699.0463450432746413
 20
34.2013538900114611
 30
0.0
 40
0.048267223591841
 50
24.5639241348906303
 51
50.7772852487177317
  0
LINE
  5
300E
  8
0
 10
698.8198500319973618
 20
34.3562768666219398
 30
0.0
 11
698.8162415634974423
 21
34.386540897821952
 31
0.0
  0
ARC
  5
300F
  8
0
 10
698.8981443711111297
 20
34.3186580495680573
 30
0.0
 40
0.0333124890067253
 50
96.4185212513989995
 51
134.1242982986819925
  0
ARC
  5
3010
  8
0
 10
698.8968051812641988
 20
34.3636467904580627
 30
0.0
 40
0.0303607479682646
 50
223.9623712410659948
 51
265.4948092088542921
  0
ARC
  5
3011
  8
0
 10
698.8596889404897183
 20
34.3629741721519792
 30
0.0
 40
0.0403979273134158
 50
189.542746474700607
 51
242.3722589792340045
  0
ARC
  5
3012
  8
0
 10
698.8863040088535854
 20
34.4069057584827718
 30
0.0
 40
0.0917185985503799
 50
240.3677049084409134
 51
263.2667505281572744
  0
ARC
  5
3013
  8
0
 10
698.9010104193160942
 20
34.5435054147956819
 30
0.0
 40
0.2291047246613083
 50
263.6196064521910216
 51
268.3516946715320728
  0
ARC
  5
3014
  8
0
 10
698.8414588804954519
 20
34.3572449221558927
 30
0.0
 40
0.0216305216055767
 50
131.5436386626832928
 51
182.5650804805945029
  0
ARC
  5
3015
  8
0
 10
698.8715329960439249
 20
34.3222562209264908
 30
0.0
 40
0.0677662711059484
 50
105.2070120727100004
 51
130.9558680870819103
  0
ARC
  5
3016
  8
0
 10
698.8917594100005317
 20
34.2594987146684389
 30
0.0
 40
0.1336667698514042
 50
94.5457161000095851
 51
106.5172510737237985
  0
ARC
  5
3017
  8
0
 10
698.9150162819348679
 20
33.7428147967081884
 30
0.0
 40
0.6508111565202995
 50
91.8135158206331425
 51
92.9814641444325645
  0
LINE
  5
3018
  8
0
 10
698.9689906926975027
 20
34.3562768666219398
 30
0.0
 11
698.9725991611974223
 21
34.386540897821952
 31
0.0
  0
ARC
  5
3019
  8
0
 10
698.8906963535838486
 20
34.3186580495680573
 30
0.0
 40
0.0333124890067253
 50
45.8757017013179791
 51
83.5814787486009863
  0
ARC
  5
301A
  8
0
 10
698.8920355434307794
 20
34.3636467904580627
 30
0.0
 40
0.0303607479682646
 50
274.5051907911455942
 51
316.0376287589334083
  0
ARC
  5
301B
  8
0
 10
698.9291517842051462
 20
34.3629741721519792
 30
0.0
 40
0.0403979273134158
 50
297.6277410207659955
 51
350.457253525299393
  0
ARC
  5
301C
  8
0
 10
698.9025367158411655
 20
34.4069057584827718
 30
0.0
 40
0.0917185985503799
 50
276.7332494718427256
 51
299.632295091559115
  0
ARC
  5
301D
  8
0
 10
698.8878303053787704
 20
34.5435054147956819
 30
0.0
 40
0.2291047246613083
 50
271.6483053284679272
 51
276.3803935478089784
  0
ARC
  5
301E
  8
0
 10
698.9473818441994126
 20
34.3572449221558927
 30
0.0
 40
0.0216305216055767
 50
357.4349195194055255
 51
48.4563613373166788
  0
ARC
  5
301F
  8
0
 10
698.9173077286509397
 20
34.3222562209264908
 30
0.0
 40
0.0677662711059484
 50
49.0441319129181323
 51
74.7929879272899854
  0
ARC
  5
3020
  8
0
 10
698.8970813146943328
 20
34.2594987146684389
 30
0.0
 40
0.1336667698514042
 50
73.4827489262761588
 51
85.4542838999904149
  0
ARC
  5
3021
  8
0
 10
698.8738244427597692
 20
33.7428147967081884
 30
0.0
 40
0.6508111565202995
 50
87.0185358555674355
 51
88.1864841793668717
  0
ARC
  5
3022
  8
0
 10
698.842620507681886
 20
34.3880587887895501
 30
0.0
 40
0.0264225791564705
 50
120.2495699796525059
 51
183.2932686671749138
  0
ARC
  5
3023
  8
0
 10
698.8881833561813437
 20
34.2947480081316769
 30
0.0
 40
0.1302059839604101
 50
56.9355844709224286
 51
116.8822273020840044
  0
ARC
  5
3024
  8
0
 10
698.9287002160926932
 20
34.3664758164128017
 30
0.0
 40
0.048267223591841
 50
24.5639241348906303
 51
50.7772852487177317
  0
LINE
  5
3025
  8
0
 10
698.8124731544879751
 20
34.5272951685972629
 30
0.0
 11
698.8088646859880555
 21
34.557559199797268
 31
0.0
  0
ARC
  5
3026
  8
0
 10
698.8907674936016292
 20
34.4896763515433804
 30
0.0
 40
0.0333124890067253
 50
96.4185212513989995
 51
134.1242982986819925
  0
ARC
  5
3027
  8
0
 10
698.8894283037546984
 20
34.5346650924333929
 30
0.0
 40
0.0303607479682646
 50
223.9623712410659948
 51
265.4948092088542921
  0
ARC
  5
3028
  8
0
 10
698.8523120629803316
 20
34.5339924741273023
 30
0.0
 40
0.0403979273134158
 50
189.542746474700607
 51
242.3722589792340045
  0
ARC
  5
3029
  8
0
 10
698.8789271313441986
 20
34.5779240604580878
 30
0.0
 40
0.0917185985503799
 50
240.3677049084409134
 51
263.2667505281572744
  0
ARC
  5
302A
  8
0
 10
698.8936335418067074
 20
34.7145237167709979
 30
0.0
 40
0.2291047246613083
 50
263.6196064521910216
 51
268.3516946715320728
  0
ARC
  5
302B
  8
0
 10
698.8340820029859515
 20
34.5282632241312086
 30
0.0
 40
0.0216305216055767
 50
131.5436386626832928
 51
182.5650804805945029
  0
ARC
  5
302C
  8
0
 10
698.8641561185345381
 20
34.4932745229018209
 30
0.0
 40
0.0677662711059484
 50
105.2070120727100004
 51
130.9558680870819103
  0
ARC
  5
302D
  8
0
 10
698.884382532491145
 20
34.430517016643762
 30
0.0
 40
0.1336667698514042
 50
94.5457161000095851
 51
106.5172510737237985
  0
ARC
  5
302E
  8
0
 10
698.9076394044254812
 20
33.9138330986835115
 30
0.0
 40
0.6508111565202995
 50
91.8135158206331425
 51
92.9814641444325645
  0
LINE
  5
302F
  8
0
 10
698.9616138151878886
 20
34.5272951685972629
 30
0.0
 11
698.9652222836880355
 21
34.557559199797268
 31
0.0
  0
ARC
  5
3030
  8
0
 10
698.8833194760743481
 20
34.4896763515433804
 30
0.0
 40
0.0333124890067253
 50
45.8757017013179791
 51
83.5814787486009863
  0
ARC
  5
3031
  8
0
 10
698.8846586659213926
 20
34.5346650924333929
 30
0.0
 40
0.0303607479682646
 50
274.5051907911455942
 51
316.0376287589334083
  0
ARC
  5
3032
  8
0
 10
698.9217749066956458
 20
34.5339924741273023
 30
0.0
 40
0.0403979273134158
 50
297.6277410207659955
 51
350.457253525299393
  0
ARC
  5
3033
  8
0
 10
698.8951598383318924
 20
34.5779240604580878
 30
0.0
 40
0.0917185985503799
 50
276.7332494718427256
 51
299.632295091559115
  0
ARC
  5
3034
  8
0
 10
698.8804534278693836
 20
34.7145237167709979
 30
0.0
 40
0.2291047246613083
 50
271.6483053284679272
 51
276.3803935478089784
  0
ARC
  5
3035
  8
0
 10
698.9400049666897985
 20
34.5282632241312086
 30
0.0
 40
0.0216305216055767
 50
357.4349195194055255
 51
48.4563613373166788
  0
ARC
  5
3036
  8
0
 10
698.9099308511415529
 20
34.4932745229018209
 30
0.0
 40
0.0677662711059484
 50
49.0441319129181323
 51
74.7929879272899854
  0
ARC
  5
3037
  8
0
 10
698.8897044371849461
 20
34.430517016643762
 30
0.0
 40
0.1336667698514042
 50
73.4827489262761588
 51
85.4542838999904149
  0
ARC
  5
3038
  8
0
 10
698.8664475652503825
 20
33.9138330986835115
 30
0.0
 40
0.6508111565202995
 50
87.0185358555674355
 51
88.1864841793668717
  0
ARC
  5
3039
  8
0
 10
698.8352436301726129
 20
34.559077090764859
 30
0.0
 40
0.0264225791564705
 50
120.2495699796525059
 51
183.2932686671749138
  0
ARC
  5
303A
  8
0
 10
698.8808064786718433
 20
34.465766310107
 30
0.0
 40
0.1302059839604101
 50
56.9355844709224286
 51
116.8822273020840044
  0
ARC
  5
303B
  8
0
 10
698.9213233385831927
 20
34.5374941183881319
 30
0.0
 40
0.048267223591841
 50
24.5639241348906303
 51
50.7772852487177317
  0
LINE
  5
303C
  8
0
 10
698.9457992120522931
 20
34.6901395344072228
 30
0.0
 11
698.9421907435521462
 21
34.7204035656072278
 31
0.0
  0
ARC
  5
303D
  8
0
 10
699.0240935511659472
 20
34.6525207173533403
 30
0.0
 40
0.0333124890067253
 50
96.4185212513989995
 51
134.1242982986819925
  0
ARC
  5
303E
  8
0
 10
699.0227543613189027
 20
34.6975094582433528
 30
0.0
 40
0.0303607479682646
 50
223.9623712410659948
 51
265.4948092088542921
  0
ARC
  5
303F
  8
0
 10
698.9856381205445359
 20
34.6968368399372835
 30
0.0
 40
0.0403979273134158
 50
189.542746474700607
 51
242.3722589792340045
  0
ARC
  5
3040
  8
0
 10
699.012253188908403
 20
34.7407684262680476
 30
0.0
 40
0.0917185985503799
 50
240.3677049084409134
 51
263.2667505281572744
  0
ARC
  5
3041
  8
0
 10
699.0269595993709117
 20
34.8773680825809578
 30
0.0
 40
0.2291047246613083
 50
263.6196064521910216
 51
268.3516946715320728
  0
ARC
  5
3042
  8
0
 10
698.9674080605502695
 20
34.6911075899411685
 30
0.0
 40
0.0216305216055767
 50
131.5436386626832928
 51
182.5650804805945029
  0
ARC
  5
3043
  8
0
 10
698.9974821760987425
 20
34.6561188887117666
 30
0.0
 40
0.0677662711059484
 50
105.2070120727100004
 51
130.9558680870819103
  0
ARC
  5
3044
  8
0
 10
699.0177085900553493
 20
34.5933613824537431
 30
0.0
 40
0.1336667698514042
 50
94.5457161000095851
 51
106.5172510737237985
  0
ARC
  5
3045
  8
0
 10
699.0409654619897992
 20
34.0766774644934713
 30
0.0
 40
0.6508111565202995
 50
91.8135158206331425
 51
92.9814641444325645
  0
LINE
  5
3046
  8
0
 10
699.0949398727523203
 20
34.6901395344072228
 30
0.0
 11
699.0985483412522399
 21
34.7204035656072278
 31
0.0
  0
ARC
  5
3047
  8
0
 10
699.0166455336385525
 20
34.6525207173533403
 30
0.0
 40
0.0333124890067253
 50
45.8757017013179791
 51
83.5814787486009863
  0
ARC
  5
3048
  8
0
 10
699.0179847234854833
 20
34.6975094582433528
 30
0.0
 40
0.0303607479682646
 50
274.5051907911455942
 51
316.0376287589334083
  0
ARC
  5
3049
  8
0
 10
699.0551009642598501
 20
34.6968368399372835
 30
0.0
 40
0.0403979273134158
 50
297.6277410207659955
 51
350.457253525299393
  0
ARC
  5
304A
  8
0
 10
699.028485895895983
 20
34.7407684262680476
 30
0.0
 40
0.0917185985503799
 50
276.7332494718427256
 51
299.632295091559115
  0
ARC
  5
304B
  8
0
 10
699.0137794854334743
 20
34.8773680825809578
 30
0.0
 40
0.2291047246613083
 50
271.6483053284679272
 51
276.3803935478089784
  0
ARC
  5
304C
  8
0
 10
699.0733310242542302
 20
34.6911075899411685
 30
0.0
 40
0.0216305216055767
 50
357.4349195194055255
 51
48.4563613373166788
  0
ARC
  5
304D
  8
0
 10
699.0432569087056436
 20
34.6561188887117666
 30
0.0
 40
0.0677662711059484
 50
49.0441319129181323
 51
74.7929879272899854
  0
ARC
  5
304E
  8
0
 10
699.0230304947491504
 20
34.5933613824537431
 30
0.0
 40
0.1336667698514042
 50
73.4827489262761588
 51
85.4542838999904149
  0
ARC
  5
304F
  8
0
 10
698.9997736228147005
 20
34.0766774644934713
 30
0.0
 40
0.6508111565202995
 50
87.0185358555674355
 51
88.1864841793668717
  0
ARC
  5
3050
  8
0
 10
698.9685696877367036
 20
34.7219214565748402
 30
0.0
 40
0.0264225791564705
 50
120.2495699796525059
 51
183.2932686671749138
  0
ARC
  5
3051
  8
0
 10
699.0141325362360476
 20
34.6286106759169598
 30
0.0
 40
0.1302059839604101
 50
56.9355844709224286
 51
116.8822273020840044
  0
ARC
  5
3052
  8
0
 10
699.0546493961475107
 20
34.7003384841980775
 30
0.0
 40
0.048267223591841
 50
24.5639241348906303
 51
50.7772852487177317
  0
LINE
  5
3053
  8
0
 10
699.1841422723566666
 20
34.8229330126621193
 30
0.0
 11
699.1805338038566333
 21
34.8531970438621101
 31
0.0
  0
ARC
  5
3054
  8
0
 10
699.2624366114703207
 20
34.7853141956082226
 30
0.0
 40
0.0333124890067253
 50
96.4185212513989995
 51
134.1242982986819925
  0
ARC
  5
3055
  8
0
 10
699.2610974216232762
 20
34.830302936498228
 30
0.0
 40
0.0303607479682646
 50
223.9623712410659948
 51
265.4948092088542921
  0
ARC
  5
3056
  8
0
 10
699.2239811808489094
 20
34.8296303181921587
 30
0.0
 40
0.0403979273134158
 50
189.542746474700607
 51
242.3722589792340045
  0
ARC
  5
3057
  8
0
 10
699.2505962492127765
 20
34.873561904522937
 30
0.0
 40
0.0917185985503799
 50
240.3677049084409134
 51
263.2667505281572744
  0
ARC
  5
3058
  8
0
 10
699.2653026596752852
 20
35.0101615608358401
 30
0.0
 40
0.2291047246613083
 50
263.6196064521910216
 51
268.3516946715320728
  0
ARC
  5
3059
  8
0
 10
699.2057511208547567
 20
34.8239010681960508
 30
0.0
 40
0.0216305216055767
 50
131.5436386626832928
 51
182.5650804805945029
  0
ARC
  5
305A
  8
0
 10
699.2358252364031159
 20
34.7889123669666631
 30
0.0
 40
0.0677662711059484
 50
105.2070120727100004
 51
130.9558680870819103
  0
ARC
  5
305B
  8
0
 10
699.2560516503597228
 20
34.7261548607086183
 30
0.0
 40
0.1336667698514042
 50
94.5457161000095851
 51
106.5172510737237985
  0
ARC
  5
305C
  8
0
 10
699.2793085222941727
 20
34.2094709427483465
 30
0.0
 40
0.6508111565202995
 50
91.8135158206331425
 51
92.9814641444325645
  0
LINE
  5
305D
  8
0
 10
699.3332829330566938
 20
34.8229330126621193
 30
0.0
 11
699.3368914015566133
 21
34.8531970438621101
 31
0.0
  0
ARC
  5
305E
  8
0
 10
699.2549885939430396
 20
34.7853141956082226
 30
0.0
 40
0.0333124890067253
 50
45.8757017013179791
 51
83.5814787486009863
  0
ARC
  5
305F
  8
0
 10
699.2563277837898568
 20
34.830302936498228
 30
0.0
 40
0.0303607479682646
 50
274.5051907911455942
 51
316.0376287589334083
  0
ARC
  5
3060
  8
0
 10
699.2934440245643373
 20
34.8296303181921587
 30
0.0
 40
0.0403979273134158
 50
297.6277410207659955
 51
350.457253525299393
  0
ARC
  5
3061
  8
0
 10
699.2668289562003565
 20
34.873561904522937
 30
0.0
 40
0.0917185985503799
 50
276.7332494718427256
 51
299.632295091559115
  0
ARC
  5
3062
  8
0
 10
699.2521225457379614
 20
35.0101615608358401
 30
0.0
 40
0.2291047246613083
 50
271.6483053284679272
 51
276.3803935478089784
  0
ARC
  5
3063
  8
0
 10
699.3116740845586037
 20
34.8239010681960508
 30
0.0
 40
0.0216305216055767
 50
357.4349195194055255
 51
48.4563613373166788
  0
ARC
  5
3064
  8
0
 10
699.2815999690101307
 20
34.7889123669666631
 30
0.0
 40
0.0677662711059484
 50
49.0441319129181323
 51
74.7929879272899854
  0
ARC
  5
3065
  8
0
 10
699.2613735550535239
 20
34.7261548607086183
 30
0.0
 40
0.1336667698514042
 50
73.4827489262761588
 51
85.4542838999904149
  0
ARC
  5
3066
  8
0
 10
699.2381166831189603
 20
34.2094709427483465
 30
0.0
 40
0.6508111565202995
 50
87.0185358555674355
 51
88.1864841793668717
  0
ARC
  5
3067
  8
0
 10
699.2069127480410771
 20
34.8547149348297225
 30
0.0
 40
0.0264225791564705
 50
120.2495699796525059
 51
183.2932686671749138
  0
ARC
  5
3068
  8
0
 10
699.2524755965405348
 20
34.7614041541718635
 30
0.0
 40
0.1302059839604101
 50
56.9355844709224286
 51
116.8822273020840044
  0
ARC
  5
3069
  8
0
 10
699.2929924564518842
 20
34.8331319624529669
 30
0.0
 40
0.048267223591841
 50
24.5639241348906303
 51
50.7772852487177317
  0
LINE
  5
306A
  8
0
 10
699.4998589997716181
 20
34.9095230242692196
 30
0.0
 11
699.4962505312716985
 21
34.9397870554692176
 31
0.0
  0
ARC
  5
306B
  8
0
 10
699.5781533388852722
 20
34.8719042072153371
 30
0.0
 40
0.0333124890067253
 50
96.4185212513989995
 51
134.1242982986819925
  0
ARC
  5
306C
  8
0
 10
699.5768141490383414
 20
34.9168929481053425
 30
0.0
 40
0.0303607479682646
 50
223.9623712410659948
 51
265.4948092088542921
  0
ARC
  5
306D
  8
0
 10
699.5396979082639746
 20
34.916220329799259
 30
0.0
 40
0.0403979273134158
 50
189.542746474700607
 51
242.3722589792340045
  0
ARC
  5
306E
  8
0
 10
699.5663129766278416
 20
34.9601519161300374
 30
0.0
 40
0.0917185985503799
 50
240.3677049084409134
 51
263.2667505281572744
  0
ARC
  5
306F
  8
0
 10
699.5810193870902367
 20
35.0967515724429475
 30
0.0
 40
0.2291047246613083
 50
263.6196064521910216
 51
268.3516946715320728
  0
ARC
  5
3070
  8
0
 10
699.5214678482697082
 20
34.9104910798031582
 30
0.0
 40
0.0216305216055767
 50
131.5436386626832928
 51
182.5650804805945029
  0
ARC
  5
3071
  8
0
 10
699.5515419638181811
 20
34.8755023785737706
 30
0.0
 40
0.0677662711059484
 50
105.2070120727100004
 51
130.9558680870819103
  0
ARC
  5
3072
  8
0
 10
699.571768377774788
 20
34.8127448723157329
 30
0.0
 40
0.1336667698514042
 50
94.5457161000095851
 51
106.5172510737237985
  0
ARC
  5
3073
  8
0
 10
699.5950252497092379
 20
34.2960609543554682
 30
0.0
 40
0.6508111565202995
 50
91.8135158206331425
 51
92.9814641444325645
  0
LINE
  5
3074
  8
0
 10
699.6489996604716453
 20
34.9095230242692196
 30
0.0
 11
699.6526081289715648
 21
34.9397870554692176
 31
0.0
  0
ARC
  5
3075
  8
0
 10
699.5707053213578774
 20
34.8719042072153371
 30
0.0
 40
0.0333124890067253
 50
45.8757017013179791
 51
83.5814787486009863
  0
ARC
  5
3076
  8
0
 10
699.5720445112048083
 20
34.9168929481053425
 30
0.0
 40
0.0303607479682646
 50
274.5051907911455942
 51
316.0376287589334083
  0
ARC
  5
3077
  8
0
 10
699.6091607519794024
 20
34.916220329799259
 30
0.0
 40
0.0403979273134158
 50
297.6277410207659955
 51
350.457253525299393
  0
ARC
  5
3078
  8
0
 10
699.5825456836155354
 20
34.9601519161300374
 30
0.0
 40
0.0917185985503799
 50
276.7332494718427256
 51
299.632295091559115
  0
ARC
  5
3079
  8
0
 10
699.5678392731530266
 20
35.0967515724429475
 30
0.0
 40
0.2291047246613083
 50
271.6483053284679272
 51
276.3803935478089784
  0
ARC
  5
307A
  8
0
 10
699.6273908119735552
 20
34.9104910798031582
 30
0.0
 40
0.0216305216055767
 50
357.4349195194055255
 51
48.4563613373166788
  0
ARC
  5
307B
  8
0
 10
699.5973166964251959
 20
34.8755023785737706
 30
0.0
 40
0.0677662711059484
 50
49.0441319129181323
 51
74.7929879272899854
  0
ARC
  5
307C
  8
0
 10
699.5770902824685891
 20
34.8127448723157329
 30
0.0
 40
0.1336667698514042
 50
73.4827489262761588
 51
85.4542838999904149
  0
ARC
  5
307D
  8
0
 10
699.5538334105341391
 20
34.2960609543554682
 30
0.0
 40
0.6508111565202995
 50
87.0185358555674355
 51
88.1864841793668717
  0
ARC
  5
307E
  8
0
 10
699.5226294754561422
 20
34.9413049464368228
 30
0.0
 40
0.0264225791564705
 50
120.2495699796525059
 51
183.2932686671749138
  0
ARC
  5
307F
  8
0
 10
699.5681923239554862
 20
34.8479941657789567
 30
0.0
 40
0.1302059839604101
 50
56.9355844709224286
 51
116.8822273020840044
  0
ARC
  5
3080
  8
0
 10
699.6087091838669494
 20
34.9197219740600815
 30
0.0
 40
0.048267223591841
 50
24.5639241348906303
 51
50.7772852487177317
  0
LINE
  5
3081
  8
0
 10
699.5186222483074516
 20
34.6577890141771618
 30
0.0
 11
699.515013779807532
 21
34.6880530453771598
 31
0.0
  0
ARC
  5
3082
  8
0
 10
699.5969165874212194
 20
34.6201701971232723
 30
0.0
 40
0.0333124890067253
 50
96.4185212513989995
 51
134.1242982986819925
  0
ARC
  5
3083
  8
0
 10
699.5955773975742886
 20
34.6651589380132776
 30
0.0
 40
0.0303607479682646
 50
223.9623712410659948
 51
265.4948092088542921
  0
ARC
  5
3084
  8
0
 10
699.5584611567998081
 20
34.6644863197071871
 30
0.0
 40
0.0403979273134158
 50
189.542746474700607
 51
242.3722589792340045
  0
ARC
  5
3085
  8
0
 10
699.5850762251635615
 20
34.7084179060379796
 30
0.0
 40
0.0917185985503799
 50
240.3677049084409134
 51
263.2667505281572744
  0
ARC
  5
3086
  8
0
 10
699.5997826356260703
 20
34.8450175623508898
 30
0.0
 40
0.2291047246613083
 50
263.6196064521910216
 51
268.3516946715320728
  0
ARC
  5
3087
  8
0
 10
699.5402310968056554
 20
34.6587570697111005
 30
0.0
 40
0.0216305216055767
 50
131.5436386626832928
 51
182.5650804805945029
  0
ARC
  5
3088
  8
0
 10
699.570305212353901
 20
34.6237683684817128
 30
0.0
 40
0.0677662711059484
 50
105.2070120727100004
 51
130.9558680870819103
  0
ARC
  5
3089
  8
0
 10
699.5905316263105078
 20
34.5610108622236609
 30
0.0
 40
0.1336667698514042
 50
94.5457161000095851
 51
106.5172510737237985
  0
ARC
  5
308A
  8
0
 10
699.6137884982449577
 20
34.0443269442634033
 30
0.0
 40
0.6508111565202995
 50
91.8135158206331425
 51
92.9814641444325645
  0
LINE
  5
308B
  8
0
 10
699.6677629090075925
 20
34.6577890141771618
 30
0.0
 11
699.6713713775075121
 21
34.6880530453771598
 31
0.0
  0
ARC
  5
308C
  8
0
 10
699.5894685698939384
 20
34.6201701971232723
 30
0.0
 40
0.0333124890067253
 50
45.8757017013179791
 51
83.5814787486009863
  0
ARC
  5
308D
  8
0
 10
699.5908077597407555
 20
34.6651589380132776
 30
0.0
 40
0.0303607479682646
 50
274.5051907911455942
 51
316.0376287589334083
  0
ARC
  5
308E
  8
0
 10
699.627924000515236
 20
34.6644863197071871
 30
0.0
 40
0.0403979273134158
 50
297.6277410207659955
 51
350.457253525299393
  0
ARC
  5
308F
  8
0
 10
699.6013089321513689
 20
34.7084179060379796
 30
0.0
 40
0.0917185985503799
 50
276.7332494718427256
 51
299.632295091559115
  0
ARC
  5
3090
  8
0
 10
699.5866025216889739
 20
34.8450175623508898
 30
0.0
 40
0.2291047246613083
 50
271.6483053284679272
 51
276.3803935478089784
  0
ARC
  5
3091
  8
0
 10
699.6461540605093887
 20
34.6587570697111005
 30
0.0
 40
0.0216305216055767
 50
357.4349195194055255
 51
48.4563613373166788
  0
ARC
  5
3092
  8
0
 10
699.6160799449610295
 20
34.6237683684817128
 30
0.0
 40
0.0677662711059484
 50
49.0441319129181323
 51
74.7929879272899854
  0
ARC
  5
3093
  8
0
 10
699.5958535310044226
 20
34.5610108622236609
 30
0.0
 40
0.1336667698514042
 50
73.4827489262761588
 51
85.4542838999904149
  0
ARC
  5
3094
  8
0
 10
699.5725966590699727
 20
34.0443269442634033
 30
0.0
 40
0.6508111565202995
 50
87.0185358555674355
 51
88.1864841793668717
  0
ARC
  5
3095
  8
0
 10
699.5413927239920895
 20
34.6895709363447509
 30
0.0
 40
0.0264225791564705
 50
120.2495699796525059
 51
183.2932686671749138
  0
ARC
  5
3096
  8
0
 10
699.5869555724914335
 20
34.5962601556868918
 30
0.0
 40
0.1302059839604101
 50
56.9355844709224286
 51
116.8822273020840044
  0
ARC
  5
3097
  8
0
 10
699.6274724324026693
 20
34.6679879639680166
 30
0.0
 40
0.048267223591841
 50
24.5639241348906303
 51
50.7772852487177317
  0
LINE
  5
3098
  8
0
 10
699.2643435814319446
 20
34.5394150690038799
 30
0.0
 11
699.2607351129321387
 21
34.5696791002038779
 31
0.0
  0
ARC
  5
3099
  8
0
 10
699.3426379205457124
 20
34.5017962519499974
 30
0.0
 40
0.0333124890067253
 50
96.4185212513989995
 51
134.1242982986819925
  0
ARC
  5
309A
  8
0
 10
699.3412987306987816
 20
34.5467849928400028
 30
0.0
 40
0.0303607479682646
 50
223.9623712410659948
 51
265.4948092088542921
  0
ARC
  5
309B
  8
0
 10
699.3041824899243011
 20
34.5461123745339194
 30
0.0
 40
0.0403979273134158
 50
189.542746474700607
 51
242.3722589792340045
  0
ARC
  5
309C
  8
0
 10
699.3307975582881681
 20
34.5900439608646977
 30
0.0
 40
0.0917185985503799
 50
240.3677049084409134
 51
263.2667505281572744
  0
ARC
  5
309D
  8
0
 10
699.3455039687507906
 20
34.7266436171776078
 30
0.0
 40
0.2291047246613083
 50
263.6196064521910216
 51
268.3516946715320728
  0
ARC
  5
309E
  8
0
 10
699.2859524299301484
 20
34.5403831245378328
 30
0.0
 40
0.0216305216055767
 50
131.5436386626832928
 51
182.5650804805945029
  0
ARC
  5
309F
  8
0
 10
699.3160265454786213
 20
34.5053944233084309
 30
0.0
 40
0.0677662711059484
 50
105.2070120727100004
 51
130.9558680870819103
  0
ARC
  5
30A0
  8
0
 10
699.3362529594352281
 20
34.442636917050379
 30
0.0
 40
0.1336667698514042
 50
94.5457161000095851
 51
106.5172510737237985
  0
ARC
  5
30A1
  8
0
 10
699.3595098313695644
 20
33.9259529990901285
 30
0.0
 40
0.6508111565202995
 50
91.8135158206331425
 51
92.9814641444325645
  0
LINE
  5
30A2
  8
0
 10
699.4134842421319718
 20
34.5394150690038799
 30
0.0
 11
699.4170927106321187
 21
34.5696791002038779
 31
0.0
  0
ARC
  5
30A3
  8
0
 10
699.335189903018545
 20
34.5017962519499974
 30
0.0
 40
0.0333124890067253
 50
45.8757017013179791
 51
83.5814787486009863
  0
ARC
  5
30A4
  8
0
 10
699.3365290928654758
 20
34.5467849928400028
 30
0.0
 40
0.0303607479682646
 50
274.5051907911455942
 51
316.0376287589334083
  0
ARC
  5
30A5
  8
0
 10
699.3736453336398426
 20
34.5461123745339194
 30
0.0
 40
0.0403979273134158
 50
297.6277410207659955
 51
350.457253525299393
  0
ARC
  5
30A6
  8
0
 10
699.3470302652759756
 20
34.5900439608646977
 30
0.0
 40
0.0917185985503799
 50
276.7332494718427256
 51
299.632295091559115
  0
ARC
  5
30A7
  8
0
 10
699.3323238548134668
 20
34.7266436171776078
 30
0.0
 40
0.2291047246613083
 50
271.6483053284679272
 51
276.3803935478089784
  0
ARC
  5
30A8
  8
0
 10
699.3918753936341091
 20
34.5403831245378328
 30
0.0
 40
0.0216305216055767
 50
357.4349195194055255
 51
48.4563613373166788
  0
ARC
  5
30A9
  8
0
 10
699.3618012780856361
 20
34.5053944233084309
 30
0.0
 40
0.0677662711059484
 50
49.0441319129181323
 51
74.7929879272899854
  0
ARC
  5
30AA
  8
0
 10
699.3415748641290293
 20
34.442636917050379
 30
0.0
 40
0.1336667698514042
 50
73.4827489262761588
 51
85.4542838999904149
  0
ARC
  5
30AB
  8
0
 10
699.3183179921944657
 20
33.9259529990901285
 30
0.0
 40
0.6508111565202995
 50
87.0185358555674355
 51
88.1864841793668717
  0
ARC
  5
30AC
  8
0
 10
699.2871140571166961
 20
34.5711969911714831
 30
0.0
 40
0.0264225791564705
 50
120.2495699796525059
 51
183.2932686671749138
  0
ARC
  5
30AD
  8
0
 10
699.3326769056160401
 20
34.477886210513617
 30
0.0
 40
0.1302059839604101
 50
56.9355844709224286
 51
116.8822273020840044
  0
ARC
  5
30AE
  8
0
 10
699.3731937655272759
 20
34.5496140187947418
 30
0.0
 40
0.048267223591841
 50
24.5639241348906303
 51
50.7772852487177317
  0
LINE
  5
30AF
  8
0
 10
699.1742804191284222
 20
34.3776703010793696
 30
0.0
 11
699.1706719506285026
 21
34.4079343322793534
 31
0.0
  0
ARC
  5
30B0
  8
0
 10
699.2525747582419626
 20
34.3400514840254729
 30
0.0
 40
0.0333124890067253
 50
96.4185212513989995
 51
134.1242982986819925
  0
ARC
  5
30B1
  8
0
 10
699.2512355683951455
 20
34.3850402249154712
 30
0.0
 40
0.0303607479682646
 50
223.9623712410659948
 51
265.4948092088542921
  0
ARC
  5
30B2
  8
0
 10
699.214119327620665
 20
34.3843676066094019
 30
0.0
 40
0.0403979273134158
 50
189.542746474700607
 51
242.3722589792340045
  0
ARC
  5
30B3
  8
0
 10
699.2407343959846457
 20
34.4282991929401874
 30
0.0
 40
0.0917185985503799
 50
240.3677049084409134
 51
263.2667505281572744
  0
ARC
  5
30B4
  8
0
 10
699.2554408064470408
 20
34.5648988492530833
 30
0.0
 40
0.2291047246613083
 50
263.6196064521910216
 51
268.3516946715320728
  0
ARC
  5
30B5
  8
0
 10
699.1958892676265123
 20
34.3786383566133011
 30
0.0
 40
0.0216305216055767
 50
131.5436386626832928
 51
182.5650804805945029
  0
ARC
  5
30B6
  8
0
 10
699.2259633831749852
 20
34.3436496553838992
 30
0.0
 40
0.0677662711059484
 50
105.2070120727100004
 51
130.9558680870819103
  0
ARC
  5
30B7
  8
0
 10
699.2461897971315921
 20
34.2808921491258616
 30
0.0
 40
0.1336667698514042
 50
94.5457161000095851
 51
106.5172510737237985
  0
ARC
  5
30B8
  8
0
 10
699.269446669066042
 20
33.7642082311655969
 30
0.0
 40
0.6508111565202995
 50
91.8135158206331425
 51
92.9814641444325645
  0
LINE
  5
30B9
  8
0
 10
699.3234210798284494
 20
34.3776703010793696
 30
0.0
 11
699.3270295483283689
 21
34.4079343322793534
 31
0.0
  0
ARC
  5
30BA
  8
0
 10
699.2451267407146815
 20
34.3400514840254729
 30
0.0
 40
0.0333124890067253
 50
45.8757017013179791
 51
83.5814787486009863
  0
ARC
  5
30BB
  8
0
 10
699.2464659305617261
 20
34.3850402249154712
 30
0.0
 40
0.0303607479682646
 50
274.5051907911455942
 51
316.0376287589334083
  0
ARC
  5
30BC
  8
0
 10
699.2835821713362066
 20
34.3843676066094019
 30
0.0
 40
0.0403979273134158
 50
297.6277410207659955
 51
350.457253525299393
  0
ARC
  5
30BD
  8
0
 10
699.2569671029723395
 20
34.4282991929401874
 30
0.0
 40
0.0917185985503799
 50
276.7332494718427256
 51
299.632295091559115
  0
ARC
  5
30BE
  8
0
 10
699.2422606925098307
 20
34.5648988492530833
 30
0.0
 40
0.2291047246613083
 50
271.6483053284679272
 51
276.3803935478089784
  0
ARC
  5
30BF
  8
0
 10
699.3018122313302456
 20
34.3786383566133011
 30
0.0
 40
0.0216305216055767
 50
357.4349195194055255
 51
48.4563613373166788
  0
ARC
  5
30C0
  8
0
 10
699.2717381157818863
 20
34.3436496553838992
 30
0.0
 40
0.0677662711059484
 50
49.0441319129181323
 51
74.7929879272899854
  0
ARC
  5
30C1
  8
0
 10
699.2515117018252795
 20
34.2808921491258616
 30
0.0
 40
0.1336667698514042
 50
73.4827489262761588
 51
85.4542838999904149
  0
ARC
  5
30C2
  8
0
 10
699.2282548298909433
 20
33.7642082311655969
 30
0.0
 40
0.6508111565202995
 50
87.0185358555674355
 51
88.1864841793668717
  0
ARC
  5
30C3
  8
0
 10
699.1970508948129464
 20
34.4094522232469586
 30
0.0
 40
0.0264225791564705
 50
120.2495699796525059
 51
183.2932686671749138
  0
ARC
  5
30C4
  8
0
 10
699.242613743312404
 20
34.3161414425890996
 30
0.0
 40
0.1302059839604101
 50
56.9355844709224286
 51
116.8822273020840044
  0
ARC
  5
30C5
  8
0
 10
699.2831306032237535
 20
34.3878692508702102
 30
0.0
 40
0.048267223591841
 50
24.5639241348906303
 51
50.7772852487177317
  0
LINE
  5
30C6
  8
0
 10
699.2638487475004467
 20
34.2159717910469823
 30
0.0
 11
699.2602402790006408
 21
34.2462358222469874
 31
0.0
  0
ARC
  5
30C7
  8
0
 10
699.3421430866142146
 20
34.1783529739930998
 30
0.0
 40
0.0333124890067253
 50
96.4185212513989995
 51
134.1242982986819925
  0
ARC
  5
30C8
  8
0
 10
699.3408038967672837
 20
34.223341714883091
 30
0.0
 40
0.0303607479682646
 50
223.9623712410659948
 51
265.4948092088542921
  0
ARC
  5
30C9
  8
0
 10
699.3036876559929169
 20
34.2226690965770217
 30
0.0
 40
0.0403979273134158
 50
189.542746474700607
 51
242.3722589792340045
  0
ARC
  5
30CA
  8
0
 10
699.330302724356784
 20
34.2666006829078071
 30
0.0
 40
0.0917185985503799
 50
240.3677049084409134
 51
263.2667505281572744
  0
ARC
  5
30CB
  8
0
 10
699.3450091348191791
 20
34.4032003392207031
 30
0.0
 40
0.2291047246613083
 50
263.6196064521910216
 51
268.3516946715320728
  0
ARC
  5
30CC
  8
0
 10
699.2854575959986505
 20
34.2169398465809067
 30
0.0
 40
0.0216305216055767
 50
131.5436386626832928
 51
182.5650804805945029
  0
ARC
  5
30CD
  8
0
 10
699.3155317115471235
 20
34.1819511453515403
 30
0.0
 40
0.0677662711059484
 50
105.2070120727100004
 51
130.9558680870819103
  0
ARC
  5
30CE
  8
0
 10
699.3357581255036166
 20
34.1191936390934814
 30
0.0
 40
0.1336667698514042
 50
94.5457161000095851
 51
106.5172510737237985
  0
ARC
  5
30CF
  8
0
 10
699.3590149974380665
 20
33.6025097211332167
 30
0.0
 40
0.6508111565202995
 50
91.8135158206331425
 51
92.9814641444325645
  0
LINE
  5
30D0
  8
0
 10
699.4129894082004739
 20
34.2159717910469823
 30
0.0
 11
699.4165978767006209
 21
34.2462358222469874
 31
0.0
  0
ARC
  5
30D1
  8
0
 10
699.3346950690869335
 20
34.1783529739930998
 30
0.0
 40
0.0333124890067253
 50
45.8757017013179791
 51
83.5814787486009863
  0
ARC
  5
30D2
  8
0
 10
699.336034258933978
 20
34.223341714883091
 30
0.0
 40
0.0303607479682646
 50
274.5051907911455942
 51
316.0376287589334083
  0
ARC
  5
30D3
  8
0
 10
699.3731504997083448
 20
34.2226690965770217
 30
0.0
 40
0.0403979273134158
 50
297.6277410207659955
 51
350.457253525299393
  0
ARC
  5
30D4
  8
0
 10
699.346535431344364
 20
34.2666006829078071
 30
0.0
 40
0.0917185985503799
 50
276.7332494718427256
 51
299.632295091559115
  0
ARC
  5
30D5
  8
0
 10
699.331829020881969
 20
34.4032003392207031
 30
0.0
 40
0.2291047246613083
 50
271.6483053284679272
 51
276.3803935478089784
  0
ARC
  5
30D6
  8
0
 10
699.3913805597023838
 20
34.2169398465809067
 30
0.0
 40
0.0216305216055767
 50
357.4349195194055255
 51
48.4563613373166788
  0
ARC
  5
30D7
  8
0
 10
699.3613064441541383
 20
34.1819511453515403
 30
0.0
 40
0.0677662711059484
 50
49.0441319129181323
 51
74.7929879272899854
  0
ARC
  5
30D8
  8
0
 10
699.3410800301975314
 20
34.1191936390934814
 30
0.0
 40
0.1336667698514042
 50
73.4827489262761588
 51
85.4542838999904149
  0
ARC
  5
30D9
  8
0
 10
699.3178231582629678
 20
33.6025097211332167
 30
0.0
 40
0.6508111565202995
 50
87.0185358555674355
 51
88.1864841793668717
  0
ARC
  5
30DA
  8
0
 10
699.2866192231850846
 20
34.2477537132145784
 30
0.0
 40
0.0264225791564705
 50
120.2495699796525059
 51
183.2932686671749138
  0
ARC
  5
30DB
  8
0
 10
699.3321820716844286
 20
34.1544429325567194
 30
0.0
 40
0.1302059839604101
 50
56.9355844709224286
 51
116.8822273020840044
  0
ARC
  5
30DC
  8
0
 10
699.3726989315958917
 20
34.22617074083783
 30
0.0
 40
0.048267223591841
 50
24.5639241348906303
 51
50.7772852487177317
  0
LINE
  5
30DD
  8
0
 10
699.1745085281994534
 20
34.0583986525123521
 30
0.0
 11
699.1709000596995338
 21
34.0886626837123572
 31
0.0
  0
ARC
  5
30DE
  8
0
 10
699.2528028673131075
 20
34.0207798354584696
 30
0.0
 40
0.0333124890067253
 50
96.4185212513989995
 51
134.1242982986819925
  0
ARC
  5
30DF
  8
0
 10
699.2514636774661767
 20
34.0657685763484821
 30
0.0
 40
0.0303607479682646
 50
223.9623712410659948
 51
265.4948092088542921
  0
ARC
  5
30E0
  8
0
 10
699.2143474366918099
 20
34.0650959580423915
 30
0.0
 40
0.0403979273134158
 50
189.542746474700607
 51
242.3722589792340045
  0
ARC
  5
30E1
  8
0
 10
699.2409625050555633
 20
34.109027544373177
 30
0.0
 40
0.0917185985503799
 50
240.3677049084409134
 51
263.2667505281572744
  0
ARC
  5
30E2
  8
0
 10
699.2556689155179583
 20
34.2456272006860871
 30
0.0
 40
0.2291047246613083
 50
263.6196064521910216
 51
268.3516946715320728
  0
ARC
  5
30E3
  8
0
 10
699.1961173766975435
 20
34.0593667080462978
 30
0.0
 40
0.0216305216055767
 50
131.5436386626832928
 51
182.5650804805945029
  0
ARC
  5
30E4
  8
0
 10
699.2261914922460164
 20
34.0243780068169102
 30
0.0
 40
0.0677662711059484
 50
105.2070120727100004
 51
130.9558680870819103
  0
ARC
  5
30E5
  8
0
 10
699.2464179062026233
 20
33.9616205005588725
 30
0.0
 40
0.1336667698514042
 50
94.5457161000095851
 51
106.5172510737237985
  0
ARC
  5
30E6
  8
0
 10
699.2696747781369595
 20
33.4449365825986007
 30
0.0
 40
0.6508111565202995
 50
91.8135158206331425
 51
92.9814641444325645
  0
LINE
  5
30E7
  8
0
 10
699.3236491888993669
 20
34.0583986525123521
 30
0.0
 11
699.3272576573994002
 21
34.0886626837123572
 31
0.0
  0
ARC
  5
30E8
  8
0
 10
699.2453548497858264
 20
34.0207798354584696
 30
0.0
 40
0.0333124890067253
 50
45.8757017013179791
 51
83.5814787486009863
  0
ARC
  5
30E9
  8
0
 10
699.2466940396326436
 20
34.0657685763484821
 30
0.0
 40
0.0303607479682646
 50
274.5051907911455942
 51
316.0376287589334083
  0
ARC
  5
30EA
  8
0
 10
699.2838102804072378
 20
34.0650959580423915
 30
0.0
 40
0.0403979273134158
 50
297.6277410207659955
 51
350.457253525299393
  0
ARC
  5
30EB
  8
0
 10
699.257195212043257
 20
34.109027544373177
 30
0.0
 40
0.0917185985503799
 50
276.7332494718427256
 51
299.632295091559115
  0
ARC
  5
30EC
  8
0
 10
699.2424888015808619
 20
34.2456272006860871
 30
0.0
 40
0.2291047246613083
 50
271.6483053284679272
 51
276.3803935478089784
  0
ARC
  5
30ED
  8
0
 10
699.3020403404012768
 20
34.0593667080462978
 30
0.0
 40
0.0216305216055767
 50
357.4349195194055255
 51
48.4563613373166788
  0
ARC
  5
30EE
  8
0
 10
699.2719662248530312
 20
34.0243780068169102
 30
0.0
 40
0.0677662711059484
 50
49.0441319129181323
 51
74.7929879272899854
  0
ARC
  5
30EF
  8
0
 10
699.2517398108964244
 20
33.9616205005588725
 30
0.0
 40
0.1336667698514042
 50
73.4827489262761588
 51
85.4542838999904149
  0
ARC
  5
30F0
  8
0
 10
699.2284829389618608
 20
33.4449365825986007
 30
0.0
 40
0.6508111565202995
 50
87.0185358555674355
 51
88.1864841793668717
  0
ARC
  5
30F1
  8
0
 10
699.1972790038839776
 20
34.0901805746799482
 30
0.0
 40
0.0264225791564705
 50
120.2495699796525059
 51
183.2932686671749138
  0
ARC
  5
30F2
  8
0
 10
699.2428418523833216
 20
33.9968697940220892
 30
0.0
 40
0.1302059839604101
 50
56.9355844709224286
 51
116.8822273020840044
  0
ARC
  5
30F3
  8
0
 10
699.283358712294671
 20
34.0685976023032211
 30
0.0
 40
0.048267223591841
 50
24.5639241348906303
 51
50.7772852487177317
  0
LINE
  5
30F4
  8
0
 10
699.1427660408921838
 20
33.9461254505500634
 30
0.0
 11
699.1391575723922642
 21
33.9763894817500613
 31
0.0
  0
ARC
  5
30F5
  8
0
 10
699.2210603800059516
 20
33.9085066334961667
 30
0.0
 40
0.0333124890067253
 50
96.4185212513989995
 51
134.1242982986819925
  0
ARC
  5
30F6
  8
0
 10
699.2197211901590208
 20
33.953495374386172
 30
0.0
 40
0.0303607479682646
 50
223.9623712410659948
 51
265.4948092088542921
  0
ARC
  5
30F7
  8
0
 10
699.182604949384654
 20
33.9528227560801028
 30
0.0
 40
0.0403979273134158
 50
189.542746474700607
 51
242.3722589792340045
  0
ARC
  5
30F8
  8
0
 10
699.2092200177485211
 20
33.9967543424108811
 30
0.0
 40
0.0917185985503799
 50
240.3677049084409134
 51
263.2667505281572744
  0
ARC
  5
30F9
  8
0
 10
699.2239264282109161
 20
34.1333539987237771
 30
0.0
 40
0.2291047246613083
 50
263.6196064521910216
 51
268.3516946715320728
  0
ARC
  5
30FA
  8
0
 10
699.1643748893903876
 20
33.947093506084002
 30
0.0
 40
0.0216305216055767
 50
131.5436386626832928
 51
182.5650804805945029
  0
ARC
  5
30FB
  8
0
 10
699.1944490049387468
 20
33.9121048048546072
 30
0.0
 40
0.0677662711059484
 50
105.2070120727100004
 51
130.9558680870819103
  0
ARC
  5
30FC
  8
0
 10
699.2146754188953537
 20
33.8493472985965624
 30
0.0
 40
0.1336667698514042
 50
94.5457161000095851
 51
106.5172510737237985
  0
ARC
  5
30FD
  8
0
 10
699.2379322908298036
 20
33.3326633806362906
 30
0.0
 40
0.6508111565202995
 50
91.8135158206331425
 51
92.9814641444325645
  0
LINE
  5
30FE
  8
0
 10
699.2919067015923247
 20
33.9461254505500634
 30
0.0
 11
699.2955151700923579
 21
33.9763894817500613
 31
0.0
  0
ARC
  5
30FF
  8
0
 10
699.2136123624786705
 20
33.9085066334961667
 30
0.0
 40
0.0333124890067253
 50
45.8757017013179791
 51
83.5814787486009863
  0
ARC
  5
3100
  8
0
 10
699.2149515523256014
 20
33.953495374386172
 30
0.0
 40
0.0303607479682646
 50
274.5051907911455942
 51
316.0376287589334083
  0
ARC
  5
3101
  8
0
 10
699.2520677930999682
 20
33.9528227560801028
 30
0.0
 40
0.0403979273134158
 50
297.6277410207659955
 51
350.457253525299393
  0
ARC
  5
3102
  8
0
 10
699.2254527247362148
 20
33.9967543424108811
 30
0.0
 40
0.0917185985503799
 50
276.7332494718427256
 51
299.632295091559115
  0
ARC
  5
3103
  8
0
 10
699.210746314273706
 20
34.1333539987237771
 30
0.0
 40
0.2291047246613083
 50
271.6483053284679272
 51
276.3803935478089784
  0
ARC
  5
3104
  8
0
 10
699.2702978530942346
 20
33.947093506084002
 30
0.0
 40
0.0216305216055767
 50
357.4349195194055255
 51
48.4563613373166788
  0
ARC
  5
3105
  8
0
 10
699.2402237375458753
 20
33.9121048048546072
 30
0.0
 40
0.0677662711059484
 50
49.0441319129181323
 51
74.7929879272899854
  0
ARC
  5
3106
  8
0
 10
699.2199973235892685
 20
33.8493472985965624
 30
0.0
 40
0.1336667698514042
 50
73.4827489262761588
 51
85.4542838999904149
  0
ARC
  5
3107
  8
0
 10
699.1967404516548186
 20
33.3326633806362906
 30
0.0
 40
0.6508111565202995
 50
87.0185358555674355
 51
88.1864841793668717
  0
ARC
  5
3108
  8
0
 10
699.1655365165768217
 20
33.9779073727176524
 30
0.0
 40
0.0264225791564705
 50
120.2495699796525059
 51
183.2932686671749138
  0
ARC
  5
3109
  8
0
 10
699.211099365076052
 20
33.8845965920598005
 30
0.0
 40
0.1302059839604101
 50
56.9355844709224286
 51
116.8822273020840044
  0
ARC
  5
310A
  8
0
 10
699.2516162249876288
 20
33.9563244003409181
 30
0.0
 40
0.048267223591841
 50
24.5639241348906303
 51
50.7772852487177317
  0
LINE
  5
310B
  8
0
 10
699.4920874601699552
 20
33.87932272895236
 30
0.0
 11
699.4884789916700356
 21
33.9095867601523722
 31
0.0
  0
ARC
  5
310C
  8
0
 10
699.5703817992834956
 20
33.8417039118984775
 30
0.0
 40
0.0333124890067253
 50
96.4185212513989995
 51
134.1242982986819925
  0
ARC
  5
310D
  8
0
 10
699.5690426094365648
 20
33.8866926527884686
 30
0.0
 40
0.0303607479682646
 50
223.9623712410659948
 51
265.4948092088542921
  0
ARC
  5
310E
  8
0
 10
699.5319263686623117
 20
33.8860200344823994
 30
0.0
 40
0.0403979273134158
 50
189.542746474700607
 51
242.3722589792340045
  0
ARC
  5
310F
  8
0
 10
699.5585414370260651
 20
33.9299516208131919
 30
0.0
 40
0.0917185985503799
 50
240.3677049084409134
 51
263.2667505281572744
  0
ARC
  5
3110
  8
0
 10
699.5732478474885738
 20
34.0665512771260808
 30
0.0
 40
0.2291047246613083
 50
263.6196064521910216
 51
268.3516946715320728
  0
ARC
  5
3111
  8
0
 10
699.5136963086680453
 20
33.8802907844863128
 30
0.0
 40
0.0216305216055767
 50
131.5436386626832928
 51
182.5650804805945029
  0
ARC
  5
3112
  8
0
 10
699.5437704242164045
 20
33.8453020832569109
 30
0.0
 40
0.0677662711059484
 50
105.2070120727100004
 51
130.9558680870819103
  0
ARC
  5
3113
  8
0
 10
699.5639968381730114
 20
33.782544576998859
 30
0.0
 40
0.1336667698514042
 50
94.5457161000095851
 51
106.5172510737237985
  0
ARC
  5
3114
  8
0
 10
699.5872537101074613
 20
33.2658606590385872
 30
0.0
 40
0.6508111565202995
 50
91.8135158206331425
 51
92.9814641444325645
  0
LINE
  5
3115
  8
0
 10
699.6412281208699824
 20
33.87932272895236
 30
0.0
 11
699.6448365893700156
 21
33.9095867601523722
 31
0.0
  0
ARC
  5
3116
  8
0
 10
699.5629337817563282
 20
33.8417039118984775
 30
0.0
 40
0.0333124890067253
 50
45.8757017013179791
 51
83.5814787486009863
  0
ARC
  5
3117
  8
0
 10
699.5642729716032591
 20
33.8866926527884686
 30
0.0
 40
0.0303607479682646
 50
274.5051907911455942
 51
316.0376287589334083
  0
ARC
  5
3118
  8
0
 10
699.6013892123777396
 20
33.8860200344823994
 30
0.0
 40
0.0403979273134158
 50
297.6277410207659955
 51
350.457253525299393
  0
ARC
  5
3119
  8
0
 10
699.5747741440138725
 20
33.9299516208131919
 30
0.0
 40
0.0917185985503799
 50
276.7332494718427256
 51
299.632295091559115
  0
ARC
  5
311A
  8
0
 10
699.5600677335512501
 20
34.0665512771260808
 30
0.0
 40
0.2291047246613083
 50
271.6483053284679272
 51
276.3803935478089784
  0
ARC
  5
311B
  8
0
 10
699.6196192723718923
 20
33.8802907844863128
 30
0.0
 40
0.0216305216055767
 50
357.4349195194055255
 51
48.4563613373166788
  0
ARC
  5
311C
  8
0
 10
699.589545156823533
 20
33.8453020832569109
 30
0.0
 40
0.0677662711059484
 50
49.0441319129181323
 51
74.7929879272899854
  0
ARC
  5
311D
  8
0
 10
699.5693187428669262
 20
33.782544576998859
 30
0.0
 40
0.1336667698514042
 50
73.4827489262761588
 51
85.4542838999904149
  0
ARC
  5
311E
  8
0
 10
699.5460618709324763
 20
33.2658606590385872
 30
0.0
 40
0.6508111565202995
 50
87.0185358555674355
 51
88.1864841793668717
  0
ARC
  5
311F
  8
0
 10
699.5148579358545931
 20
33.9111046511199632
 30
0.0
 40
0.0264225791564705
 50
120.2495699796525059
 51
183.2932686671749138
  0
ARC
  5
3120
  8
0
 10
699.5604207843539371
 20
33.8177938704620971
 30
0.0
 40
0.1302059839604101
 50
56.9355844709224286
 51
116.8822273020840044
  0
ARC
  5
3121
  8
0
 10
699.6009376442651728
 20
33.8895216787432219
 30
0.0
 40
0.048267223591841
 50
24.5639241348906303
 51
50.7772852487177317
  0
LINE
  5
3122
  8
0
 10
699.5911766669808003
 20
34.2693251385247777
 30
0.0
 11
699.587568198480767
 21
34.2995891697247828
 31
0.0
  0
ARC
  5
3123
  8
0
 10
699.6694710060944544
 20
34.231706321470881
 30
0.0
 40
0.0333124890067253
 50
96.4185212513989995
 51
134.1242982986819925
  0
ARC
  5
3124
  8
0
 10
699.6681318162475236
 20
34.2766950623608935
 30
0.0
 40
0.0303607479682646
 50
223.9623712410659948
 51
265.4948092088542921
  0
ARC
  5
3125
  8
0
 10
699.6310155754730431
 20
34.2760224440548171
 30
0.0
 40
0.0403979273134158
 50
189.542746474700607
 51
242.3722589792340045
  0
ARC
  5
3126
  8
0
 10
699.6576306438369102
 20
34.3199540303855883
 30
0.0
 40
0.0917185985503799
 50
240.3677049084409134
 51
263.2667505281572744
  0
ARC
  5
3127
  8
0
 10
699.6723370542994189
 20
34.4565536866984985
 30
0.0
 40
0.2291047246613083
 50
263.6196064521910216
 51
268.3516946715320728
  0
ARC
  5
3128
  8
0
 10
699.6127855154788904
 20
34.2702931940587092
 30
0.0
 40
0.0216305216055767
 50
131.5436386626832928
 51
182.5650804805945029
  0
ARC
  5
3129
  8
0
 10
699.6428596310272496
 20
34.2353044928293286
 30
0.0
 40
0.0677662711059484
 50
105.2070120727100004
 51
130.9558680870819103
  0
ARC
  5
312A
  8
0
 10
699.6630860449838565
 20
34.1725469865712768
 30
0.0
 40
0.1336667698514042
 50
94.5457161000095851
 51
106.5172510737237985
  0
ARC
  5
312B
  8
0
 10
699.6863429169183064
 20
33.6558630686110121
 30
0.0
 40
0.6508111565202995
 50
91.8135158206331425
 51
92.9814641444325645
  0
LINE
  5
312C
  8
0
 10
699.7403173276808275
 20
34.2693251385247777
 30
0.0
 11
699.7439257961807471
 21
34.2995891697247828
 31
0.0
  0
ARC
  5
312D
  8
0
 10
699.6620229885670597
 20
34.231706321470881
 30
0.0
 40
0.0333124890067253
 50
45.8757017013179791
 51
83.5814787486009863
  0
ARC
  5
312E
  8
0
 10
699.6633621784141042
 20
34.2766950623608935
 30
0.0
 40
0.0303607479682646
 50
274.5051907911455942
 51
316.0376287589334083
  0
ARC
  5
312F
  8
0
 10
699.700478419188471
 20
34.2760224440548171
 30
0.0
 40
0.0403979273134158
 50
297.6277410207659955
 51
350.457253525299393
  0
ARC
  5
3130
  8
0
 10
699.6738633508246039
 20
34.3199540303855883
 30
0.0
 40
0.0917185985503799
 50
276.7332494718427256
 51
299.632295091559115
  0
ARC
  5
3131
  8
0
 10
699.6591569403622088
 20
34.4565536866984985
 30
0.0
 40
0.2291047246613083
 50
271.6483053284679272
 51
276.3803935478089784
  0
ARC
  5
3132
  8
0
 10
699.7187084791827374
 20
34.2702931940587092
 30
0.0
 40
0.0216305216055767
 50
357.4349195194055255
 51
48.4563613373166788
  0
ARC
  5
3133
  8
0
 10
699.6886343636341508
 20
34.2353044928293286
 30
0.0
 40
0.0677662711059484
 50
49.0441319129181323
 51
74.7929879272899854
  0
ARC
  5
3134
  8
0
 10
699.6684079496775439
 20
34.1725469865712768
 30
0.0
 40
0.1336667698514042
 50
73.4827489262761588
 51
85.4542838999904149
  0
ARC
  5
3135
  8
0
 10
699.6451510777432077
 20
33.6558630686110121
 30
0.0
 40
0.6508111565202995
 50
87.0185358555674355
 51
88.1864841793668717
  0
ARC
  5
3136
  8
0
 10
699.6139471426653245
 20
34.3011070606923809
 30
0.0
 40
0.0264225791564705
 50
120.2495699796525059
 51
183.2932686671749138
  0
ARC
  5
3137
  8
0
 10
699.6595099911646685
 20
34.2077962800345077
 30
0.0
 40
0.1302059839604101
 50
56.9355844709224286
 51
116.8822273020840044
  0
ARC
  5
3138
  8
0
 10
699.7000268510760179
 20
34.2795240883156325
 30
0.0
 40
0.048267223591841
 50
24.5639241348906303
 51
50.7772852487177317
  0
LINE
  5
3139
  8
0
 10
699.5252006487354492
 20
34.1170685832274714
 30
0.0
 11
699.521592180235416
 21
34.1473326144274694
 31
0.0
  0
ARC
  5
313A
  8
0
 10
699.6034949878491034
 20
34.0794497661735818
 30
0.0
 40
0.0333124890067253
 50
96.4185212513989995
 51
134.1242982986819925
  0
ARC
  5
313B
  8
0
 10
699.6021557980021726
 20
34.1244385070635872
 30
0.0
 40
0.0303607479682646
 50
223.9623712410659948
 51
265.4948092088542921
  0
ARC
  5
313C
  8
0
 10
699.5650395572275784
 20
34.1237658887574966
 30
0.0
 40
0.0403979273134158
 50
189.542746474700607
 51
242.3722589792340045
  0
ARC
  5
313D
  8
0
 10
699.5916546255916728
 20
34.1676974750882891
 30
0.0
 40
0.0917185985503799
 50
240.3677049084409134
 51
263.2667505281572744
  0
ARC
  5
313E
  8
0
 10
699.6063610360540679
 20
34.3042971314011993
 30
0.0
 40
0.2291047246613083
 50
263.6196064521910216
 51
268.3516946715320728
  0
ARC
  5
313F
  8
0
 10
699.5468094972335393
 20
34.11803663876141
 30
0.0
 40
0.0216305216055767
 50
131.5436386626832928
 51
182.5650804805945029
  0
ARC
  5
3140
  8
0
 10
699.5768836127818986
 20
34.0830479375320223
 30
0.0
 40
0.0677662711059484
 50
105.2070120727100004
 51
130.9558680870819103
  0
ARC
  5
3141
  8
0
 10
699.5971100267385054
 20
34.0202904312739633
 30
0.0
 40
0.1336667698514042
 50
94.5457161000095851
 51
106.5172510737237985
  0
ARC
  5
3142
  8
0
 10
699.6203668986729554
 20
33.5036065133137129
 30
0.0
 40
0.6508111565202995
 50
91.8135158206331425
 51
92.9814641444325645
  0
LINE
  5
3143
  8
0
 10
699.6743413094353627
 20
34.1170685832274714
 30
0.0
 11
699.6779497779355097
 21
34.1473326144274694
 31
0.0
  0
ARC
  5
3144
  8
0
 10
699.5960469703218223
 20
34.0794497661735818
 30
0.0
 40
0.0333124890067253
 50
45.8757017013179791
 51
83.5814787486009863
  0
ARC
  5
3145
  8
0
 10
699.5973861601687531
 20
34.1244385070635872
 30
0.0
 40
0.0303607479682646
 50
274.5051907911455942
 51
316.0376287589334083
  0
ARC
  5
3146
  8
0
 10
699.6345024009431199
 20
34.1237658887574966
 30
0.0
 40
0.0403979273134158
 50
297.6277410207659955
 51
350.457253525299393
  0
ARC
  5
3147
  8
0
 10
699.6078873325792529
 20
34.1676974750882891
 30
0.0
 40
0.0917185985503799
 50
276.7332494718427256
 51
299.632295091559115
  0
ARC
  5
3148
  8
0
 10
699.5931809221167441
 20
34.3042971314011993
 30
0.0
 40
0.2291047246613083
 50
271.6483053284679272
 51
276.3803935478089784
  0
ARC
  5
3149
  8
0
 10
699.6527324609373863
 20
34.11803663876141
 30
0.0
 40
0.0216305216055767
 50
357.4349195194055255
 51
48.4563613373166788
  0
ARC
  5
314A
  8
0
 10
699.6226583453889134
 20
34.0830479375320223
 30
0.0
 40
0.0677662711059484
 50
49.0441319129181323
 51
74.7929879272899854
  0
ARC
  5
314B
  8
0
 10
699.6024319314324202
 20
34.0202904312739633
 30
0.0
 40
0.1336667698514042
 50
73.4827489262761588
 51
85.4542838999904149
  0
ARC
  5
314C
  8
0
 10
699.5791750594978566
 20
33.5036065133137129
 30
0.0
 40
0.6508111565202995
 50
87.0185358555674355
 51
88.1864841793668717
  0
ARC
  5
314D
  8
0
 10
699.5479711244198597
 20
34.1488505053950604
 30
0.0
 40
0.0264225791564705
 50
120.2495699796525059
 51
183.2932686671749138
  0
ARC
  5
314E
  8
0
 10
699.5935339729193174
 20
34.0555397247372014
 30
0.0
 40
0.1302059839604101
 50
56.9355844709224286
 51
116.8822273020840044
  0
ARC
  5
314F
  8
0
 10
699.6340508328305532
 20
34.1272675330183333
 30
0.0
 40
0.048267223591841
 50
24.5639241348906303
 51
50.7772852487177317
  0
LINE
  5
3150
  8
0
 10
699.5035790508475202
 20
33.9908718029607613
 30
0.0
 11
699.4999705823476006
 21
34.0211358341607593
 31
0.0
  0
ARC
  5
3151
  8
0
 10
699.5818733899611743
 20
33.9532529859068575
 30
0.0
 40
0.0333124890067253
 50
96.4185212513989995
 51
134.1242982986819925
  0
ARC
  5
3152
  8
0
 10
699.5805342001142435
 20
33.9982417267968628
 30
0.0
 40
0.0303607479682646
 50
223.9623712410659948
 51
265.4948092088542921
  0
ARC
  5
3153
  8
0
 10
699.5434179593398767
 20
33.9975691084908007
 30
0.0
 40
0.0403979273134158
 50
189.542746474700607
 51
242.3722589792340045
  0
ARC
  5
3154
  8
0
 10
699.5700330277037438
 20
34.0415006948215577
 30
0.0
 40
0.0917185985503799
 50
240.3677049084409134
 51
263.2667505281572744
  0
ARC
  5
3155
  8
0
 10
699.5847394381661388
 20
34.1781003511344679
 30
0.0
 40
0.2291047246613083
 50
263.6196064521910216
 51
268.3516946715320728
  0
ARC
  5
3156
  8
0
 10
699.5251878993456103
 20
33.9918398584946928
 30
0.0
 40
0.0216305216055767
 50
131.5436386626832928
 51
182.5650804805945029
  0
ARC
  5
3157
  8
0
 10
699.5552620148940832
 20
33.9568511572653122
 30
0.0
 40
0.0677662711059484
 50
105.2070120727100004
 51
130.9558680870819103
  0
ARC
  5
3158
  8
0
 10
699.5754884288505764
 20
33.8940936510072532
 30
0.0
 40
0.1336667698514042
 50
94.5457161000095851
 51
106.5172510737237985
  0
ARC
  5
3159
  8
0
 10
699.59874530078514
 20
33.3774097330469885
 30
0.0
 40
0.6508111565202995
 50
91.8135158206331425
 51
92.9814641444325645
  0
LINE
  5
315A
  8
0
 10
699.6527197115475474
 20
33.9908718029607613
 30
0.0
 11
699.6563281800475806
 21
34.0211358341607593
 31
0.0
  0
ARC
  5
315B
  8
0
 10
699.5744253724338932
 20
33.9532529859068575
 30
0.0
 40
0.0333124890067253
 50
45.8757017013179791
 51
83.5814787486009863
  0
ARC
  5
315C
  8
0
 10
699.5757645622809378
 20
33.9982417267968628
 30
0.0
 40
0.0303607479682646
 50
274.5051907911455942
 51
316.0376287589334083
  0
ARC
  5
315D
  8
0
 10
699.6128808030553046
 20
33.9975691084908007
 30
0.0
 40
0.0403979273134158
 50
297.6277410207659955
 51
350.457253525299393
  0
ARC
  5
315E
  8
0
 10
699.5862657346914375
 20
34.0415006948215577
 30
0.0
 40
0.0917185985503799
 50
276.7332494718427256
 51
299.632295091559115
  0
ARC
  5
315F
  8
0
 10
699.5715593242289287
 20
34.1781003511344679
 30
0.0
 40
0.2291047246613083
 50
271.6483053284679272
 51
276.3803935478089784
  0
ARC
  5
3160
  8
0
 10
699.6311108630493436
 20
33.9918398584946928
 30
0.0
 40
0.0216305216055767
 50
357.4349195194055255
 51
48.4563613373166788
  0
ARC
  5
3161
  8
0
 10
699.601036747501098
 20
33.9568511572653122
 30
0.0
 40
0.0677662711059484
 50
49.0441319129181323
 51
74.7929879272899854
  0
ARC
  5
3162
  8
0
 10
699.5808103335444912
 20
33.8940936510072532
 30
0.0
 40
0.1336667698514042
 50
73.4827489262761588
 51
85.4542838999904149
  0
ARC
  5
3163
  8
0
 10
699.5575534616100413
 20
33.3774097330469885
 30
0.0
 40
0.6508111565202995
 50
87.0185358555674355
 51
88.1864841793668717
  0
ARC
  5
3164
  8
0
 10
699.5263495265320444
 20
34.0226537251283503
 30
0.0
 40
0.0264225791564705
 50
120.2495699796525059
 51
183.2932686671749138
  0
ARC
  5
3165
  8
0
 10
699.5719123750313884
 20
33.9293429444704913
 30
0.0
 40
0.1302059839604101
 50
56.9355844709224286
 51
116.8822273020840044
  0
ARC
  5
3166
  8
0
 10
699.6124292349428515
 20
34.0010707527516018
 30
0.0
 40
0.048267223591841
 50
24.5639241348906303
 51
50.7772852487177317
  0
LINE
  5
3167
  8
0
 10
700.2852841717855199
 20
34.4171893064865912
 30
0.0
 11
700.2888926402855532
 21
34.4474533376866034
 31
0.0
  0
ARC
  5
3168
  8
0
 10
700.2069898326719795
 20
34.3795704894327017
 30
0.0
 40
0.0333124890067253
 50
45.8757017013179791
 51
83.5814787486009863
  0
ARC
  5
3169
  8
0
 10
700.2083290225189103
 20
34.4245592303226999
 30
0.0
 40
0.0303607479682646
 50
274.5051907911455942
 51
316.0376287589334083
  0
ARC
  5
316A
  8
0
 10
700.2454452632932771
 20
34.4238866120166307
 30
0.0
 40
0.0403979273134158
 50
297.6277410207659955
 51
350.457253525299393
  0
ARC
  5
316B
  8
0
 10
700.21883019492941
 20
34.4678181983474019
 30
0.0
 40
0.0917185985503799
 50
276.7332494718427256
 51
299.632295091559115
  0
ARC
  5
316C
  8
0
 10
700.2041237844669013
 20
34.6044178546603121
 30
0.0
 40
0.2291047246613083
 50
271.6483053284679272
 51
276.3803935478089784
  0
ARC
  5
316D
  8
0
 10
700.2636753232875435
 20
34.4181573620205228
 30
0.0
 40
0.0216305216055767
 50
357.4349195194055255
 51
48.4563613373166788
  0
ARC
  5
316E
  8
0
 10
700.2336012077390706
 20
34.3831686607911493
 30
0.0
 40
0.0677662711059484
 50
49.0441319129181323
 51
74.7929879272899854
  0
ARC
  5
316F
  8
0
 10
700.2133747937824637
 20
34.3204111545330903
 30
0.0
 40
0.1336667698514042
 50
73.4827489262761588
 51
85.4542838999904149
  0
ARC
  5
3170
  8
0
 10
700.1901179218480138
 20
33.8037272365728327
 30
0.0
 40
0.6508111565202995
 50
87.0185358555674355
 51
88.1864841793668717
  0
LINE
  5
3171
  8
0
 10
700.1361435110854927
 20
34.4171893064865912
 30
0.0
 11
700.1325350425854595
 21
34.4474533376866034
 31
0.0
  0
ARC
  5
3172
  8
0
 10
700.2144378501991469
 20
34.3795704894327017
 30
0.0
 40
0.0333124890067253
 50
96.4185212513989995
 51
134.1242982986819925
  0
ARC
  5
3173
  8
0
 10
700.213098660352216
 20
34.4245592303226999
 30
0.0
 40
0.0303607479682646
 50
223.9623712410665917
 51
265.4948092088542921
  0
ARC
  5
3174
  8
0
 10
700.1759824195778492
 20
34.4238866120166307
 30
0.0
 40
0.0403979273134158
 50
189.542746474700607
 51
242.3722589792340045
  0
ARC
  5
3175
  8
0
 10
700.2025974879416026
 20
34.4678181983474019
 30
0.0
 40
0.0917185985503799
 50
240.3677049084409134
 51
263.2667505281572744
  0
ARC
  5
3176
  8
0
 10
700.217303898404225
 20
34.6044178546603121
 30
0.0
 40
0.2291047246613083
 50
263.6196064521910216
 51
268.3516946715320728
  0
ARC
  5
3177
  8
0
 10
700.1577523595835828
 20
34.4181573620205228
 30
0.0
 40
0.0216305216055767
 50
131.5436386626832928
 51
182.5650804805945029
  0
ARC
  5
3178
  8
0
 10
700.1878264751320557
 20
34.3831686607911493
 30
0.0
 40
0.0677662711059484
 50
105.2070120727100004
 51
130.9558680870819103
  0
ARC
  5
3179
  8
0
 10
700.2080528890885489
 20
34.3204111545330903
 30
0.0
 40
0.1336667698514042
 50
94.5457161000095851
 51
106.5172510737237985
  0
ARC
  5
317A
  8
0
 10
700.2313097610231125
 20
33.8037272365728327
 30
0.0
 40
0.6508111565202995
 50
91.8135158206331425
 51
92.9814641444325645
  0
ARC
  5
317B
  8
0
 10
700.262513696100882
 20
34.4489712286541874
 30
0.0
 40
0.0264225791564705
 50
356.7067313328250862
 51
59.7504300203475012
  0
ARC
  5
317C
  8
0
 10
700.2169508476016517
 20
34.3556604479963283
 30
0.0
 40
0.1302059839604101
 50
63.1177726979159672
 51
123.0644155290774933
  0
ARC
  5
317D
  8
0
 10
700.1764339876903023
 20
34.4273882562774389
 30
0.0
 40
0.048267223591841
 50
129.2227147512822114
 51
155.4360758651093875
  0
LINE
  5
317E
  8
0
 10
700.3861319537478494
 20
35.1826220229064504
 30
0.0
 11
700.3897404222476553
 21
35.2128860541064412
 31
0.0
  0
ARC
  5
317F
  8
0
 10
700.3078376146340815
 20
35.1450032058525466
 30
0.0
 40
0.0333124890067253
 50
45.8757017013179791
 51
83.5814787486009863
  0
ARC
  5
3180
  8
0
 10
700.3091768044811261
 20
35.1899919467425519
 30
0.0
 40
0.0303607479682646
 50
274.5051907911455942
 51
316.0376287589334083
  0
ARC
  5
3181
  8
0
 10
700.3462930452553792
 20
35.1893193284364827
 30
0.0
 40
0.0403979273134158
 50
297.6277410207659955
 51
350.457253525299393
  0
ARC
  5
3182
  8
0
 10
700.3196779768916258
 20
35.2332509147672681
 30
0.0
 40
0.0917185985503799
 50
276.7332494718427256
 51
299.632295091559115
  0
ARC
  5
3183
  8
0
 10
700.3049715664292307
 20
35.3698505710801712
 30
0.0
 40
0.2291047246613083
 50
271.6483053284679272
 51
276.3803935478089784
  0
ARC
  5
3184
  8
0
 10
700.3645231052496456
 20
35.1835900784403819
 30
0.0
 40
0.0216305216055767
 50
357.4349195194055255
 51
48.4563613373166788
  0
ARC
  5
3185
  8
0
 10
700.3344489897011726
 20
35.14860137721098
 30
0.0
 40
0.0677662711059484
 50
49.0441319129181323
 51
74.7929879272899854
  0
ARC
  5
3186
  8
0
 10
700.3142225757446795
 20
35.0858438709529423
 30
0.0
 40
0.1336667698514042
 50
73.4827489262761588
 51
85.4542838999904149
  0
ARC
  5
3187
  8
0
 10
700.2909657038102296
 20
34.5691599529926776
 30
0.0
 40
0.6508111565202995
 50
87.0185358555674355
 51
88.1864841793668717
  0
LINE
  5
3188
  8
0
 10
700.2369912930478222
 20
35.1826220229064504
 30
0.0
 11
700.2333828245476752
 21
35.2128860541064412
 31
0.0
  0
ARC
  5
3189
  8
0
 10
700.3152856321613626
 20
35.1450032058525466
 30
0.0
 40
0.0333124890067253
 50
96.4185212513989995
 51
134.1242982986819925
  0
ARC
  5
318A
  8
0
 10
700.3139464423145455
 20
35.1899919467425519
 30
0.0
 40
0.0303607479682646
 50
223.9623712410665917
 51
265.4948092088542921
  0
ARC
  5
318B
  8
0
 10
700.276830201540065
 20
35.1893193284364827
 30
0.0
 40
0.0403979273134158
 50
189.542746474700607
 51
242.3722589792340045
  0
ARC
  5
318C
  8
0
 10
700.3034452699039321
 20
35.2332509147672681
 30
0.0
 40
0.0917185985503799
 50
240.3677049084409134
 51
263.2667505281572744
  0
ARC
  5
318D
  8
0
 10
700.3181516803664408
 20
35.3698505710801712
 30
0.0
 40
0.2291047246613083
 50
263.6196064521910216
 51
268.3516946715320728
  0
ARC
  5
318E
  8
0
 10
700.2586001415457986
 20
35.1835900784403819
 30
0.0
 40
0.0216305216055767
 50
131.5436386626832928
 51
182.5650804805945029
  0
ARC
  5
318F
  8
0
 10
700.2886742570941578
 20
35.14860137721098
 30
0.0
 40
0.0677662711059484
 50
105.2070120727100004
 51
130.9558680870819103
  0
ARC
  5
3190
  8
0
 10
700.3089006710507647
 20
35.0858438709529423
 30
0.0
 40
0.1336667698514042
 50
94.5457161000095851
 51
106.5172510737237985
  0
ARC
  5
3191
  8
0
 10
700.3321575429853283
 20
34.5691599529926776
 30
0.0
 40
0.6508111565202995
 50
91.8135158206331425
 51
92.9814641444325645
  0
ARC
  5
3192
  8
0
 10
700.3633614780633252
 20
35.2144039450740394
 30
0.0
 40
0.0264225791564705
 50
356.7067313328250862
 51
59.7504300203475012
  0
ARC
  5
3193
  8
0
 10
700.3177986295638675
 20
35.1210931644161803
 30
0.0
 40
0.1302059839604101
 50
63.1177726979159672
 51
123.0644155290774933
  0
ARC
  5
3194
  8
0
 10
700.2772817696524044
 20
35.1928209726972909
 30
0.0
 40
0.048267223591841
 50
129.2227147512822114
 51
155.4360758651093875
  0
LINE
  5
3195
  8
0
 10
700.7315007149760504
 20
35.1152198999624119
 30
0.0
 11
700.7351091834760837
 21
35.145483931162417
 31
0.0
  0
ARC
  5
3196
  8
0
 10
700.65320637586251
 20
35.0776010829085294
 30
0.0
 40
0.0333124890067253
 50
45.8757017013179791
 51
83.5814787486009863
  0
ARC
  5
3197
  8
0
 10
700.6545455657095545
 20
35.1225898237985419
 30
0.0
 40
0.0303607479682646
 50
274.5051907911455942
 51
316.0376287589334083
  0
ARC
  5
3198
  8
0
 10
700.6916618064839213
 20
35.1219172054924513
 30
0.0
 40
0.0403979273134158
 50
297.6277410207659955
 51
350.457253525299393
  0
ARC
  5
3199
  8
0
 10
700.6650467381200542
 20
35.1658487918232368
 30
0.0
 40
0.0917185985503799
 50
276.7332494718427256
 51
299.632295091559115
  0
ARC
  5
319A
  8
0
 10
700.6503403276575455
 20
35.3024484481361469
 30
0.0
 40
0.2291047246613083
 50
271.6483053284679272
 51
276.3803935478089784
  0
ARC
  5
319B
  8
0
 10
700.7098918664779603
 20
35.1161879554963576
 30
0.0
 40
0.0216305216055767
 50
357.4349195194055255
 51
48.4563613373166788
  0
ARC
  5
319C
  8
0
 10
700.6798177509296011
 20
35.0811992542669628
 30
0.0
 40
0.0677662711059484
 50
49.0441319129181323
 51
74.7929879272899854
  0
ARC
  5
319D
  8
0
 10
700.6595913369729942
 20
35.018441748008911
 30
0.0
 40
0.1336667698514042
 50
73.4827489262761588
 51
85.4542838999904149
  0
ARC
  5
319E
  8
0
 10
700.6363344650385443
 20
34.5017578300486605
 30
0.0
 40
0.6508111565202995
 50
87.0185358555674355
 51
88.1864841793668717
  0
LINE
  5
319F
  8
0
 10
700.5823600542762506
 20
35.1152198999624119
 30
0.0
 11
700.5787515857762173
 21
35.145483931162417
 31
0.0
  0
ARC
  5
31A0
  8
0
 10
700.660654393389791
 20
35.0776010829085294
 30
0.0
 40
0.0333124890067253
 50
96.4185212513989995
 51
134.1242982986819925
  0
ARC
  5
31A1
  8
0
 10
700.6593152035427465
 20
35.1225898237985419
 30
0.0
 40
0.0303607479682646
 50
223.9623712410665917
 51
265.4948092088542921
  0
ARC
  5
31A2
  8
0
 10
700.6221989627683797
 20
35.1219172054924513
 30
0.0
 40
0.0403979273134158
 50
189.542746474700607
 51
242.3722589792340045
  0
ARC
  5
31A3
  8
0
 10
700.6488140311322468
 20
35.1658487918232368
 30
0.0
 40
0.0917185985503799
 50
240.3677049084409134
 51
263.2667505281572744
  0
ARC
  5
31A4
  8
0
 10
700.6635204415948692
 20
35.3024484481361469
 30
0.0
 40
0.2291047246613083
 50
263.6196064521910216
 51
268.3516946715320728
  0
ARC
  5
31A5
  8
0
 10
700.603968902774227
 20
35.1161879554963576
 30
0.0
 40
0.0216305216055767
 50
131.5436386626832928
 51
182.5650804805945029
  0
ARC
  5
31A6
  8
0
 10
700.6340430183226999
 20
35.0811992542669628
 30
0.0
 40
0.0677662711059484
 50
105.2070120727100004
 51
130.9558680870819103
  0
ARC
  5
31A7
  8
0
 10
700.6542694322793068
 20
35.018441748008911
 30
0.0
 40
0.1336667698514042
 50
94.5457161000095851
 51
106.5172510737237985
  0
ARC
  5
31A8
  8
0
 10
700.6775263042137567
 20
34.5017578300486605
 30
0.0
 40
0.6508111565202995
 50
91.8135158206331425
 51
92.9814641444325645
  0
ARC
  5
31A9
  8
0
 10
700.7087302392916399
 20
35.147001822130008
 30
0.0
 40
0.0264225791564705
 50
356.7067313328250862
 51
59.7504300203475012
  0
ARC
  5
31AA
  8
0
 10
700.6631673907921822
 20
35.053691041472149
 30
0.0
 40
0.1302059839604101
 50
63.1177726979159672
 51
123.0644155290774933
  0
ARC
  5
31AB
  8
0
 10
700.6226505308809465
 20
35.1254188497532667
 30
0.0
 40
0.048267223591841
 50
129.2227147512822114
 51
155.4360758651093875
  0
LINE
  5
31AC
  8
0
 10
701.0263304300169693
 20
35.0080239449298105
 30
0.0
 11
701.0299388985171163
 21
35.0382879761298085
 31
0.0
  0
ARC
  5
31AD
  8
0
 10
700.9480360909034289
 20
34.9704051278759209
 30
0.0
 40
0.0333124890067253
 50
45.8757017013179791
 51
83.5814787486009863
  0
ARC
  5
31AE
  8
0
 10
700.9493752807504734
 20
35.0153938687659334
 30
0.0
 40
0.0303607479682646
 50
274.5051907911455942
 51
316.0376287589334083
  0
ARC
  5
31AF
  8
0
 10
700.9864915215248402
 20
35.0147212504598428
 30
0.0
 40
0.0403979273134158
 50
297.6277410207659955
 51
350.457253525299393
  0
ARC
  5
31B0
  8
0
 10
700.9598764531609731
 20
35.0586528367906283
 30
0.0
 40
0.0917185985503799
 50
276.7332494718427256
 51
299.632295091559115
  0
ARC
  5
31B1
  8
0
 10
700.9451700426984644
 20
35.1952524931035384
 30
0.0
 40
0.2291047246613083
 50
271.6483053284679272
 51
276.3803935478089784
  0
ARC
  5
31B2
  8
0
 10
701.0047215815188792
 20
35.0089920004637492
 30
0.0
 40
0.0216305216055767
 50
357.4349195194055255
 51
48.4563613373166788
  0
ARC
  5
31B3
  8
0
 10
700.9746474659706337
 20
34.9740032992343473
 30
0.0
 40
0.0677662711059484
 50
49.0441319129181323
 51
74.7929879272899854
  0
ARC
  5
31B4
  8
0
 10
700.9544210520139131
 20
34.9112457929763025
 30
0.0
 40
0.1336667698514042
 50
73.4827489262761588
 51
85.4542838999904149
  0
ARC
  5
31B5
  8
0
 10
700.9311641800794632
 20
34.394561875016052
 30
0.0
 40
0.6508111565202995
 50
87.0185358555674355
 51
88.1864841793668717
  0
LINE
  5
31B6
  8
0
 10
700.8771897693170558
 20
35.0080239449298105
 30
0.0
 11
700.8735813008171363
 21
35.0382879761298085
 31
0.0
  0
ARC
  5
31B7
  8
0
 10
700.95548410843071
 20
34.9704051278759209
 30
0.0
 40
0.0333124890067253
 50
96.4185212513989995
 51
134.1242982986819925
  0
ARC
  5
31B8
  8
0
 10
700.9541449185837791
 20
35.0153938687659334
 30
0.0
 40
0.0303607479682646
 50
223.9623712410665917
 51
265.4948092088542921
  0
ARC
  5
31B9
  8
0
 10
700.9170286778092986
 20
35.0147212504598428
 30
0.0
 40
0.0403979273134158
 50
189.542746474700607
 51
242.3722589792340045
  0
ARC
  5
31BA
  8
0
 10
700.9436437461731657
 20
35.0586528367906283
 30
0.0
 40
0.0917185985503799
 50
240.3677049084409134
 51
263.2667505281572744
  0
ARC
  5
31BB
  8
0
 10
700.9583501566357882
 20
35.1952524931035384
 30
0.0
 40
0.2291047246613083
 50
263.6196064521910216
 51
268.3516946715320728
  0
ARC
  5
31BC
  8
0
 10
700.8987986178151459
 20
35.0089920004637492
 30
0.0
 40
0.0216305216055767
 50
131.5436386626832928
 51
182.5650804805945029
  0
ARC
  5
31BD
  8
0
 10
700.9288727333636189
 20
34.9740032992343473
 30
0.0
 40
0.0677662711059484
 50
105.2070120727100004
 51
130.9558680870819103
  0
ARC
  5
31BE
  8
0
 10
700.9490991473202257
 20
34.9112457929763025
 30
0.0
 40
0.1336667698514042
 50
94.5457161000095851
 51
106.5172510737237985
  0
ARC
  5
31BF
  8
0
 10
700.9723560192545619
 20
34.394561875016052
 30
0.0
 40
0.6508111565202995
 50
91.8135158206331425
 51
92.9814641444325645
  0
ARC
  5
31C0
  8
0
 10
701.0035599543324452
 20
35.0398058670973995
 30
0.0
 40
0.0264225791564705
 50
356.7067313328250862
 51
59.7504300203475012
  0
ARC
  5
31C1
  8
0
 10
700.9579971058331012
 20
34.9464950864395405
 30
0.0
 40
0.1302059839604101
 50
63.1177726979159672
 51
123.0644155290774933
  0
ARC
  5
31C2
  8
0
 10
700.9174802459217517
 20
35.0182228947206582
 30
0.0
 40
0.048267223591841
 50
129.2227147512822114
 51
155.4360758651093875
  0
LINE
  5
31C3
  8
0
 10
701.2569120149299806
 20
34.8682867071434401
 30
0.0
 11
701.2605204834299002
 21
34.898550738343431
 31
0.0
  0
ARC
  5
31C4
  8
0
 10
701.1786176758163265
 20
34.8306678900895506
 30
0.0
 40
0.0333124890067253
 50
45.8757017013179791
 51
83.5814787486009863
  0
ARC
  5
31C5
  8
0
 10
701.1799568656631436
 20
34.8756566309795488
 30
0.0
 40
0.0303607479682646
 50
274.5051907911455942
 51
316.0376287589334083
  0
ARC
  5
31C6
  8
0
 10
701.2170731064376241
 20
34.8749840126734796
 30
0.0
 40
0.0403979273134158
 50
297.6277410207659955
 51
350.457253525299393
  0
ARC
  5
31C7
  8
0
 10
701.1904580380736434
 20
34.9189155990042721
 30
0.0
 40
0.0917185985503799
 50
276.7332494718427256
 51
299.632295091559115
  0
ARC
  5
31C8
  8
0
 10
701.1757516276112483
 20
35.0555152553171609
 30
0.0
 40
0.2291047246613083
 50
271.6483053284679272
 51
276.3803935478089784
  0
ARC
  5
31C9
  8
0
 10
701.2353031664318905
 20
34.8692547626773717
 30
0.0
 40
0.0216305216055767
 50
357.4349195194055255
 51
48.4563613373166788
  0
ARC
  5
31CA
  8
0
 10
701.2052290508834176
 20
34.8342660614479769
 30
0.0
 40
0.0677662711059484
 50
49.0441319129181323
 51
74.7929879272899854
  0
ARC
  5
31CB
  8
0
 10
701.1850026369269244
 20
34.7715085551899392
 30
0.0
 40
0.1336667698514042
 50
73.4827489262761588
 51
85.4542838999904149
  0
ARC
  5
31CC
  8
0
 10
701.1617457649924745
 20
34.2548246372296816
 30
0.0
 40
0.6508111565202995
 50
87.0185358555674355
 51
88.1864841793668717
  0
LINE
  5
31CD
  8
0
 10
701.1077713542299534
 20
34.8682867071434401
 30
0.0
 11
701.1041628857299202
 21
34.898550738343431
 31
0.0
  0
ARC
  5
31CE
  8
0
 10
701.1860656933436076
 20
34.8306678900895506
 30
0.0
 40
0.0333124890067253
 50
96.4185212513989995
 51
134.1242982986819925
  0
ARC
  5
31CF
  8
0
 10
701.1847265034965631
 20
34.8756566309795488
 30
0.0
 40
0.0303607479682646
 50
223.9623712410665917
 51
265.4948092088542921
  0
ARC
  5
31D0
  8
0
 10
701.1476102627223099
 20
34.8749840126734796
 30
0.0
 40
0.0403979273134158
 50
189.542746474700607
 51
242.3722589792340045
  0
ARC
  5
31D1
  8
0
 10
701.1742253310860633
 20
34.9189155990042721
 30
0.0
 40
0.0917185985503799
 50
240.3677049084409134
 51
263.2667505281572744
  0
ARC
  5
31D2
  8
0
 10
701.1889317415484584
 20
35.0555152553171609
 30
0.0
 40
0.2291047246613083
 50
263.6196064521910216
 51
268.3516946715320728
  0
ARC
  5
31D3
  8
0
 10
701.1293802027280435
 20
34.8692547626773717
 30
0.0
 40
0.0216305216055767
 50
131.5436386626832928
 51
182.5650804805945029
  0
ARC
  5
31D4
  8
0
 10
701.1594543182764028
 20
34.8342660614479769
 30
0.0
 40
0.0677662711059484
 50
105.2070120727100004
 51
130.9558680870819103
  0
ARC
  5
31D5
  8
0
 10
701.1796807322330096
 20
34.7715085551899392
 30
0.0
 40
0.1336667698514042
 50
94.5457161000095851
 51
106.5172510737237985
  0
ARC
  5
31D6
  8
0
 10
701.2029376041673459
 20
34.2548246372296816
 30
0.0
 40
0.6508111565202995
 50
91.8135158206331425
 51
92.9814641444325645
  0
ARC
  5
31D7
  8
0
 10
701.2341415392454564
 20
34.9000686293110434
 30
0.0
 40
0.0264225791564705
 50
356.7067313328250862
 51
59.7504300203475012
  0
ARC
  5
31D8
  8
0
 10
701.1885786907461124
 20
34.8067578486531772
 30
0.0
 40
0.1302059839604101
 50
63.1177726979159672
 51
123.0644155290774933
  0
ARC
  5
31D9
  8
0
 10
701.1480618308346493
 20
34.8784856569342878
 30
0.0
 40
0.048267223591841
 50
129.2227147512822114
 51
155.4360758651093875
  0
LINE
  5
31DA
  8
0
 10
701.4020069187733952
 20
34.7055839784347171
 30
0.0
 11
701.4056153872734285
 21
34.7358480096347222
 31
0.0
  0
ARC
  5
31DB
  8
0
 10
701.3237125796598548
 20
34.6679651613808417
 30
0.0
 40
0.0333124890067253
 50
45.8757017013179791
 51
83.5814787486009863
  0
ARC
  5
31DC
  8
0
 10
701.3250517695067856
 20
34.71295390227084
 30
0.0
 40
0.0303607479682646
 50
274.5051907911455942
 51
316.0376287589334083
  0
ARC
  5
31DD
  8
0
 10
701.3621680102811524
 20
34.7122812839647565
 30
0.0
 40
0.0403979273134158
 50
297.6277410207659955
 51
350.457253525299393
  0
ARC
  5
31DE
  8
0
 10
701.3355529419172854
 20
34.756212870295542
 30
0.0
 40
0.0917185985503799
 50
276.7332494718427256
 51
299.632295091559115
  0
ARC
  5
31DF
  8
0
 10
701.3208465314547766
 20
34.8928125266084521
 30
0.0
 40
0.2291047246613083
 50
271.6483053284679272
 51
276.3803935478089784
  0
ARC
  5
31E0
  8
0
 10
701.3803980702753051
 20
34.7065520339686628
 30
0.0
 40
0.0216305216055767
 50
357.4349195194055255
 51
48.4563613373166788
  0
ARC
  5
31E1
  8
0
 10
701.3503239547269459
 20
34.671563332739268
 30
0.0
 40
0.0677662711059484
 50
49.0441319129181323
 51
74.7929879272899854
  0
ARC
  5
31E2
  8
0
 10
701.330097540770339
 20
34.6088058264812233
 30
0.0
 40
0.1336667698514042
 50
73.4827489262761588
 51
85.4542838999904149
  0
ARC
  5
31E3
  8
0
 10
701.3068406688358891
 20
34.0921219085209728
 30
0.0
 40
0.6508111565202995
 50
87.0185358555674355
 51
88.1864841793668717
  0
LINE
  5
31E4
  8
0
 10
701.252866258073368
 20
34.7055839784347171
 30
0.0
 11
701.2492577895734485
 21
34.7358480096347222
 31
0.0
  0
ARC
  5
31E5
  8
0
 10
701.3311605971871359
 20
34.6679651613808417
 30
0.0
 40
0.0333124890067253
 50
96.4185212513989995
 51
134.1242982986819925
  0
ARC
  5
31E6
  8
0
 10
701.3298214073400914
 20
34.71295390227084
 30
0.0
 40
0.0303607479682646
 50
223.9623712410665917
 51
265.4948092088542921
  0
ARC
  5
31E7
  8
0
 10
701.2927051665656109
 20
34.7122812839647565
 30
0.0
 40
0.0403979273134158
 50
189.542746474700607
 51
242.3722589792340045
  0
ARC
  5
31E8
  8
0
 10
701.3193202349294779
 20
34.756212870295542
 30
0.0
 40
0.0917185985503799
 50
240.3677049084409134
 51
263.2667505281572744
  0
ARC
  5
31E9
  8
0
 10
701.3340266453921004
 20
34.8928125266084521
 30
0.0
 40
0.2291047246613083
 50
263.6196064521910216
 51
268.3516946715320728
  0
ARC
  5
31EA
  8
0
 10
701.2744751065714581
 20
34.7065520339686628
 30
0.0
 40
0.0216305216055767
 50
131.5436386626832928
 51
182.5650804805945029
  0
ARC
  5
31EB
  8
0
 10
701.3045492221199311
 20
34.671563332739268
 30
0.0
 40
0.0677662711059484
 50
105.2070120727100004
 51
130.9558680870819103
  0
ARC
  5
31EC
  8
0
 10
701.3247756360765379
 20
34.6088058264812233
 30
0.0
 40
0.1336667698514042
 50
94.5457161000095851
 51
106.5172510737237985
  0
ARC
  5
31ED
  8
0
 10
701.3480325080108742
 20
34.0921219085209728
 30
0.0
 40
0.6508111565202995
 50
91.8135158206331425
 51
92.9814641444325645
  0
ARC
  5
31EE
  8
0
 10
701.3792364430887574
 20
34.7373659006023274
 30
0.0
 40
0.0264225791564705
 50
356.7067313328250862
 51
59.7504300203475012
  0
ARC
  5
31EF
  8
0
 10
701.3336735945895271
 20
34.6440551199444613
 30
0.0
 40
0.1302059839604101
 50
63.1177726979159672
 51
123.0644155290774933
  0
ARC
  5
31F0
  8
0
 10
701.2931567346781776
 20
34.715782928225579
 30
0.0
 40
0.048267223591841
 50
129.2227147512822114
 51
155.4360758651093875
  0
LINE
  5
31F1
  8
0
 10
701.4526451170223709
 20
34.5310073974044016
 30
0.0
 11
701.4562535855222905
 21
34.5612714286043783
 31
0.0
  0
ARC
  5
31F2
  8
0
 10
701.3743507779088304
 20
34.4933885803504978
 30
0.0
 40
0.0333124890067253
 50
45.8757017013179791
 51
83.5814787486009863
  0
ARC
  5
31F3
  8
0
 10
701.3756899677557612
 20
34.5383773212405032
 30
0.0
 40
0.0303607479682646
 50
274.5051907911455942
 51
316.0376287589334083
  0
ARC
  5
31F4
  8
0
 10
701.4128062085301281
 20
34.5377047029344411
 30
0.0
 40
0.0403979273134158
 50
297.6277410207659955
 51
350.457253525299393
  0
ARC
  5
31F5
  8
0
 10
701.3861911401661473
 20
34.5816362892652194
 30
0.0
 40
0.0917185985503799
 50
276.7332494718427256
 51
299.632295091559115
  0
ARC
  5
31F6
  8
0
 10
701.3714847297037522
 20
34.7182359455781082
 30
0.0
 40
0.2291047246613083
 50
271.6483053284679272
 51
276.3803935478089784
  0
ARC
  5
31F7
  8
0
 10
701.4310362685242808
 20
34.5319754529383331
 30
0.0
 40
0.0216305216055767
 50
357.4349195194055255
 51
48.4563613373166788
  0
ARC
  5
31F8
  8
0
 10
701.4009621529758078
 20
34.4969867517089313
 30
0.0
 40
0.0677662711059484
 50
49.0441319129181323
 51
74.7929879272899854
  0
ARC
  5
31F9
  8
0
 10
701.380735739019201
 20
34.4342292454508865
 30
0.0
 40
0.1336667698514042
 50
73.4827489262761588
 51
85.4542838999904149
  0
ARC
  5
31FA
  8
0
 10
701.3574788670847511
 20
33.9175453274906289
 30
0.0
 40
0.6508111565202995
 50
87.0185358555674355
 51
88.1864841793668717
  0
LINE
  5
31FB
  8
0
 10
701.3035044563223437
 20
34.5310073974044016
 30
0.0
 11
701.2998959878224241
 21
34.5612714286043783
 31
0.0
  0
ARC
  5
31FC
  8
0
 10
701.3817987954359978
 20
34.4933885803504978
 30
0.0
 40
0.0333124890067253
 50
96.4185212513989995
 51
134.1242982986819925
  0
ARC
  5
31FD
  8
0
 10
701.380459605589067
 20
34.5383773212405032
 30
0.0
 40
0.0303607479682646
 50
223.9623712410665917
 51
265.4948092088542921
  0
ARC
  5
31FE
  8
0
 10
701.3433433648145865
 20
34.5377047029344411
 30
0.0
 40
0.0403979273134158
 50
189.542746474700607
 51
242.3722589792340045
  0
ARC
  5
31FF
  8
0
 10
701.3699584331784536
 20
34.5816362892652194
 30
0.0
 40
0.0917185985503799
 50
240.3677049084409134
 51
263.2667505281572744
  0
ARC
  5
3200
  8
0
 10
701.384664843641076
 20
34.7182359455781082
 30
0.0
 40
0.2291047246613083
 50
263.6196064521910216
 51
268.3516946715320728
  0
ARC
  5
3201
  8
0
 10
701.3251133048204338
 20
34.5319754529383331
 30
0.0
 40
0.0216305216055767
 50
131.5436386626832928
 51
182.5650804805945029
  0
ARC
  5
3202
  8
0
 10
701.3551874203689067
 20
34.4969867517089313
 30
0.0
 40
0.0677662711059484
 50
105.2070120727100004
 51
130.9558680870819103
  0
ARC
  5
3203
  8
0
 10
701.3754138343255136
 20
34.4342292454508865
 30
0.0
 40
0.1336667698514042
 50
94.5457161000095851
 51
106.5172510737237985
  0
ARC
  5
3204
  8
0
 10
701.3986707062598498
 20
33.9175453274906289
 30
0.0
 40
0.6508111565202995
 50
91.8135158206331425
 51
92.9814641444325645
  0
ARC
  5
3205
  8
0
 10
701.4298746413378467
 20
34.5627893195719906
 30
0.0
 40
0.0264225791564705
 50
356.7067313328250862
 51
59.7504300203475012
  0
ARC
  5
3206
  8
0
 10
701.3843117928386164
 20
34.4694785389141316
 30
0.0
 40
0.1302059839604101
 50
63.1177726979159672
 51
123.0644155290774933
  0
ARC
  5
3207
  8
0
 10
701.3437949329271532
 20
34.5412063471952493
 30
0.0
 40
0.048267223591841
 50
129.2227147512822114
 51
155.4360758651093875
  0
LINE
  5
3208
  8
0
 10
701.4010537841063524
 20
34.3586675731355129
 30
0.0
 11
701.404662252606272
 21
34.3889316043355109
 31
0.0
  0
ARC
  5
3209
  8
0
 10
701.3227594449926983
 20
34.3210487560816091
 30
0.0
 40
0.0333124890067253
 50
45.8757017013179791
 51
83.5814787486009863
  0
ARC
  5
320A
  8
0
 10
701.3240986348396291
 20
34.3660374969716074
 30
0.0
 40
0.0303607479682646
 50
274.5051907911455942
 51
316.0376287589334083
  0
ARC
  5
320B
  8
0
 10
701.3612148756139959
 20
34.3653648786655381
 30
0.0
 40
0.0403979273134158
 50
297.6277410207659955
 51
350.457253525299393
  0
ARC
  5
320C
  8
0
 10
701.3345998072501288
 20
34.4092964649963307
 30
0.0
 40
0.0917185985503799
 50
276.7332494718427256
 51
299.632295091559115
  0
ARC
  5
320D
  8
0
 10
701.3198933967876201
 20
34.5458961213092266
 30
0.0
 40
0.2291047246613083
 50
271.6483053284679272
 51
276.3803935478089784
  0
ARC
  5
320E
  8
0
 10
701.3794449356081486
 20
34.3596356286694515
 30
0.0
 40
0.0216305216055767
 50
357.4349195194055255
 51
48.4563613373166788
  0
ARC
  5
320F
  8
0
 10
701.3493708200597894
 20
34.3246469274400567
 30
0.0
 40
0.0677662711059484
 50
49.0441319129181323
 51
74.7929879272899854
  0
ARC
  5
3210
  8
0
 10
701.3291444061031825
 20
34.261889421182012
 30
0.0
 40
0.1336667698514042
 50
73.4827489262761588
 51
85.4542838999904149
  0
ARC
  5
3211
  8
0
 10
701.3058875341687326
 20
33.7452055032217402
 30
0.0
 40
0.6508111565202995
 50
87.0185358555674355
 51
88.1864841793668717
  0
LINE
  5
3212
  8
0
 10
701.2519131234063252
 20
34.3586675731355129
 30
0.0
 11
701.2483046549061783
 21
34.3889316043355109
 31
0.0
  0
ARC
  5
3213
  8
0
 10
701.3302074625198657
 20
34.3210487560816091
 30
0.0
 40
0.0333124890067253
 50
96.4185212513989995
 51
134.1242982986819925
  0
ARC
  5
3214
  8
0
 10
701.3288682726729348
 20
34.3660374969716074
 30
0.0
 40
0.0303607479682646
 50
223.9623712410665917
 51
265.4948092088542921
  0
ARC
  5
3215
  8
0
 10
701.2917520318984543
 20
34.3653648786655381
 30
0.0
 40
0.0403979273134158
 50
189.542746474700607
 51
242.3722589792340045
  0
ARC
  5
3216
  8
0
 10
701.3183671002624351
 20
34.4092964649963307
 30
0.0
 40
0.0917185985503799
 50
240.3677049084409134
 51
263.2667505281572744
  0
ARC
  5
3217
  8
0
 10
701.3330735107249438
 20
34.5458961213092266
 30
0.0
 40
0.2291047246613083
 50
263.6196064521910216
 51
268.3516946715320728
  0
ARC
  5
3218
  8
0
 10
701.2735219719044153
 20
34.3596356286694515
 30
0.0
 40
0.0216305216055767
 50
131.5436386626832928
 51
182.5650804805945029
  0
ARC
  5
3219
  8
0
 10
701.3035960874526609
 20
34.3246469274400567
 30
0.0
 40
0.0677662711059484
 50
105.2070120727100004
 51
130.9558680870819103
  0
ARC
  5
321A
  8
0
 10
701.3238225014092677
 20
34.261889421182012
 30
0.0
 40
0.1336667698514042
 50
94.5457161000095851
 51
106.5172510737237985
  0
ARC
  5
321B
  8
0
 10
701.3470793733438313
 20
33.7452055032217402
 30
0.0
 40
0.6508111565202995
 50
91.8135158206331425
 51
92.9814641444325645
  0
ARC
  5
321C
  8
0
 10
701.3782833084217145
 20
34.3904494953031019
 30
0.0
 40
0.0264225791564705
 50
356.7067313328250862
 51
59.7504300203475012
  0
ARC
  5
321D
  8
0
 10
701.3327204599223705
 20
34.2971387146452429
 30
0.0
 40
0.1302059839604101
 50
63.1177726979159672
 51
123.0644155290774933
  0
ARC
  5
321E
  8
0
 10
701.2922036000110211
 20
34.3688665229263535
 30
0.0
 40
0.048267223591841
 50
129.2227147512822114
 51
155.4360758651093875
  0
LINE
  5
321F
  8
0
 10
701.2618984023665689
 20
34.1960634795229623
 30
0.0
 11
701.2655068708664885
 21
34.2263275107229674
 31
0.0
  0
ARC
  5
3220
  8
0
 10
701.1836040632530285
 20
34.1584446624690727
 30
0.0
 40
0.0333124890067253
 50
45.8757017013179791
 51
83.5814787486009863
  0
ARC
  5
3221
  8
0
 10
701.1849432530999593
 20
34.203433403359071
 30
0.0
 40
0.0303607479682646
 50
274.5051907911455942
 51
316.0376287589334083
  0
ARC
  5
3222
  8
0
 10
701.2220594938743261
 20
34.2027607850530018
 30
0.0
 40
0.0403979273134158
 50
297.6277410207659955
 51
350.457253525299393
  0
ARC
  5
3223
  8
0
 10
701.1954444255103454
 20
34.2466923713837872
 30
0.0
 40
0.0917185985503799
 50
276.7332494718427256
 51
299.632295091559115
  0
ARC
  5
3224
  8
0
 10
701.1807380150479503
 20
34.3832920276966902
 30
0.0
 40
0.2291047246613083
 50
271.6483053284679272
 51
276.3803935478089784
  0
ARC
  5
3225
  8
0
 10
701.2402895538684788
 20
34.1970315350569081
 30
0.0
 40
0.0216305216055767
 50
357.4349195194055255
 51
48.4563613373166788
  0
ARC
  5
3226
  8
0
 10
701.2102154383200059
 20
34.1620428338275133
 30
0.0
 40
0.0677662711059484
 50
49.0441319129181323
 51
74.7929879272899854
  0
ARC
  5
3227
  8
0
 10
701.189989024363399
 20
34.0992853275694614
 30
0.0
 40
0.1336667698514042
 50
73.4827489262761588
 51
85.4542838999904149
  0
ARC
  5
3228
  8
0
 10
701.1667321524289491
 20
33.5826014096091967
 30
0.0
 40
0.6508111565202995
 50
87.0185358555674355
 51
88.1864841793668717
  0
LINE
  5
3229
  8
0
 10
701.1127577416666554
 20
34.1960634795229623
 30
0.0
 11
701.1091492731666222
 21
34.2263275107229674
 31
0.0
  0
ARC
  5
322A
  8
0
 10
701.1910520807803096
 20
34.1584446624690727
 30
0.0
 40
0.0333124890067253
 50
96.4185212513989995
 51
134.1242982986819925
  0
ARC
  5
322B
  8
0
 10
701.1897128909333787
 20
34.203433403359071
 30
0.0
 40
0.0303607479682646
 50
223.9623712410665917
 51
265.4948092088542921
  0
ARC
  5
322C
  8
0
 10
701.1525966501587845
 20
34.2027607850530018
 30
0.0
 40
0.0403979273134158
 50
189.542746474700607
 51
242.3722589792340045
  0
ARC
  5
322D
  8
0
 10
701.1792117185226516
 20
34.2466923713837872
 30
0.0
 40
0.0917185985503799
 50
240.3677049084409134
 51
263.2667505281572744
  0
ARC
  5
322E
  8
0
 10
701.1939181289852741
 20
34.3832920276966902
 30
0.0
 40
0.2291047246613083
 50
263.6196064521910216
 51
268.3516946715320728
  0
ARC
  5
322F
  8
0
 10
701.1343665901647455
 20
34.1970315350569081
 30
0.0
 40
0.0216305216055767
 50
131.5436386626832928
 51
182.5650804805945029
  0
ARC
  5
3230
  8
0
 10
701.1644407057131048
 20
34.1620428338275133
 30
0.0
 40
0.0677662711059484
 50
105.2070120727100004
 51
130.9558680870819103
  0
ARC
  5
3231
  8
0
 10
701.1846671196697116
 20
34.0992853275694614
 30
0.0
 40
0.1336667698514042
 50
94.5457161000095851
 51
106.5172510737237985
  0
ARC
  5
3232
  8
0
 10
701.2079239916040478
 20
33.5826014096091967
 30
0.0
 40
0.6508111565202995
 50
91.8135158206331425
 51
92.9814641444325645
  0
ARC
  5
3233
  8
0
 10
701.2391279266821584
 20
34.2278454016905584
 30
0.0
 40
0.0264225791564705
 50
356.7067313328250862
 51
59.7504300203475012
  0
ARC
  5
3234
  8
0
 10
701.1935650781825871
 20
34.1345346210326994
 30
0.0
 40
0.1302059839604101
 50
63.1177726979159672
 51
123.0644155290774933
  0
ARC
  5
3235
  8
0
 10
701.1530482182713513
 20
34.20626242931381
 30
0.0
 40
0.048267223591841
 50
129.2227147512822114
 51
155.4360758651093875
  0
LINE
  5
3236
  8
0
 10
701.0297670782148316
 20
34.0539353914781771
 30
0.0
 11
701.0333755467147512
 21
34.0841994226781821
 31
0.0
  0
ARC
  5
3237
  8
0
 10
700.9514727391012912
 20
34.0163165744242804
 30
0.0
 40
0.0333124890067253
 50
45.8757017013179791
 51
83.5814787486009863
  0
ARC
  5
3238
  8
0
 10
700.952811928948222
 20
34.0613053153142928
 30
0.0
 40
0.0303607479682646
 50
274.5051907911455942
 51
316.0376287589334083
  0
ARC
  5
3239
  8
0
 10
700.9899281697225888
 20
34.0606326970082165
 30
0.0
 40
0.0403979273134158
 50
297.6277410207659955
 51
350.457253525299393
  0
ARC
  5
323A
  8
0
 10
700.9633131013587217
 20
34.1045642833389877
 30
0.0
 40
0.0917185985503799
 50
276.7332494718427256
 51
299.632295091559115
  0
ARC
  5
323B
  8
0
 10
700.948606690896213
 20
34.2411639396518979
 30
0.0
 40
0.2291047246613083
 50
271.6483053284679272
 51
276.3803935478089784
  0
ARC
  5
323C
  8
0
 10
701.0081582297168552
 20
34.0549034470121086
 30
0.0
 40
0.0216305216055767
 50
357.4349195194055255
 51
48.4563613373166788
  0
ARC
  5
323D
  8
0
 10
700.9780841141682686
 20
34.019914745782728
 30
0.0
 40
0.0677662711059484
 50
49.0441319129181323
 51
74.7929879272899854
  0
ARC
  5
323E
  8
0
 10
700.9578577002116617
 20
33.9571572395246832
 30
0.0
 40
0.1336667698514042
 50
73.4827489262761588
 51
85.4542838999904149
  0
ARC
  5
323F
  8
0
 10
700.9346008282773255
 20
33.4404733215644114
 30
0.0
 40
0.6508111565202995
 50
87.0185358555674355
 51
88.1864841793668717
  0
LINE
  5
3240
  8
0
 10
700.8806264175148044
 20
34.0539353914781771
 30
0.0
 11
700.8770179490148848
 21
34.0841994226781821
 31
0.0
  0
ARC
  5
3241
  8
0
 10
700.9589207566284585
 20
34.0163165744242804
 30
0.0
 40
0.0333124890067253
 50
96.4185212513989995
 51
134.1242982986819925
  0
ARC
  5
3242
  8
0
 10
700.9575815667815277
 20
34.0613053153142928
 30
0.0
 40
0.0303607479682646
 50
223.9623712410665917
 51
265.4948092088542921
  0
ARC
  5
3243
  8
0
 10
700.9204653260070472
 20
34.0606326970082165
 30
0.0
 40
0.0403979273134158
 50
189.542746474700607
 51
242.3722589792340045
  0
ARC
  5
3244
  8
0
 10
700.947080394371028
 20
34.1045642833389877
 30
0.0
 40
0.0917185985503799
 50
240.3677049084409134
 51
263.2667505281572744
  0
ARC
  5
3245
  8
0
 10
700.9617868048335367
 20
34.2411639396518979
 30
0.0
 40
0.2291047246613083
 50
263.6196064521910216
 51
268.3516946715320728
  0
ARC
  5
3246
  8
0
 10
700.9022352660128945
 20
34.0549034470121086
 30
0.0
 40
0.0216305216055767
 50
131.5436386626832928
 51
182.5650804805945029
  0
ARC
  5
3247
  8
0
 10
700.9323093815613674
 20
34.019914745782728
 30
0.0
 40
0.0677662711059484
 50
105.2070120727100004
 51
130.9558680870819103
  0
ARC
  5
3248
  8
0
 10
700.9525357955179743
 20
33.9571572395246832
 30
0.0
 40
0.1336667698514042
 50
94.5457161000095851
 51
106.5172510737237985
  0
ARC
  5
3249
  8
0
 10
700.9757926674524242
 20
33.4404733215644114
 30
0.0
 40
0.6508111565202995
 50
91.8135158206331425
 51
92.9814641444325645
  0
ARC
  5
324A
  8
0
 10
701.0069966025301937
 20
34.0857173136457803
 30
0.0
 40
0.0264225791564705
 50
356.7067313328250862
 51
59.7504300203475012
  0
ARC
  5
324B
  8
0
 10
700.9614337540308497
 20
33.9924065329879213
 30
0.0
 40
0.1302059839604101
 50
63.1177726979159672
 51
123.0644155290774933
  0
ARC
  5
324C
  8
0
 10
700.920916894119614
 20
34.0641343412690318
 30
0.0
 40
0.048267223591841
 50
129.2227147512822114
 51
155.4360758651093875
  0
LINE
  5
324D
  8
0
 10
700.9381594605230248
 20
34.1911549402205992
 30
0.0
 11
700.9417679290229444
 21
34.2214189714205972
 31
0.0
  0
ARC
  5
324E
  8
0
 10
700.859865121409257
 20
34.1535361231667167
 30
0.0
 40
0.0333124890067253
 50
45.8757017013179791
 51
83.5814787486009863
  0
ARC
  5
324F
  8
0
 10
700.8612043112564152
 20
34.1985248640567221
 30
0.0
 40
0.0303607479682646
 50
274.5051907911455942
 51
316.0376287589334083
  0
ARC
  5
3250
  8
0
 10
700.898320552030782
 20
34.1978522457506386
 30
0.0
 40
0.0403979273134158
 50
297.6277410207659955
 51
350.457253525299393
  0
ARC
  5
3251
  8
0
 10
700.8717054836668012
 20
34.241783832081417
 30
0.0
 40
0.0917185985503799
 50
276.7332494718427256
 51
299.632295091559115
  0
ARC
  5
3252
  8
0
 10
700.8569990732044062
 20
34.3783834883943271
 30
0.0
 40
0.2291047246613083
 50
271.6483053284679272
 51
276.3803935478089784
  0
ARC
  5
3253
  8
0
 10
700.9165506120249347
 20
34.1921229957545521
 30
0.0
 40
0.0216305216055767
 50
357.4349195194055255
 51
48.4563613373166788
  0
ARC
  5
3254
  8
0
 10
700.8864764964765754
 20
34.1571342945251502
 30
0.0
 40
0.0677662711059484
 50
49.0441319129181323
 51
74.7929879272899854
  0
ARC
  5
3255
  8
0
 10
700.8662500825199686
 20
34.0943767882670983
 30
0.0
 40
0.1336667698514042
 50
73.4827489262761588
 51
85.4542838999904149
  0
ARC
  5
3256
  8
0
 10
700.8429932105855187
 20
33.5776928703068478
 30
0.0
 40
0.6508111565202995
 50
87.0185358555674355
 51
88.1864841793668717
  0
LINE
  5
3257
  8
0
 10
700.7890187998229976
 20
34.1911549402205992
 30
0.0
 11
700.7854103313229643
 21
34.2214189714205972
 31
0.0
  0
ARC
  5
3258
  8
0
 10
700.8673131389366517
 20
34.1535361231667167
 30
0.0
 40
0.0333124890067253
 50
96.4185212513989995
 51
134.1242982986819925
  0
ARC
  5
3259
  8
0
 10
700.8659739490897209
 20
34.1985248640567221
 30
0.0
 40
0.0303607479682646
 50
223.9623712410665917
 51
265.4948092088542921
  0
ARC
  5
325A
  8
0
 10
700.8288577083153541
 20
34.1978522457506386
 30
0.0
 40
0.0403979273134158
 50
189.542746474700607
 51
242.3722589792340045
  0
ARC
  5
325B
  8
0
 10
700.8554727766792212
 20
34.241783832081417
 30
0.0
 40
0.0917185985503799
 50
240.3677049084409134
 51
263.2667505281572744
  0
ARC
  5
325C
  8
0
 10
700.8701791871416162
 20
34.3783834883943271
 30
0.0
 40
0.2291047246613083
 50
263.6196064521910216
 51
268.3516946715320728
  0
ARC
  5
325D
  8
0
 10
700.8106276483210877
 20
34.1921229957545521
 30
0.0
 40
0.0216305216055767
 50
131.5436386626832928
 51
182.5650804805945029
  0
ARC
  5
325E
  8
0
 10
700.8407017638694469
 20
34.1571342945251502
 30
0.0
 40
0.0677662711059484
 50
105.2070120727100004
 51
130.9558680870819103
  0
ARC
  5
325F
  8
0
 10
700.8609281778260538
 20
34.0943767882670983
 30
0.0
 40
0.1336667698514042
 50
94.5457161000095851
 51
106.5172510737237985
  0
ARC
  5
3260
  8
0
 10
700.8841850497605037
 20
33.5776928703068478
 30
0.0
 40
0.6508111565202995
 50
91.8135158206331425
 51
92.9814641444325645
  0
ARC
  5
3261
  8
0
 10
700.9153889848383869
 20
34.2229368623882024
 30
0.0
 40
0.0264225791564705
 50
356.7067313328250862
 51
59.7504300203475012
  0
ARC
  5
3262
  8
0
 10
700.8698261363391566
 20
34.1296260817303434
 30
0.0
 40
0.1302059839604101
 50
63.1177726979159672
 51
123.0644155290774933
  0
ARC
  5
3263
  8
0
 10
700.8293092764278072
 20
34.2013538900114611
 30
0.0
 40
0.048267223591841
 50
129.2227147512822114
 51
155.4360758651093875
  0
LINE
  5
3264
  8
0
 10
701.0558042877048592
 20
34.3562768666219398
 30
0.0
 11
701.0594127562050062
 21
34.386540897821952
 31
0.0
  0
ARC
  5
3265
  8
0
 10
700.9775099485913188
 20
34.3186580495680573
 30
0.0
 40
0.0333124890067253
 50
45.8757017013179791
 51
83.5814787486009863
  0
ARC
  5
3266
  8
0
 10
700.9788491384383633
 20
34.3636467904580627
 30
0.0
 40
0.0303607479682646
 50
274.5051907911455942
 51
316.0376287589334083
  0
ARC
  5
3267
  8
0
 10
701.0159653792127301
 20
34.3629741721519792
 30
0.0
 40
0.0403979273134158
 50
297.6277410207659955
 51
350.457253525299393
  0
ARC
  5
3268
  8
0
 10
700.989350310848863
 20
34.4069057584827718
 30
0.0
 40
0.0917185985503799
 50
276.7332494718427256
 51
299.632295091559115
  0
ARC
  5
3269
  8
0
 10
700.9746439003863543
 20
34.5435054147956819
 30
0.0
 40
0.2291047246613083
 50
271.6483053284679272
 51
276.3803935478089784
  0
ARC
  5
326A
  8
0
 10
701.0341954392067692
 20
34.3572449221558927
 30
0.0
 40
0.0216305216055767
 50
357.4349195194055255
 51
48.4563613373166788
  0
ARC
  5
326B
  8
0
 10
701.0041213236585236
 20
34.3222562209264908
 30
0.0
 40
0.0677662711059484
 50
49.0441319129181323
 51
74.7929879272899854
  0
ARC
  5
326C
  8
0
 10
700.983894909701803
 20
34.2594987146684389
 30
0.0
 40
0.1336667698514042
 50
73.4827489262761588
 51
85.4542838999904149
  0
ARC
  5
326D
  8
0
 10
700.9606380377673531
 20
33.7428147967081884
 30
0.0
 40
0.6508111565202995
 50
87.0185358555674355
 51
88.1864841793668717
  0
LINE
  5
326E
  8
0
 10
700.9066636270049457
 20
34.3562768666219398
 30
0.0
 11
700.9030551585050262
 21
34.386540897821952
 31
0.0
  0
ARC
  5
326F
  8
0
 10
700.9849579661184862
 20
34.3186580495680573
 30
0.0
 40
0.0333124890067253
 50
96.4185212513989995
 51
134.1242982986819925
  0
ARC
  5
3270
  8
0
 10
700.9836187762715554
 20
34.3636467904580627
 30
0.0
 40
0.0303607479682646
 50
223.9623712410665917
 51
265.4948092088542921
  0
ARC
  5
3271
  8
0
 10
700.9465025354971885
 20
34.3629741721519792
 30
0.0
 40
0.0403979273134158
 50
189.542746474700607
 51
242.3722589792340045
  0
ARC
  5
3272
  8
0
 10
700.9731176038610556
 20
34.4069057584827718
 30
0.0
 40
0.0917185985503799
 50
240.3677049084409134
 51
263.2667505281572744
  0
ARC
  5
3273
  8
0
 10
700.9878240143236781
 20
34.5435054147956819
 30
0.0
 40
0.2291047246613083
 50
263.6196064521910216
 51
268.3516946715320728
  0
ARC
  5
3274
  8
0
 10
700.9282724755030358
 20
34.3572449221558927
 30
0.0
 40
0.0216305216055767
 50
131.5436386626832928
 51
182.5650804805945029
  0
ARC
  5
3275
  8
0
 10
700.9583465910515088
 20
34.3222562209264908
 30
0.0
 40
0.0677662711059484
 50
105.2070120727100004
 51
130.9558680870819103
  0
ARC
  5
3276
  8
0
 10
700.9785730050081156
 20
34.2594987146684389
 30
0.0
 40
0.1336667698514042
 50
94.5457161000095851
 51
106.5172510737237985
  0
ARC
  5
3277
  8
0
 10
701.0018298769424518
 20
33.7428147967081884
 30
0.0
 40
0.6508111565202995
 50
91.8135158206331425
 51
92.9814641444325645
  0
ARC
  5
3278
  8
0
 10
701.0330338120204487
 20
34.3880587887895501
 30
0.0
 40
0.0264225791564705
 50
356.7067313328250862
 51
59.7504300203475012
  0
ARC
  5
3279
  8
0
 10
700.9874709635209911
 20
34.2947480081316769
 30
0.0
 40
0.1302059839604101
 50
63.1177726979159672
 51
123.0644155290774933
  0
ARC
  5
327A
  8
0
 10
700.9469541036097553
 20
34.3664758164128017
 30
0.0
 40
0.048267223591841
 50
129.2227147512822114
 51
155.4360758651093875
  0
LINE
  5
327B
  8
0
 10
701.0631811652143597
 20
34.5272951685972629
 30
0.0
 11
701.0667896337142793
 21
34.557559199797268
 31
0.0
  0
ARC
  5
327C
  8
0
 10
700.9848868261008192
 20
34.4896763515433804
 30
0.0
 40
0.0333124890067253
 50
45.8757017013179791
 51
83.5814787486009863
  0
ARC
  5
327D
  8
0
 10
700.9862260159477501
 20
34.5346650924333929
 30
0.0
 40
0.0303607479682646
 50
274.5051907911455942
 51
316.0376287589334083
  0
ARC
  5
327E
  8
0
 10
701.0233422567221169
 20
34.5339924741273023
 30
0.0
 40
0.0403979273134158
 50
297.6277410207659955
 51
350.457253525299393
  0
ARC
  5
327F
  8
0
 10
700.9967271883582498
 20
34.5779240604580878
 30
0.0
 40
0.0917185985503799
 50
276.7332494718427256
 51
299.632295091559115
  0
ARC
  5
3280
  8
0
 10
700.982020777895741
 20
34.7145237167709979
 30
0.0
 40
0.2291047246613083
 50
271.6483053284679272
 51
276.3803935478089784
  0
ARC
  5
3281
  8
0
 10
701.0415723167162696
 20
34.5282632241312086
 30
0.0
 40
0.0216305216055767
 50
357.4349195194055255
 51
48.4563613373166788
  0
ARC
  5
3282
  8
0
 10
701.0114982011677967
 20
34.4932745229018209
 30
0.0
 40
0.0677662711059484
 50
49.0441319129181323
 51
74.7929879272899854
  0
ARC
  5
3283
  8
0
 10
700.9912717872111898
 20
34.430517016643762
 30
0.0
 40
0.1336667698514042
 50
73.4827489262761588
 51
85.4542838999904149
  0
ARC
  5
3284
  8
0
 10
700.9680149152768536
 20
33.9138330986835115
 30
0.0
 40
0.6508111565202995
 50
87.0185358555674355
 51
88.1864841793668717
  0
LINE
  5
3285
  8
0
 10
700.9140405045144462
 20
34.5272951685972629
 30
0.0
 11
700.9104320360144129
 21
34.557559199797268
 31
0.0
  0
ARC
  5
3286
  8
0
 10
700.9923348436281003
 20
34.4896763515433804
 30
0.0
 40
0.0333124890067253
 50
96.4185212513989995
 51
134.1242982986819925
  0
ARC
  5
3287
  8
0
 10
700.9909956537810558
 20
34.5346650924333929
 30
0.0
 40
0.0303607479682646
 50
223.9623712410665917
 51
265.4948092088542921
  0
ARC
  5
3288
  8
0
 10
700.9538794130065753
 20
34.5339924741273023
 30
0.0
 40
0.0403979273134158
 50
189.542746474700607
 51
242.3722589792340045
  0
ARC
  5
3289
  8
0
 10
700.9804944813705561
 20
34.5779240604580878
 30
0.0
 40
0.0917185985503799
 50
240.3677049084409134
 51
263.2667505281572744
  0
ARC
  5
328A
  8
0
 10
700.9952008918330648
 20
34.7145237167709979
 30
0.0
 40
0.2291047246613083
 50
263.6196064521910216
 51
268.3516946715320728
  0
ARC
  5
328B
  8
0
 10
700.9356493530125363
 20
34.5282632241312086
 30
0.0
 40
0.0216305216055767
 50
131.5436386626832928
 51
182.5650804805945029
  0
ARC
  5
328C
  8
0
 10
700.9657234685608955
 20
34.4932745229018209
 30
0.0
 40
0.0677662711059484
 50
105.2070120727100004
 51
130.9558680870819103
  0
ARC
  5
328D
  8
0
 10
700.9859498825175024
 20
34.430517016643762
 30
0.0
 40
0.1336667698514042
 50
94.5457161000095851
 51
106.5172510737237985
  0
ARC
  5
328E
  8
0
 10
701.0092067544519523
 20
33.9138330986835115
 30
0.0
 40
0.6508111565202995
 50
91.8135158206331425
 51
92.9814641444325645
  0
ARC
  5
328F
  8
0
 10
701.0404106895298355
 20
34.559077090764859
 30
0.0
 40
0.0264225791564705
 50
356.7067313328250862
 51
59.7504300203475012
  0
ARC
  5
3290
  8
0
 10
700.9948478410306052
 20
34.465766310107
 30
0.0
 40
0.1302059839604101
 50
63.1177726979159672
 51
123.0644155290774933
  0
ARC
  5
3291
  8
0
 10
700.9543309811191421
 20
34.5374941183881319
 30
0.0
 40
0.048267223591841
 50
129.2227147512822114
 51
155.4360758651093875
  0
LINE
  5
3292
  8
0
 10
700.9298551076501553
 20
34.6901395344072228
 30
0.0
 11
700.9334635761501886
 21
34.7204035656072278
 31
0.0
  0
ARC
  5
3293
  8
0
 10
700.8515607685365012
 20
34.6525207173533403
 30
0.0
 40
0.0333124890067253
 50
45.8757017013179791
 51
83.5814787486009863
  0
ARC
  5
3294
  8
0
 10
700.8528999583835457
 20
34.6975094582433528
 30
0.0
 40
0.0303607479682646
 50
274.5051907911455942
 51
316.0376287589334083
  0
ARC
  5
3295
  8
0
 10
700.8900161991577988
 20
34.6968368399372835
 30
0.0
 40
0.0403979273134158
 50
297.6277410207659955
 51
350.457253525299393
  0
ARC
  5
3296
  8
0
 10
700.8634011307940455
 20
34.7407684262680476
 30
0.0
 40
0.0917185985503799
 50
276.7332494718427256
 51
299.632295091559115
  0
ARC
  5
3297
  8
0
 10
700.8486947203315367
 20
34.8773680825809578
 30
0.0
 40
0.2291047246613083
 50
271.6483053284679272
 51
276.3803935478089784
  0
ARC
  5
3298
  8
0
 10
700.9082462591519516
 20
34.6911075899411685
 30
0.0
 40
0.0216305216055767
 50
357.4349195194055255
 51
48.4563613373166788
  0
ARC
  5
3299
  8
0
 10
700.878172143603706
 20
34.6561188887117666
 30
0.0
 40
0.0677662711059484
 50
49.0441319129181323
 51
74.7929879272899854
  0
ARC
  5
329A
  8
0
 10
700.8579457296470991
 20
34.5933613824537431
 30
0.0
 40
0.1336667698514042
 50
73.4827489262761588
 51
85.4542838999904149
  0
ARC
  5
329B
  8
0
 10
700.8346888577126492
 20
34.0766774644934713
 30
0.0
 40
0.6508111565202995
 50
87.0185358555674355
 51
88.1864841793668717
  0
LINE
  5
329C
  8
0
 10
700.7807144469502418
 20
34.6901395344072228
 30
0.0
 11
700.7771059784502086
 21
34.7204035656072278
 31
0.0
  0
ARC
  5
329D
  8
0
 10
700.8590087860636686
 20
34.6525207173533403
 30
0.0
 40
0.0333124890067253
 50
96.4185212513989995
 51
134.1242982986819925
  0
ARC
  5
329E
  8
0
 10
700.8576695962168515
 20
34.6975094582433528
 30
0.0
 40
0.0303607479682646
 50
223.9623712410665917
 51
265.4948092088542921
  0
ARC
  5
329F
  8
0
 10
700.820553355442371
 20
34.6968368399372835
 30
0.0
 40
0.0403979273134158
 50
189.542746474700607
 51
242.3722589792340045
  0
ARC
  5
32A0
  8
0
 10
700.8471684238063517
 20
34.7407684262680476
 30
0.0
 40
0.0917185985503799
 50
240.3677049084409134
 51
263.2667505281572744
  0
ARC
  5
32A1
  8
0
 10
700.8618748342687468
 20
34.8773680825809578
 30
0.0
 40
0.2291047246613083
 50
263.6196064521910216
 51
268.3516946715320728
  0
ARC
  5
32A2
  8
0
 10
700.8023232954482182
 20
34.6911075899411685
 30
0.0
 40
0.0216305216055767
 50
131.5436386626832928
 51
182.5650804805945029
  0
ARC
  5
32A3
  8
0
 10
700.8323974109965775
 20
34.6561188887117666
 30
0.0
 40
0.0677662711059484
 50
105.2070120727100004
 51
130.9558680870819103
  0
ARC
  5
32A4
  8
0
 10
700.8526238249531843
 20
34.5933613824537431
 30
0.0
 40
0.1336667698514042
 50
94.5457161000095851
 51
106.5172510737237985
  0
ARC
  5
32A5
  8
0
 10
700.8758806968877479
 20
34.0766774644934713
 30
0.0
 40
0.6508111565202995
 50
91.8135158206331425
 51
92.9814641444325645
  0
ARC
  5
32A6
  8
0
 10
700.9070846319656312
 20
34.7219214565748402
 30
0.0
 40
0.0264225791564705
 50
356.7067313328250862
 51
59.7504300203475012
  0
ARC
  5
32A7
  8
0
 10
700.8615217834662872
 20
34.6286106759169598
 30
0.0
 40
0.1302059839604101
 50
63.1177726979159672
 51
123.0644155290774933
  0
ARC
  5
32A8
  8
0
 10
700.8210049235549377
 20
34.7003384841980775
 30
0.0
 40
0.048267223591841
 50
129.2227147512822114
 51
155.4360758651093875
  0
LINE
  5
32A9
  8
0
 10
700.6915120473457819
 20
34.8229330126621193
 30
0.0
 11
700.6951205158458151
 21
34.8531970438621101
 31
0.0
  0
ARC
  5
32AA
  8
0
 10
700.6132177082321277
 20
34.7853141956082226
 30
0.0
 40
0.0333124890067253
 50
45.8757017013179791
 51
83.5814787486009863
  0
ARC
  5
32AB
  8
0
 10
700.6145568980790586
 20
34.830302936498228
 30
0.0
 40
0.0303607479682646
 50
274.5051907911455942
 51
316.0376287589334083
  0
ARC
  5
32AC
  8
0
 10
700.6516731388535391
 20
34.8296303181921587
 30
0.0
 40
0.0403979273134158
 50
297.6277410207659955
 51
350.457253525299393
  0
ARC
  5
32AD
  8
0
 10
700.625058070489672
 20
34.873561904522937
 30
0.0
 40
0.0917185985503799
 50
276.7332494718427256
 51
299.632295091559115
  0
ARC
  5
32AE
  8
0
 10
700.6103516600270495
 20
35.0101615608358401
 30
0.0
 40
0.2291047246613083
 50
271.6483053284679272
 51
276.3803935478089784
  0
ARC
  5
32AF
  8
0
 10
700.6699031988475781
 20
34.8239010681960508
 30
0.0
 40
0.0216305216055767
 50
357.4349195194055255
 51
48.4563613373166788
  0
ARC
  5
32B0
  8
0
 10
700.6398290832993325
 20
34.7889123669666631
 30
0.0
 40
0.0677662711059484
 50
49.0441319129181323
 51
74.7929879272899854
  0
ARC
  5
32B1
  8
0
 10
700.6196026693427257
 20
34.7261548607086183
 30
0.0
 40
0.1336667698514042
 50
73.4827489262761588
 51
85.4542838999904149
  0
ARC
  5
32B2
  8
0
 10
700.5963457974082758
 20
34.2094709427483465
 30
0.0
 40
0.6508111565202995
 50
87.0185358555674355
 51
88.1864841793668717
  0
LINE
  5
32B3
  8
0
 10
700.5423713866457547
 20
34.8229330126621193
 30
0.0
 11
700.5387629181458351
 21
34.8531970438621101
 31
0.0
  0
ARC
  5
32B4
  8
0
 10
700.6206657257592951
 20
34.7853141956082226
 30
0.0
 40
0.0333124890067253
 50
96.4185212513989995
 51
134.1242982986819925
  0
ARC
  5
32B5
  8
0
 10
700.6193265359123643
 20
34.830302936498228
 30
0.0
 40
0.0303607479682646
 50
223.9623712410665917
 51
265.4948092088542921
  0
ARC
  5
32B6
  8
0
 10
700.5822102951379975
 20
34.8296303181921587
 30
0.0
 40
0.0403979273134158
 50
189.542746474700607
 51
242.3722589792340045
  0
ARC
  5
32B7
  8
0
 10
700.6088253635018646
 20
34.873561904522937
 30
0.0
 40
0.0917185985503799
 50
240.3677049084409134
 51
263.2667505281572744
  0
ARC
  5
32B8
  8
0
 10
700.6235317739642596
 20
35.0101615608358401
 30
0.0
 40
0.2291047246613083
 50
263.6196064521910216
 51
268.3516946715320728
  0
ARC
  5
32B9
  8
0
 10
700.5639802351438448
 20
34.8239010681960508
 30
0.0
 40
0.0216305216055767
 50
131.5436386626832928
 51
182.5650804805945029
  0
ARC
  5
32BA
  8
0
 10
700.5940543506923177
 20
34.7889123669666631
 30
0.0
 40
0.0677662711059484
 50
105.2070120727100004
 51
130.9558680870819103
  0
ARC
  5
32BB
  8
0
 10
700.6142807646488109
 20
34.7261548607086183
 30
0.0
 40
0.1336667698514042
 50
94.5457161000095851
 51
106.5172510737237985
  0
ARC
  5
32BC
  8
0
 10
700.6375376365832608
 20
34.2094709427483465
 30
0.0
 40
0.6508111565202995
 50
91.8135158206331425
 51
92.9814641444325645
  0
ARC
  5
32BD
  8
0
 10
700.668741571661144
 20
34.8547149348297225
 30
0.0
 40
0.0264225791564705
 50
356.7067313328250862
 51
59.7504300203475012
  0
ARC
  5
32BE
  8
0
 10
700.6231787231619137
 20
34.7614041541718635
 30
0.0
 40
0.1302059839604101
 50
63.1177726979159672
 51
123.0644155290774933
  0
ARC
  5
32BF
  8
0
 10
700.5826618632504506
 20
34.8331319624529669
 30
0.0
 40
0.048267223591841
 50
129.2227147512822114
 51
155.4360758651093875
  0
LINE
  5
32C0
  8
0
 10
700.3757953199308304
 20
34.9095230242692196
 30
0.0
 11
700.37940378843075
 21
34.9397870554692176
 31
0.0
  0
ARC
  5
32C1
  8
0
 10
700.2975009808171762
 20
34.8719042072153371
 30
0.0
 40
0.0333124890067253
 50
45.8757017013179791
 51
83.5814787486009863
  0
ARC
  5
32C2
  8
0
 10
700.2988401706641071
 20
34.9168929481053425
 30
0.0
 40
0.0303607479682646
 50
274.5051907911455942
 51
316.0376287589334083
  0
ARC
  5
32C3
  8
0
 10
700.3359564114384739
 20
34.916220329799259
 30
0.0
 40
0.0403979273134158
 50
297.6277410207659955
 51
350.457253525299393
  0
ARC
  5
32C4
  8
0
 10
700.3093413430746068
 20
34.9601519161300374
 30
0.0
 40
0.0917185985503799
 50
276.7332494718427256
 51
299.632295091559115
  0
ARC
  5
32C5
  8
0
 10
700.2946349326122117
 20
35.0967515724429475
 30
0.0
 40
0.2291047246613083
 50
271.6483053284679272
 51
276.3803935478089784
  0
ARC
  5
32C6
  8
0
 10
700.3541864714327403
 20
34.9104910798031582
 30
0.0
 40
0.0216305216055767
 50
357.4349195194055255
 51
48.4563613373166788
  0
ARC
  5
32C7
  8
0
 10
700.3241123558842673
 20
34.8755023785737706
 30
0.0
 40
0.0677662711059484
 50
49.0441319129181323
 51
74.7929879272899854
  0
ARC
  5
32C8
  8
0
 10
700.3038859419277742
 20
34.8127448723157329
 30
0.0
 40
0.1336667698514042
 50
73.4827489262761588
 51
85.4542838999904149
  0
ARC
  5
32C9
  8
0
 10
700.2806290699932106
 20
34.2960609543554682
 30
0.0
 40
0.6508111565202995
 50
87.0185358555674355
 51
88.1864841793668717
  0
LINE
  5
32CA
  8
0
 10
700.2266546592306895
 20
34.9095230242692196
 30
0.0
 11
700.2230461907306562
 21
34.9397870554692176
 31
0.0
  0
ARC
  5
32CB
  8
0
 10
700.3049489983443436
 20
34.8719042072153371
 30
0.0
 40
0.0333124890067253
 50
96.4185212513989995
 51
134.1242982986819925
  0
ARC
  5
32CC
  8
0
 10
700.3036098084975265
 20
34.9168929481053425
 30
0.0
 40
0.0303607479682646
 50
223.9623712410665917
 51
265.4948092088542921
  0
ARC
  5
32CD
  8
0
 10
700.266493567723046
 20
34.916220329799259
 30
0.0
 40
0.0403979273134158
 50
189.542746474700607
 51
242.3722589792340045
  0
ARC
  5
32CE
  8
0
 10
700.2931086360870268
 20
34.9601519161300374
 30
0.0
 40
0.0917185985503799
 50
240.3677049084409134
 51
263.2667505281572744
  0
ARC
  5
32CF
  8
0
 10
700.3078150465494218
 20
35.0967515724429475
 30
0.0
 40
0.2291047246613083
 50
263.6196064521910216
 51
268.3516946715320728
  0
ARC
  5
32D0
  8
0
 10
700.2482635077288933
 20
34.9104910798031582
 30
0.0
 40
0.0216305216055767
 50
131.5436386626832928
 51
182.5650804805945029
  0
ARC
  5
32D1
  8
0
 10
700.2783376232772525
 20
34.8755023785737706
 30
0.0
 40
0.0677662711059484
 50
105.2070120727100004
 51
130.9558680870819103
  0
ARC
  5
32D2
  8
0
 10
700.2985640372337457
 20
34.8127448723157329
 30
0.0
 40
0.1336667698514042
 50
94.5457161000095851
 51
106.5172510737237985
  0
ARC
  5
32D3
  8
0
 10
700.3218209091683093
 20
34.2960609543554682
 30
0.0
 40
0.6508111565202995
 50
91.8135158206331425
 51
92.9814641444325645
  0
ARC
  5
32D4
  8
0
 10
700.3530248442463062
 20
34.9413049464368228
 30
0.0
 40
0.0264225791564705
 50
356.7067313328250862
 51
59.7504300203475012
  0
ARC
  5
32D5
  8
0
 10
700.3074619957469622
 20
34.8479941657789567
 30
0.0
 40
0.1302059839604101
 50
63.1177726979159672
 51
123.0644155290774933
  0
ARC
  5
32D6
  8
0
 10
700.2669451358354991
 20
34.9197219740600815
 30
0.0
 40
0.048267223591841
 50
129.2227147512822114
 51
155.4360758651093875
  0
LINE
  5
32D7
  8
0
 10
700.3570320713947694
 20
34.6577890141771618
 30
0.0
 11
700.3606405398949164
 21
34.6880530453771598
 31
0.0
  0
ARC
  5
32D8
  8
0
 10
700.278737732281229
 20
34.6201701971232723
 30
0.0
 40
0.0333124890067253
 50
45.8757017013179791
 51
83.5814787486009863
  0
ARC
  5
32D9
  8
0
 10
700.2800769221281598
 20
34.6651589380132776
 30
0.0
 40
0.0303607479682646
 50
274.5051907911455942
 51
316.0376287589334083
  0
ARC
  5
32DA
  8
0
 10
700.3171931629026403
 20
34.6644863197071871
 30
0.0
 40
0.0403979273134158
 50
297.6277410207659955
 51
350.457253525299393
  0
ARC
  5
32DB
  8
0
 10
700.2905780945386596
 20
34.7084179060379796
 30
0.0
 40
0.0917185985503799
 50
276.7332494718427256
 51
299.632295091559115
  0
ARC
  5
32DC
  8
0
 10
700.2758716840761508
 20
34.8450175623508898
 30
0.0
 40
0.2291047246613083
 50
271.6483053284679272
 51
276.3803935478089784
  0
ARC
  5
32DD
  8
0
 10
700.335423222896793
 20
34.6587570697111005
 30
0.0
 40
0.0216305216055767
 50
357.4349195194055255
 51
48.4563613373166788
  0
ARC
  5
32DE
  8
0
 10
700.3053491073484338
 20
34.6237683684817128
 30
0.0
 40
0.0677662711059484
 50
49.0441319129181323
 51
74.7929879272899854
  0
ARC
  5
32DF
  8
0
 10
700.2851226933918269
 20
34.5610108622236609
 30
0.0
 40
0.1336667698514042
 50
73.4827489262761588
 51
85.4542838999904149
  0
ARC
  5
32E0
  8
0
 10
700.2618658214572633
 20
34.0443269442634033
 30
0.0
 40
0.6508111565202995
 50
87.0185358555674355
 51
88.1864841793668717
  0
LINE
  5
32E1
  8
0
 10
700.2078914106948559
 20
34.6577890141771618
 30
0.0
 11
700.2042829421949364
 21
34.6880530453771598
 31
0.0
  0
ARC
  5
32E2
  8
0
 10
700.2861857498085101
 20
34.6201701971232723
 30
0.0
 40
0.0333124890067253
 50
96.4185212513989995
 51
134.1242982986819925
  0
ARC
  5
32E3
  8
0
 10
700.2848465599614656
 20
34.6651589380132776
 30
0.0
 40
0.0303607479682646
 50
223.9623712410665917
 51
265.4948092088542921
  0
ARC
  5
32E4
  8
0
 10
700.2477303191872124
 20
34.6644863197071871
 30
0.0
 40
0.0403979273134158
 50
189.542746474700607
 51
242.3722589792340045
  0
ARC
  5
32E5
  8
0
 10
700.2743453875510795
 20
34.7084179060379796
 30
0.0
 40
0.0917185985503799
 50
240.3677049084409134
 51
263.2667505281572744
  0
ARC
  5
32E6
  8
0
 10
700.2890517980134746
 20
34.8450175623508898
 30
0.0
 40
0.2291047246613083
 50
263.6196064521910216
 51
268.3516946715320728
  0
ARC
  5
32E7
  8
0
 10
700.229500259192946
 20
34.6587570697111005
 30
0.0
 40
0.0216305216055767
 50
131.5436386626832928
 51
182.5650804805945029
  0
ARC
  5
32E8
  8
0
 10
700.259574374741419
 20
34.6237683684817128
 30
0.0
 40
0.0677662711059484
 50
105.2070120727100004
 51
130.9558680870819103
  0
ARC
  5
32E9
  8
0
 10
700.2798007886980258
 20
34.5610108622236609
 30
0.0
 40
0.1336667698514042
 50
94.5457161000095851
 51
106.5172510737237985
  0
ARC
  5
32EA
  8
0
 10
700.3030576606324757
 20
34.0443269442634033
 30
0.0
 40
0.6508111565202995
 50
91.8135158206331425
 51
92.9814641444325645
  0
ARC
  5
32EB
  8
0
 10
700.3342615957102453
 20
34.6895709363447509
 30
0.0
 40
0.0264225791564705
 50
356.7067313328250862
 51
59.7504300203475012
  0
ARC
  5
32EC
  8
0
 10
700.288698747211015
 20
34.5962601556868918
 30
0.0
 40
0.1302059839604101
 50
63.1177726979159672
 51
123.0644155290774933
  0
ARC
  5
32ED
  8
0
 10
700.2481818872995518
 20
34.6679879639680166
 30
0.0
 40
0.048267223591841
 50
129.2227147512822114
 51
155.4360758651093875
  0
LINE
  5
32EE
  8
0
 10
700.6113107382701628
 20
34.5394150690038799
 30
0.0
 11
700.6149192067701961
 21
34.5696791002038779
 31
0.0
  0
ARC
  5
32EF
  8
0
 10
700.533016399156736
 20
34.5017962519499974
 30
0.0
 40
0.0333124890067253
 50
45.8757017013179791
 51
83.5814787486009863
  0
ARC
  5
32F0
  8
0
 10
700.5343555890035532
 20
34.5467849928400028
 30
0.0
 40
0.0303607479682646
 50
274.5051907911455942
 51
316.0376287589334083
  0
ARC
  5
32F1
  8
0
 10
700.5714718297780337
 20
34.5461123745339194
 30
0.0
 40
0.0403979273134158
 50
297.6277410207659955
 51
350.457253525299393
  0
ARC
  5
32F2
  8
0
 10
700.5448567614140529
 20
34.5900439608646977
 30
0.0
 40
0.0917185985503799
 50
276.7332494718427256
 51
299.632295091559115
  0
ARC
  5
32F3
  8
0
 10
700.5301503509516579
 20
34.7266436171776078
 30
0.0
 40
0.2291047246613083
 50
271.6483053284679272
 51
276.3803935478089784
  0
ARC
  5
32F4
  8
0
 10
700.5897018897723001
 20
34.5403831245378328
 30
0.0
 40
0.0216305216055767
 50
357.4349195194055255
 51
48.4563613373166788
  0
ARC
  5
32F5
  8
0
 10
700.5596277742238271
 20
34.5053944233084309
 30
0.0
 40
0.0677662711059484
 50
49.0441319129181323
 51
74.7929879272899854
  0
ARC
  5
32F6
  8
0
 10
700.5394013602672203
 20
34.442636917050379
 30
0.0
 40
0.1336667698514042
 50
73.4827489262761588
 51
85.4542838999904149
  0
ARC
  5
32F7
  8
0
 10
700.5161444883326567
 20
33.9259529990901285
 30
0.0
 40
0.6508111565202995
 50
87.0185358555674355
 51
88.1864841793668717
  0
LINE
  5
32F8
  8
0
 10
700.4621700775702493
 20
34.5394150690038799
 30
0.0
 11
700.4585616090703297
 21
34.5696791002038779
 31
0.0
  0
ARC
  5
32F9
  8
0
 10
700.5404644166840171
 20
34.5017962519499974
 30
0.0
 40
0.0333124890067253
 50
96.4185212513989995
 51
134.1242982986819925
  0
ARC
  5
32FA
  8
0
 10
700.5391252268369726
 20
34.5467849928400028
 30
0.0
 40
0.0303607479682646
 50
223.9623712410665917
 51
265.4948092088542921
  0
ARC
  5
32FB
  8
0
 10
700.5020089860626058
 20
34.5461123745339194
 30
0.0
 40
0.0403979273134158
 50
189.542746474700607
 51
242.3722589792340045
  0
ARC
  5
32FC
  8
0
 10
700.5286240544264729
 20
34.5900439608646977
 30
0.0
 40
0.0917185985503799
 50
240.3677049084409134
 51
263.2667505281572744
  0
ARC
  5
32FD
  8
0
 10
700.5433304648889816
 20
34.7266436171776078
 30
0.0
 40
0.2291047246613083
 50
263.6196064521910216
 51
268.3516946715320728
  0
ARC
  5
32FE
  8
0
 10
700.4837789260684531
 20
34.5403831245378328
 30
0.0
 40
0.0216305216055767
 50
131.5436386626832928
 51
182.5650804805945029
  0
ARC
  5
32FF
  8
0
 10
700.5138530416168123
 20
34.5053944233084309
 30
0.0
 40
0.0677662711059484
 50
105.2070120727100004
 51
130.9558680870819103
  0
ARC
  5
3300
  8
0
 10
700.5340794555734192
 20
34.442636917050379
 30
0.0
 40
0.1336667698514042
 50
94.5457161000095851
 51
106.5172510737237985
  0
ARC
  5
3301
  8
0
 10
700.5573363275077554
 20
33.9259529990901285
 30
0.0
 40
0.6508111565202995
 50
91.8135158206331425
 51
92.9814641444325645
  0
ARC
  5
3302
  8
0
 10
700.588540262585866
 20
34.5711969911714831
 30
0.0
 40
0.0264225791564705
 50
356.7067313328250862
 51
59.7504300203475012
  0
ARC
  5
3303
  8
0
 10
700.5429774140864083
 20
34.477886210513617
 30
0.0
 40
0.1302059839604101
 50
63.1177726979159672
 51
123.0644155290774933
  0
ARC
  5
3304
  8
0
 10
700.5024605541749452
 20
34.5496140187947418
 30
0.0
 40
0.048267223591841
 50
129.2227147512822114
 51
155.4360758651093875
  0
LINE
  5
3305
  8
0
 10
700.7013739005740263
 20
34.3776703010793696
 30
0.0
 11
700.7049823690739458
 21
34.4079343322793534
 31
0.0
  0
ARC
  5
3306
  8
0
 10
700.6230795614602584
 20
34.3400514840254729
 30
0.0
 40
0.0333124890067253
 50
45.8757017013179791
 51
83.5814787486009863
  0
ARC
  5
3307
  8
0
 10
700.624418751307303
 20
34.3850402249154712
 30
0.0
 40
0.0303607479682646
 50
274.5051907911455942
 51
316.0376287589334083
  0
ARC
  5
3308
  8
0
 10
700.6615349920815561
 20
34.3843676066094019
 30
0.0
 40
0.0403979273134158
 50
297.6277410207659955
 51
350.457253525299393
  0
ARC
  5
3309
  8
0
 10
700.6349199237178027
 20
34.4282991929401874
 30
0.0
 40
0.0917185985503799
 50
276.7332494718427256
 51
299.632295091559115
  0
ARC
  5
330A
  8
0
 10
700.6202135132554076
 20
34.5648988492530833
 30
0.0
 40
0.2291047246613083
 50
271.6483053284679272
 51
276.3803935478089784
  0
ARC
  5
330B
  8
0
 10
700.6797650520759362
 20
34.3786383566133011
 30
0.0
 40
0.0216305216055767
 50
357.4349195194055255
 51
48.4563613373166788
  0
ARC
  5
330C
  8
0
 10
700.6496909365273495
 20
34.3436496553838992
 30
0.0
 40
0.0677662711059484
 50
49.0441319129181323
 51
74.7929879272899854
  0
ARC
  5
330D
  8
0
 10
700.6294645225708564
 20
34.2808921491258616
 30
0.0
 40
0.1336667698514042
 50
73.4827489262761588
 51
85.4542838999904149
  0
ARC
  5
330E
  8
0
 10
700.6062076506362928
 20
33.7642082311655969
 30
0.0
 40
0.6508111565202995
 50
87.0185358555674355
 51
88.1864841793668717
  0
LINE
  5
330F
  8
0
 10
700.5522332398739991
 20
34.3776703010793696
 30
0.0
 11
700.5486247713738521
 21
34.4079343322793534
 31
0.0
  0
ARC
  5
3310
  8
0
 10
700.6305275789876532
 20
34.3400514840254729
 30
0.0
 40
0.0333124890067253
 50
96.4185212513989995
 51
134.1242982986819925
  0
ARC
  5
3311
  8
0
 10
700.6291883891406087
 20
34.3850402249154712
 30
0.0
 40
0.0303607479682646
 50
223.9623712410665917
 51
265.4948092088542921
  0
ARC
  5
3312
  8
0
 10
700.5920721483662419
 20
34.3843676066094019
 30
0.0
 40
0.0403979273134158
 50
189.542746474700607
 51
242.3722589792340045
  0
ARC
  5
3313
  8
0
 10
700.618687216730109
 20
34.4282991929401874
 30
0.0
 40
0.0917185985503799
 50
240.3677049084409134
 51
263.2667505281572744
  0
ARC
  5
3314
  8
0
 10
700.6333936271926177
 20
34.5648988492530833
 30
0.0
 40
0.2291047246613083
 50
263.6196064521910216
 51
268.3516946715320728
  0
ARC
  5
3315
  8
0
 10
700.5738420883719755
 20
34.3786383566133011
 30
0.0
 40
0.0216305216055767
 50
131.5436386626832928
 51
182.5650804805945029
  0
ARC
  5
3316
  8
0
 10
700.6039162039204484
 20
34.3436496553838992
 30
0.0
 40
0.0677662711059484
 50
105.2070120727100004
 51
130.9558680870819103
  0
ARC
  5
3317
  8
0
 10
700.6241426178770553
 20
34.2808921491258616
 30
0.0
 40
0.1336667698514042
 50
94.5457161000095851
 51
106.5172510737237985
  0
ARC
  5
3318
  8
0
 10
700.6473994898115052
 20
33.7642082311655969
 30
0.0
 40
0.6508111565202995
 50
91.8135158206331425
 51
92.9814641444325645
  0
ARC
  5
3319
  8
0
 10
700.6786034248895021
 20
34.4094522232469586
 30
0.0
 40
0.0264225791564705
 50
356.7067313328250862
 51
59.7504300203475012
  0
ARC
  5
331A
  8
0
 10
700.6330405763900444
 20
34.3161414425890996
 30
0.0
 40
0.1302059839604101
 50
63.1177726979159672
 51
123.0644155290774933
  0
ARC
  5
331B
  8
0
 10
700.5925237164785813
 20
34.3878692508702102
 30
0.0
 40
0.048267223591841
 50
129.2227147512822114
 51
155.4360758651093875
  0
LINE
  5
331C
  8
0
 10
700.6118055722017743
 20
34.2159717910469823
 30
0.0
 11
700.6154140407018076
 21
34.2462358222469874
 31
0.0
  0
ARC
  5
331D
  8
0
 10
700.5335112330882339
 20
34.1783529739930998
 30
0.0
 40
0.0333124890067253
 50
45.8757017013179791
 51
83.5814787486009863
  0
ARC
  5
331E
  8
0
 10
700.5348504229351647
 20
34.223341714883091
 30
0.0
 40
0.0303607479682646
 50
274.5051907911455942
 51
316.0376287589334083
  0
ARC
  5
331F
  8
0
 10
700.5719666637095315
 20
34.2226690965770217
 30
0.0
 40
0.0403979273134158
 50
297.6277410207659955
 51
350.457253525299393
  0
ARC
  5
3320
  8
0
 10
700.5453515953455508
 20
34.2666006829078071
 30
0.0
 40
0.0917185985503799
 50
276.7332494718427256
 51
299.632295091559115
  0
ARC
  5
3321
  8
0
 10
700.5306451848832694
 20
34.4032003392207031
 30
0.0
 40
0.2291047246613083
 50
271.6483053284679272
 51
276.3803935478089784
  0
ARC
  5
3322
  8
0
 10
700.5901967237036843
 20
34.2169398465809067
 30
0.0
 40
0.0216305216055767
 50
357.4349195194055255
 51
48.4563613373166788
  0
ARC
  5
3323
  8
0
 10
700.560122608155325
 20
34.1819511453515403
 30
0.0
 40
0.0677662711059484
 50
49.0441319129181323
 51
74.7929879272899854
  0
ARC
  5
3324
  8
0
 10
700.5398961941986045
 20
34.1191936390934814
 30
0.0
 40
0.1336667698514042
 50
73.4827489262761588
 51
85.4542838999904149
  0
ARC
  5
3325
  8
0
 10
700.5166393222641545
 20
33.6025097211332167
 30
0.0
 40
0.6508111565202995
 50
87.0185358555674355
 51
88.1864841793668717
  0
LINE
  5
3326
  8
0
 10
700.4626649115017472
 20
34.2159717910469823
 30
0.0
 11
700.4590564430018276
 21
34.2462358222469874
 31
0.0
  0
ARC
  5
3327
  8
0
 10
700.540959250615515
 20
34.1783529739930998
 30
0.0
 40
0.0333124890067253
 50
96.4185212513989995
 51
134.1242982986819925
  0
ARC
  5
3328
  8
0
 10
700.5396200607685842
 20
34.223341714883091
 30
0.0
 40
0.0303607479682646
 50
223.9623712410665917
 51
265.4948092088542921
  0
ARC
  5
3329
  8
0
 10
700.50250381999399
 20
34.2226690965770217
 30
0.0
 40
0.0403979273134158
 50
189.542746474700607
 51
242.3722589792340045
  0
ARC
  5
332A
  8
0
 10
700.529118888357857
 20
34.2666006829078071
 30
0.0
 40
0.0917185985503799
 50
240.3677049084409134
 51
263.2667505281572744
  0
ARC
  5
332B
  8
0
 10
700.5438252988204795
 20
34.4032003392207031
 30
0.0
 40
0.2291047246613083
 50
263.6196064521910216
 51
268.3516946715320728
  0
ARC
  5
332C
  8
0
 10
700.4842737599999509
 20
34.2169398465809067
 30
0.0
 40
0.0216305216055767
 50
131.5436386626832928
 51
182.5650804805945029
  0
ARC
  5
332D
  8
0
 10
700.5143478755483102
 20
34.1819511453515403
 30
0.0
 40
0.0677662711059484
 50
105.2070120727100004
 51
130.9558680870819103
  0
ARC
  5
332E
  8
0
 10
700.534574289504917
 20
34.1191936390934814
 30
0.0
 40
0.1336667698514042
 50
94.5457161000095851
 51
106.5172510737237985
  0
ARC
  5
332F
  8
0
 10
700.5578311614392533
 20
33.6025097211332167
 30
0.0
 40
0.6508111565202995
 50
91.8135158206331425
 51
92.9814641444325645
  0
ARC
  5
3330
  8
0
 10
700.5890350965173639
 20
34.2477537132145784
 30
0.0
 40
0.0264225791564705
 50
356.7067313328250862
 51
59.7504300203475012
  0
ARC
  5
3331
  8
0
 10
700.5434722480180199
 20
34.1544429325567194
 30
0.0
 40
0.1302059839604101
 50
63.1177726979159672
 51
123.0644155290774933
  0
ARC
  5
3332
  8
0
 10
700.5029553881065567
 20
34.22617074083783
 30
0.0
 40
0.048267223591841
 50
129.2227147512822114
 51
155.4360758651093875
  0
LINE
  5
3333
  8
0
 10
700.7011457915028814
 20
34.0583986525123521
 30
0.0
 11
700.7047542600028009
 21
34.0886626837123572
 31
0.0
  0
ARC
  5
3334
  8
0
 10
700.6228514523893409
 20
34.0207798354584696
 30
0.0
 40
0.0333124890067253
 50
45.8757017013179791
 51
83.5814787486009863
  0
ARC
  5
3335
  8
0
 10
700.6241906422362717
 20
34.0657685763484821
 30
0.0
 40
0.0303607479682646
 50
274.5051907911455942
 51
316.0376287589334083
  0
ARC
  5
3336
  8
0
 10
700.6613068830106386
 20
34.0650959580423915
 30
0.0
 40
0.0403979273134158
 50
297.6277410207659955
 51
350.457253525299393
  0
ARC
  5
3337
  8
0
 10
700.6346918146466578
 20
34.109027544373177
 30
0.0
 40
0.0917185985503799
 50
276.7332494718427256
 51
299.632295091559115
  0
ARC
  5
3338
  8
0
 10
700.6199854041842627
 20
34.2456272006860871
 30
0.0
 40
0.2291047246613083
 50
271.6483053284679272
 51
276.3803935478089784
  0
ARC
  5
3339
  8
0
 10
700.679536943004905
 20
34.0593667080462978
 30
0.0
 40
0.0216305216055767
 50
357.4349195194055255
 51
48.4563613373166788
  0
ARC
  5
333A
  8
0
 10
700.649462827456432
 20
34.0243780068169102
 30
0.0
 40
0.0677662711059484
 50
49.0441319129181323
 51
74.7929879272899854
  0
ARC
  5
333B
  8
0
 10
700.6292364134999389
 20
33.9616205005588725
 30
0.0
 40
0.1336667698514042
 50
73.4827489262761588
 51
85.4542838999904149
  0
ARC
  5
333C
  8
0
 10
700.6059795415652616
 20
33.4449365825986007
 30
0.0
 40
0.6508111565202995
 50
87.0185358555674355
 51
88.1864841793668717
  0
LINE
  5
333D
  8
0
 10
700.5520051308028542
 20
34.0583986525123521
 30
0.0
 11
700.5483966623029346
 21
34.0886626837123572
 31
0.0
  0
ARC
  5
333E
  8
0
 10
700.630299469916622
 20
34.0207798354584696
 30
0.0
 40
0.0333124890067253
 50
96.4185212513989995
 51
134.1242982986819925
  0
ARC
  5
333F
  8
0
 10
700.6289602800696912
 20
34.0657685763484821
 30
0.0
 40
0.0303607479682646
 50
223.9623712410665917
 51
265.4948092088542921
  0
ARC
  5
3340
  8
0
 10
700.5918440392952107
 20
34.0650959580423915
 30
0.0
 40
0.0403979273134158
 50
189.542746474700607
 51
242.3722589792340045
  0
ARC
  5
3341
  8
0
 10
700.6184591076591914
 20
34.109027544373177
 30
0.0
 40
0.0917185985503799
 50
240.3677049084409134
 51
263.2667505281572744
  0
ARC
  5
3342
  8
0
 10
700.6331655181215865
 20
34.2456272006860871
 30
0.0
 40
0.2291047246613083
 50
263.6196064521910216
 51
268.3516946715320728
  0
ARC
  5
3343
  8
0
 10
700.5736139793009443
 20
34.0593667080462978
 30
0.0
 40
0.0216305216055767
 50
131.5436386626832928
 51
182.5650804805945029
  0
ARC
  5
3344
  8
0
 10
700.6036880948494172
 20
34.0243780068169102
 30
0.0
 40
0.0677662711059484
 50
105.2070120727100004
 51
130.9558680870819103
  0
ARC
  5
3345
  8
0
 10
700.6239145088060241
 20
33.9616205005588725
 30
0.0
 40
0.1336667698514042
 50
94.5457161000095851
 51
106.5172510737237985
  0
ARC
  5
3346
  8
0
 10
700.6471713807403603
 20
33.4449365825986007
 30
0.0
 40
0.6508111565202995
 50
91.8135158206331425
 51
92.9814641444325645
  0
ARC
  5
3347
  8
0
 10
700.6783753158184709
 20
34.0901805746799482
 30
0.0
 40
0.0264225791564705
 50
356.7067313328250862
 51
59.7504300203475012
  0
ARC
  5
3348
  8
0
 10
700.6328124673191269
 20
33.9968697940220892
 30
0.0
 40
0.1302059839604101
 50
63.1177726979159672
 51
123.0644155290774933
  0
ARC
  5
3349
  8
0
 10
700.5922956074075501
 20
34.0685976023032211
 30
0.0
 40
0.048267223591841
 50
129.2227147512822114
 51
155.4360758651093875
  0
LINE
  5
334A
  8
0
 10
700.732888278810151
 20
33.9461254505500634
 30
0.0
 11
700.7364967473100705
 21
33.9763894817500613
 31
0.0
  0
ARC
  5
334B
  8
0
 10
700.6545939396963831
 20
33.9085066334961667
 30
0.0
 40
0.0333124890067253
 50
45.8757017013179791
 51
83.5814787486009863
  0
ARC
  5
334C
  8
0
 10
700.6559331295434276
 20
33.953495374386172
 30
0.0
 40
0.0303607479682646
 50
274.5051907911455942
 51
316.0376287589334083
  0
ARC
  5
334D
  8
0
 10
700.6930493703177945
 20
33.9528227560801028
 30
0.0
 40
0.0403979273134158
 50
297.6277410207659955
 51
350.457253525299393
  0
ARC
  5
334E
  8
0
 10
700.6664343019539274
 20
33.9967543424108811
 30
0.0
 40
0.0917185985503799
 50
276.7332494718427256
 51
299.632295091559115
  0
ARC
  5
334F
  8
0
 10
700.6517278914915323
 20
34.1333539987237771
 30
0.0
 40
0.2291047246613083
 50
271.6483053284679272
 51
276.3803935478089784
  0
ARC
  5
3350
  8
0
 10
700.7112794303119472
 20
33.947093506084002
 30
0.0
 40
0.0216305216055767
 50
357.4349195194055255
 51
48.4563613373166788
  0
ARC
  5
3351
  8
0
 10
700.6812053147634742
 20
33.9121048048546072
 30
0.0
 40
0.0677662711059484
 50
49.0441319129181323
 51
74.7929879272899854
  0
ARC
  5
3352
  8
0
 10
700.6609789008070948
 20
33.8493472985965624
 30
0.0
 40
0.1336667698514042
 50
73.4827489262761588
 51
85.4542838999904149
  0
ARC
  5
3353
  8
0
 10
700.6377220288725312
 20
33.3326633806362906
 30
0.0
 40
0.6508111565202995
 50
87.0185358555674355
 51
88.1864841793668717
  0
LINE
  5
3354
  8
0
 10
700.5837476181101238
 20
33.9461254505500634
 30
0.0
 11
700.5801391496100905
 21
33.9763894817500613
 31
0.0
  0
ARC
  5
3355
  8
0
 10
700.6620419572237779
 20
33.9085066334961667
 30
0.0
 40
0.0333124890067253
 50
96.4185212513989995
 51
134.1242982986819925
  0
ARC
  5
3356
  8
0
 10
700.6607027673768471
 20
33.953495374386172
 30
0.0
 40
0.0303607479682646
 50
223.9623712410665917
 51
265.4948092088542921
  0
ARC
  5
3357
  8
0
 10
700.6235865266022529
 20
33.9528227560801028
 30
0.0
 40
0.0403979273134158
 50
189.542746474700607
 51
242.3722589792340045
  0
ARC
  5
3358
  8
0
 10
700.6502015949663473
 20
33.9967543424108811
 30
0.0
 40
0.0917185985503799
 50
240.3677049084409134
 51
263.2667505281572744
  0
ARC
  5
3359
  8
0
 10
700.6649080054287424
 20
34.1333539987237771
 30
0.0
 40
0.2291047246613083
 50
263.6196064521910216
 51
268.3516946715320728
  0
ARC
  5
335A
  8
0
 10
700.6053564666082139
 20
33.947093506084002
 30
0.0
 40
0.0216305216055767
 50
131.5436386626832928
 51
182.5650804805945029
  0
ARC
  5
335B
  8
0
 10
700.6354305821565731
 20
33.9121048048546072
 30
0.0
 40
0.0677662711059484
 50
105.2070120727100004
 51
130.9558680870819103
  0
ARC
  5
335C
  8
0
 10
700.65565699611318
 20
33.8493472985965624
 30
0.0
 40
0.1336667698514042
 50
94.5457161000095851
 51
106.5172510737237985
  0
ARC
  5
335D
  8
0
 10
700.6789138680476299
 20
33.3326633806362906
 30
0.0
 40
0.6508111565202995
 50
91.8135158206331425
 51
92.9814641444325645
  0
ARC
  5
335E
  8
0
 10
700.7101178031255131
 20
33.9779073727176524
 30
0.0
 40
0.0264225791564705
 50
356.7067313328250862
 51
59.7504300203475012
  0
ARC
  5
335F
  8
0
 10
700.6645549546262828
 20
33.8845965920598005
 30
0.0
 40
0.1302059839604101
 50
63.1177726979159672
 51
123.0644155290774933
  0
ARC
  5
3360
  8
0
 10
700.6240380947148196
 20
33.9563244003409181
 30
0.0
 40
0.048267223591841
 50
129.2227147512822114
 51
155.4360758651093875
  0
LINE
  5
3361
  8
0
 10
700.3835668595324933
 20
33.87932272895236
 30
0.0
 11
700.3871753280324128
 21
33.9095867601523722
 31
0.0
  0
ARC
  5
3362
  8
0
 10
700.3052725204188391
 20
33.8417039118984775
 30
0.0
 40
0.0333124890067253
 50
45.8757017013179791
 51
83.5814787486009863
  0
ARC
  5
3363
  8
0
 10
700.3066117102656563
 20
33.8866926527884686
 30
0.0
 40
0.0303607479682646
 50
274.5051907911455942
 51
316.0376287589334083
  0
ARC
  5
3364
  8
0
 10
700.3437279510401368
 20
33.8860200344823994
 30
0.0
 40
0.0403979273134158
 50
297.6277410207659955
 51
350.457253525299393
  0
ARC
  5
3365
  8
0
 10
700.317112882676156
 20
33.9299516208131919
 30
0.0
 40
0.0917185985503799
 50
276.7332494718427256
 51
299.632295091559115
  0
ARC
  5
3366
  8
0
 10
700.3024064722136472
 20
34.0665512771260808
 30
0.0
 40
0.2291047246613083
 50
271.6483053284679272
 51
276.3803935478089784
  0
ARC
  5
3367
  8
0
 10
700.3619580110344032
 20
33.8802907844863128
 30
0.0
 40
0.0216305216055767
 50
357.4349195194055255
 51
48.4563613373166788
  0
ARC
  5
3368
  8
0
 10
700.3318838954859302
 20
33.8453020832569109
 30
0.0
 40
0.0677662711059484
 50
49.0441319129181323
 51
74.7929879272899854
  0
ARC
  5
3369
  8
0
 10
700.3116574815293234
 20
33.782544576998859
 30
0.0
 40
0.1336667698514042
 50
73.4827489262761588
 51
85.4542838999904149
  0
ARC
  5
336A
  8
0
 10
700.2884006095947598
 20
33.2658606590385872
 30
0.0
 40
0.6508111565202995
 50
87.0185358555674355
 51
88.1864841793668717
  0
LINE
  5
336B
  8
0
 10
700.2344261988324661
 20
33.87932272895236
 30
0.0
 11
700.2308177303324328
 21
33.9095867601523722
 31
0.0
  0
ARC
  5
336C
  8
0
 10
700.3127205379461202
 20
33.8417039118984775
 30
0.0
 40
0.0333124890067253
 50
96.4185212513989995
 51
134.1242982986819925
  0
ARC
  5
336D
  8
0
 10
700.311381348098962
 20
33.8866926527884686
 30
0.0
 40
0.0303607479682646
 50
223.9623712410665917
 51
265.4948092088542921
  0
ARC
  5
336E
  8
0
 10
700.2742651073247089
 20
33.8860200344823994
 30
0.0
 40
0.0403979273134158
 50
189.542746474700607
 51
242.3722589792340045
  0
ARC
  5
336F
  8
0
 10
700.3008801756885759
 20
33.9299516208131919
 30
0.0
 40
0.0917185985503799
 50
240.3677049084409134
 51
263.2667505281572744
  0
ARC
  5
3370
  8
0
 10
700.315586586150971
 20
34.0665512771260808
 30
0.0
 40
0.2291047246613083
 50
263.6196064521910216
 51
268.3516946715320728
  0
ARC
  5
3371
  8
0
 10
700.2560350473305562
 20
33.8802907844863128
 30
0.0
 40
0.0216305216055767
 50
131.5436386626832928
 51
182.5650804805945029
  0
ARC
  5
3372
  8
0
 10
700.2861091628789154
 20
33.8453020832569109
 30
0.0
 40
0.0677662711059484
 50
105.2070120727100004
 51
130.9558680870819103
  0
ARC
  5
3373
  8
0
 10
700.3063355768355223
 20
33.782544576998859
 30
0.0
 40
0.1336667698514042
 50
94.5457161000095851
 51
106.5172510737237985
  0
ARC
  5
3374
  8
0
 10
700.3295924487699722
 20
33.2658606590385872
 30
0.0
 40
0.6508111565202995
 50
91.8135158206331425
 51
92.9814641444325645
  0
ARC
  5
3375
  8
0
 10
700.3607963838478554
 20
33.9111046511199632
 30
0.0
 40
0.0264225791564705
 50
356.7067313328250862
 51
59.7504300203475012
  0
ARC
  5
3376
  8
0
 10
700.3152335353486251
 20
33.8177938704620971
 30
0.0
 40
0.1302059839604101
 50
63.1177726979159672
 51
123.0644155290774933
  0
ARC
  5
3377
  8
0
 10
700.2747166754370483
 20
33.8895216787432219
 30
0.0
 40
0.048267223591841
 50
129.2227147512822114
 51
155.4360758651093875
  0
LINE
  5
3378
  8
0
 10
700.2844776527216482
 20
34.2693251385247777
 30
0.0
 11
700.2880861212216814
 21
34.2995891697247828
 31
0.0
  0
ARC
  5
3379
  8
0
 10
700.206183313607994
 20
34.231706321470881
 30
0.0
 40
0.0333124890067253
 50
45.8757017013179791
 51
83.5814787486009863
  0
ARC
  5
337A
  8
0
 10
700.2075225034550385
 20
34.2766950623608935
 30
0.0
 40
0.0303607479682646
 50
274.5051907911455942
 51
316.0376287589334083
  0
ARC
  5
337B
  8
0
 10
700.2446387442294053
 20
34.2760224440548171
 30
0.0
 40
0.0403979273134158
 50
297.6277410207659955
 51
350.457253525299393
  0
ARC
  5
337C
  8
0
 10
700.2180236758655383
 20
34.3199540303855883
 30
0.0
 40
0.0917185985503799
 50
276.7332494718427256
 51
299.632295091559115
  0
ARC
  5
337D
  8
0
 10
700.2033172654030295
 20
34.4565536866984985
 30
0.0
 40
0.2291047246613083
 50
271.6483053284679272
 51
276.3803935478089784
  0
ARC
  5
337E
  8
0
 10
700.2628688042236718
 20
34.2702931940587092
 30
0.0
 40
0.0216305216055767
 50
357.4349195194055255
 51
48.4563613373166788
  0
ARC
  5
337F
  8
0
 10
700.2327946886751988
 20
34.2353044928293286
 30
0.0
 40
0.0677662711059484
 50
49.0441319129181323
 51
74.7929879272899854
  0
ARC
  5
3380
  8
0
 10
700.212568274718592
 20
34.1725469865712768
 30
0.0
 40
0.1336667698514042
 50
73.4827489262761588
 51
85.4542838999904149
  0
ARC
  5
3381
  8
0
 10
700.189311402784142
 20
33.6558630686110121
 30
0.0
 40
0.6508111565202995
 50
87.0185358555674355
 51
88.1864841793668717
  0
LINE
  5
3382
  8
0
 10
700.135336992021621
 20
34.2693251385247777
 30
0.0
 11
700.1317285235217014
 21
34.2995891697247828
 31
0.0
  0
ARC
  5
3383
  8
0
 10
700.2136313311351614
 20
34.231706321470881
 30
0.0
 40
0.0333124890067253
 50
96.4185212513989995
 51
134.1242982986819925
  0
ARC
  5
3384
  8
0
 10
700.2122921412883443
 20
34.2766950623608935
 30
0.0
 40
0.0303607479682646
 50
223.9623712410665917
 51
265.4948092088542921
  0
ARC
  5
3385
  8
0
 10
700.1751759005139775
 20
34.2760224440548171
 30
0.0
 40
0.0403979273134158
 50
189.542746474700607
 51
242.3722589792340045
  0
ARC
  5
3386
  8
0
 10
700.2017909688778445
 20
34.3199540303855883
 30
0.0
 40
0.0917185985503799
 50
240.3677049084409134
 51
263.2667505281572744
  0
ARC
  5
3387
  8
0
 10
700.2164973793403533
 20
34.4565536866984985
 30
0.0
 40
0.2291047246613083
 50
263.6196064521910216
 51
268.3516946715320728
  0
ARC
  5
3388
  8
0
 10
700.1569458405197111
 20
34.2702931940587092
 30
0.0
 40
0.0216305216055767
 50
131.5436386626832928
 51
182.5650804805945029
  0
ARC
  5
3389
  8
0
 10
700.187019956068184
 20
34.2353044928293286
 30
0.0
 40
0.0677662711059484
 50
105.2070120727100004
 51
130.9558680870819103
  0
ARC
  5
338A
  8
0
 10
700.2072463700247908
 20
34.1725469865712768
 30
0.0
 40
0.1336667698514042
 50
94.5457161000095851
 51
106.5172510737237985
  0
ARC
  5
338B
  8
0
 10
700.2305032419592408
 20
33.6558630686110121
 30
0.0
 40
0.6508111565202995
 50
91.8135158206331425
 51
92.9814641444325645
  0
ARC
  5
338C
  8
0
 10
700.261707177037124
 20
34.3011070606923809
 30
0.0
 40
0.0264225791564705
 50
356.7067313328250862
 51
59.7504300203475012
  0
ARC
  5
338D
  8
0
 10
700.21614432853778
 20
34.2077962800345077
 30
0.0
 40
0.1302059839604101
 50
63.1177726979159672
 51
123.0644155290774933
  0
ARC
  5
338E
  8
0
 10
700.1756274686264305
 20
34.2795240883156325
 30
0.0
 40
0.048267223591841
 50
129.2227147512822114
 51
155.4360758651093875
  0
LINE
  5
338F
  8
0
 10
700.3504536709668855
 20
34.1170685832274714
 30
0.0
 11
700.3540621394670325
 21
34.1473326144274694
 31
0.0
  0
ARC
  5
3390
  8
0
 10
700.2721593318533451
 20
34.0794497661735818
 30
0.0
 40
0.0333124890067253
 50
45.8757017013179791
 51
83.5814787486009863
  0
ARC
  5
3391
  8
0
 10
700.2734985217002759
 20
34.1244385070635872
 30
0.0
 40
0.0303607479682646
 50
274.5051907911455942
 51
316.0376287589334083
  0
ARC
  5
3392
  8
0
 10
700.3106147624747564
 20
34.1237658887574966
 30
0.0
 40
0.0403979273134158
 50
297.6277410207659955
 51
350.457253525299393
  0
ARC
  5
3393
  8
0
 10
700.2839996941108893
 20
34.1676974750882891
 30
0.0
 40
0.0917185985503799
 50
276.7332494718427256
 51
299.632295091559115
  0
ARC
  5
3394
  8
0
 10
700.2692932836483806
 20
34.3042971314011993
 30
0.0
 40
0.2291047246613083
 50
271.6483053284679272
 51
276.3803935478089784
  0
ARC
  5
3395
  8
0
 10
700.3288448224687954
 20
34.11803663876141
 30
0.0
 40
0.0216305216055767
 50
357.4349195194055255
 51
48.4563613373166788
  0
ARC
  5
3396
  8
0
 10
700.2987707069205499
 20
34.0830479375320223
 30
0.0
 40
0.0677662711059484
 50
49.0441319129181323
 51
74.7929879272899854
  0
ARC
  5
3397
  8
0
 10
700.278544292963943
 20
34.0202904312739633
 30
0.0
 40
0.1336667698514042
 50
73.4827489262761588
 51
85.4542838999904149
  0
ARC
  5
3398
  8
0
 10
700.2552874210293794
 20
33.5036065133137129
 30
0.0
 40
0.6508111565202995
 50
87.0185358555674355
 51
88.1864841793668717
  0
LINE
  5
3399
  8
0
 10
700.2013130102668583
 20
34.1170685832274714
 30
0.0
 11
700.1977045417670524
 21
34.1473326144274694
 31
0.0
  0
ARC
  5
339A
  8
0
 10
700.2796073493806261
 20
34.0794497661735818
 30
0.0
 40
0.0333124890067253
 50
96.4185212513989995
 51
134.1242982986819925
  0
ARC
  5
339B
  8
0
 10
700.2782681595336953
 20
34.1244385070635872
 30
0.0
 40
0.0303607479682646
 50
223.9623712410665917
 51
265.4948092088542921
  0
ARC
  5
339C
  8
0
 10
700.2411519187593285
 20
34.1237658887574966
 30
0.0
 40
0.0403979273134158
 50
189.542746474700607
 51
242.3722589792340045
  0
ARC
  5
339D
  8
0
 10
700.2677669871231956
 20
34.1676974750882891
 30
0.0
 40
0.0917185985503799
 50
240.3677049084409134
 51
263.2667505281572744
  0
ARC
  5
339E
  8
0
 10
700.2824733975855906
 20
34.3042971314011993
 30
0.0
 40
0.2291047246613083
 50
263.6196064521910216
 51
268.3516946715320728
  0
ARC
  5
339F
  8
0
 10
700.2229218587649484
 20
34.11803663876141
 30
0.0
 40
0.0216305216055767
 50
131.5436386626832928
 51
182.5650804805945029
  0
ARC
  5
33A0
  8
0
 10
700.252995974313535
 20
34.0830479375320223
 30
0.0
 40
0.0677662711059484
 50
105.2070120727100004
 51
130.9558680870819103
  0
ARC
  5
33A1
  8
0
 10
700.2732223882701419
 20
34.0202904312739633
 30
0.0
 40
0.1336667698514042
 50
94.5457161000095851
 51
106.5172510737237985
  0
ARC
  5
33A2
  8
0
 10
700.2964792602044781
 20
33.5036065133137129
 30
0.0
 40
0.6508111565202995
 50
91.8135158206331425
 51
92.9814641444325645
  0
ARC
  5
33A3
  8
0
 10
700.3276831952823613
 20
34.1488505053950604
 30
0.0
 40
0.0264225791564705
 50
356.7067313328250862
 51
59.7504300203475012
  0
ARC
  5
33A4
  8
0
 10
700.282120346783131
 20
34.0555397247372014
 30
0.0
 40
0.1302059839604101
 50
63.1177726979159672
 51
123.0644155290774933
  0
ARC
  5
33A5
  8
0
 10
700.2416034868716679
 20
34.1272675330183333
 30
0.0
 40
0.048267223591841
 50
129.2227147512822114
 51
155.4360758651093875
  0
LINE
  5
33A6
  8
0
 10
700.3720752688549283
 20
33.9908718029607613
 30
0.0
 11
700.3756837373548478
 21
34.0211358341607593
 31
0.0
  0
ARC
  5
33A7
  8
0
 10
700.2937809297412741
 20
33.9532529859068575
 30
0.0
 40
0.0333124890067253
 50
45.8757017013179791
 51
83.5814787486009863
  0
ARC
  5
33A8
  8
0
 10
700.2951201195882049
 20
33.9982417267968628
 30
0.0
 40
0.0303607479682646
 50
274.5051907911455942
 51
316.0376287589334083
  0
ARC
  5
33A9
  8
0
 10
700.3322363603625718
 20
33.9975691084908007
 30
0.0
 40
0.0403979273134158
 50
297.6277410207659955
 51
350.457253525299393
  0
ARC
  5
33AA
  8
0
 10
700.3056212919987047
 20
34.0415006948215577
 30
0.0
 40
0.0917185985503799
 50
276.7332494718427256
 51
299.632295091559115
  0
ARC
  5
33AB
  8
0
 10
700.2909148815363096
 20
34.1781003511344679
 30
0.0
 40
0.2291047246613083
 50
271.6483053284679272
 51
276.3803935478089784
  0
ARC
  5
33AC
  8
0
 10
700.3504664203568382
 20
33.9918398584946928
 30
0.0
 40
0.0216305216055767
 50
357.4349195194055255
 51
48.4563613373166788
  0
ARC
  5
33AD
  8
0
 10
700.3203923048082515
 20
33.9568511572653122
 30
0.0
 40
0.0677662711059484
 50
49.0441319129181323
 51
74.7929879272899854
  0
ARC
  5
33AE
  8
0
 10
700.3001658908516447
 20
33.8940936510072532
 30
0.0
 40
0.1336667698514042
 50
73.4827489262761588
 51
85.4542838999904149
  0
ARC
  5
33AF
  8
0
 10
700.2769090189173085
 20
33.3774097330469885
 30
0.0
 40
0.6508111565202995
 50
87.0185358555674355
 51
88.1864841793668717
  0
LINE
  5
33B0
  8
0
 10
700.2229346081549011
 20
33.9908718029607613
 30
0.0
 11
700.2193261396547541
 21
34.0211358341607593
 31
0.0
  0
ARC
  5
33B1
  8
0
 10
700.3012289472685552
 20
33.9532529859068575
 30
0.0
 40
0.0333124890067253
 50
96.4185212513989995
 51
134.1242982986819925
  0
ARC
  5
33B2
  8
0
 10
700.2998897574216244
 20
33.9982417267968628
 30
0.0
 40
0.0303607479682646
 50
223.9623712410665917
 51
265.4948092088542921
  0
ARC
  5
33B3
  8
0
 10
700.2627735166471439
 20
33.9975691084908007
 30
0.0
 40
0.0403979273134158
 50
189.542746474700607
 51
242.3722589792340045
  0
ARC
  5
33B4
  8
0
 10
700.2893885850108973
 20
34.0415006948215577
 30
0.0
 40
0.0917185985503799
 50
240.3677049084409134
 51
263.2667505281572744
  0
ARC
  5
33B5
  8
0
 10
700.3040949954735197
 20
34.1781003511344679
 30
0.0
 40
0.2291047246613083
 50
263.6196064521910216
 51
268.3516946715320728
  0
ARC
  5
33B6
  8
0
 10
700.2445434566529912
 20
33.9918398584946928
 30
0.0
 40
0.0216305216055767
 50
131.5436386626832928
 51
182.5650804805945029
  0
ARC
  5
33B7
  8
0
 10
700.2746175722013504
 20
33.9568511572653122
 30
0.0
 40
0.0677662711059484
 50
105.2070120727100004
 51
130.9558680870819103
  0
ARC
  5
33B8
  8
0
 10
700.2948439861578436
 20
33.8940936510072532
 30
0.0
 40
0.1336667698514042
 50
94.5457161000095851
 51
106.5172510737237985
  0
ARC
  5
33B9
  8
0
 10
700.3181008580924072
 20
33.3774097330469885
 30
0.0
 40
0.6508111565202995
 50
91.8135158206331425
 51
92.9814641444325645
  0
ARC
  5
33BA
  8
0
 10
700.3493047931704041
 20
34.0226537251283503
 30
0.0
 40
0.0264225791564705
 50
356.7067313328250862
 51
59.7504300203475012
  0
ARC
  5
33BB
  8
0
 10
700.3037419446710601
 20
33.9293429444704913
 30
0.0
 40
0.1302059839604101
 50
63.1177726979159672
 51
123.0644155290774933
  0
ARC
  5
33BC
  8
0
 10
700.2632250847595969
 20
34.0010707527516018
 30
0.0
 40
0.048267223591841
 50
129.2227147512822114
 51
155.4360758651093875
  0
LINE
  5
33BD
  8
0
 10
699.8632568295012106
 20
35.2056037968019311
 30
0.0
 11
699.8596483610012911
 21
35.2358678280019291
 31
0.0
  0
ARC
  5
33BE
  8
0
 10
699.9415511686147511
 20
35.1679849797480415
 30
0.0
 40
0.0333124890067253
 50
96.4185212513989995
 51
134.1242982986819925
  0
ARC
  5
33BF
  8
0
 10
699.9402119787679339
 20
35.2129737206380469
 30
0.0
 40
0.0303607479682646
 50
223.9623712410659948
 51
265.4948092088542921
  0
ARC
  5
33C0
  8
0
 10
699.9030957379934534
 20
35.2123011023319634
 30
0.0
 40
0.0403979273134158
 50
189.542746474700607
 51
242.3722589792340045
  0
ARC
  5
33C1
  8
0
 10
699.9297108063574342
 20
35.2562326886627488
 30
0.0
 40
0.0917185985503799
 50
240.3677049084409134
 51
263.2667505281572744
  0
ARC
  5
33C2
  8
0
 10
699.9444172168198293
 20
35.392832344975659
 30
0.0
 40
0.2291047246613083
 50
263.6196064521910216
 51
268.3516946715320728
  0
ARC
  5
33C3
  8
0
 10
699.884865677999187
 20
35.2065718523358697
 30
0.0
 40
0.0216305216055767
 50
131.5436386626832928
 51
182.5650804805945029
  0
ARC
  5
33C4
  8
0
 10
699.91493979354766
 20
35.171583151106482
 30
0.0
 40
0.0677662711059484
 50
105.2070120727100004
 51
130.9558680870819103
  0
ARC
  5
33C5
  8
0
 10
699.9351662075041531
 20
35.1088256448484231
 30
0.0
 40
0.1336667698514042
 50
94.5457161000095851
 51
106.5172510737237985
  0
ARC
  5
33C6
  8
0
 10
699.9584230794387167
 20
34.5921417268881726
 30
0.0
 40
0.6508111565202995
 50
91.8135158206331425
 51
92.9814641444325645
  0
LINE
  5
33C7
  8
0
 10
700.0123974902012378
 20
35.2056037968019311
 30
0.0
 11
700.0160059587011574
 21
35.2358678280019291
 31
0.0
  0
ARC
  5
33C8
  8
0
 10
699.93410315108747
 20
35.1679849797480415
 30
0.0
 40
0.0333124890067253
 50
45.8757017013179791
 51
83.5814787486009863
  0
ARC
  5
33C9
  8
0
 10
699.9354423409345145
 20
35.2129737206380469
 30
0.0
 40
0.0303607479682646
 50
274.5051907911455942
 51
316.0376287589334083
  0
ARC
  5
33CA
  8
0
 10
699.9725585817087676
 20
35.2123011023319634
 30
0.0
 40
0.0403979273134158
 50
297.6277410207659955
 51
350.457253525299393
  0
ARC
  5
33CB
  8
0
 10
699.9459435133450143
 20
35.2562326886627488
 30
0.0
 40
0.0917185985503799
 50
276.7332494718427256
 51
299.632295091559115
  0
ARC
  5
33CC
  8
0
 10
699.9312371028826192
 20
35.392832344975659
 30
0.0
 40
0.2291047246613083
 50
271.6483053284679272
 51
276.3803935478089784
  0
ARC
  5
33CD
  8
0
 10
699.9907886417031477
 20
35.2065718523358697
 30
0.0
 40
0.0216305216055767
 50
357.4349195194055255
 51
48.4563613373166788
  0
ARC
  5
33CE
  8
0
 10
699.9607145261546748
 20
35.171583151106482
 30
0.0
 40
0.0677662711059484
 50
49.0441319129181323
 51
74.7929879272899854
  0
ARC
  5
33CF
  8
0
 10
699.9404881121980679
 20
35.1088256448484231
 30
0.0
 40
0.1336667698514042
 50
73.4827489262761588
 51
85.4542838999904149
  0
ARC
  5
33D0
  8
0
 10
699.9172312402635043
 20
34.5921417268881726
 30
0.0
 40
0.6508111565202995
 50
87.0185358555674355
 51
88.1864841793668717
  0
ARC
  5
33D1
  8
0
 10
699.8860273051857348
 20
35.2373857189695201
 30
0.0
 40
0.0264225791564705
 50
120.2495699796525059
 51
183.2932686671749138
  0
ARC
  5
33D2
  8
0
 10
699.9315901536849651
 20
35.1440749383116611
 30
0.0
 40
0.1302059839604101
 50
56.9355844709224286
 51
116.8822273020840044
  0
ARC
  5
33D3
  8
0
 10
699.9721070135965419
 20
35.215802746592793
 30
0.0
 40
0.048267223591841
 50
24.5639241348906303
 51
50.7772852487177317
  0
LINE
  5
33D4
  8
0
 10
699.8632568295012106
 20
34.9396250865019411
 30
0.0
 11
699.8596483610012911
 21
34.969889117701932
 31
0.0
  0
ARC
  5
33D5
  8
0
 10
699.9415511686147511
 20
34.9020062694480373
 30
0.0
 40
0.0333124890067253
 50
96.4185212513989995
 51
134.1242982986819925
  0
ARC
  5
33D6
  8
0
 10
699.9402119787679339
 20
34.9469950103380427
 30
0.0
 40
0.0303607479682646
 50
223.9623712410659948
 51
265.4948092088542921
  0
ARC
  5
33D7
  8
0
 10
699.9030957379934534
 20
34.9463223920319734
 30
0.0
 40
0.0403979273134158
 50
189.542746474700607
 51
242.3722589792340045
  0
ARC
  5
33D8
  8
0
 10
699.9297108063574342
 20
34.9902539783627518
 30
0.0
 40
0.0917185985503799
 50
240.3677049084409134
 51
263.2667505281572744
  0
ARC
  5
33D9
  8
0
 10
699.9444172168198293
 20
35.1268536346756619
 30
0.0
 40
0.2291047246613083
 50
263.6196064521910216
 51
268.3516946715320728
  0
ARC
  5
33DA
  8
0
 10
699.884865677999187
 20
34.9405931420358726
 30
0.0
 40
0.0216305216055767
 50
131.5436386626832928
 51
182.5650804805945029
  0
ARC
  5
33DB
  8
0
 10
699.91493979354766
 20
34.9056044408064707
 30
0.0
 40
0.0677662711059484
 50
105.2070120727100004
 51
130.9558680870819103
  0
ARC
  5
33DC
  8
0
 10
699.9351662075041531
 20
34.8428469345484331
 30
0.0
 40
0.1336667698514042
 50
94.5457161000095851
 51
106.5172510737237985
  0
ARC
  5
33DD
  8
0
 10
699.9584230794387167
 20
34.3261630165881684
 30
0.0
 40
0.6508111565202995
 50
91.8135158206331425
 51
92.9814641444325645
  0
LINE
  5
33DE
  8
0
 10
700.0123974902012378
 20
34.9396250865019411
 30
0.0
 11
700.0160059587011574
 21
34.969889117701932
 31
0.0
  0
ARC
  5
33DF
  8
0
 10
699.93410315108747
 20
34.9020062694480373
 30
0.0
 40
0.0333124890067253
 50
45.8757017013179791
 51
83.5814787486009863
  0
ARC
  5
33E0
  8
0
 10
699.9354423409345145
 20
34.9469950103380427
 30
0.0
 40
0.0303607479682646
 50
274.5051907911455942
 51
316.0376287589334083
  0
ARC
  5
33E1
  8
0
 10
699.9725585817087676
 20
34.9463223920319734
 30
0.0
 40
0.0403979273134158
 50
297.6277410207659955
 51
350.457253525299393
  0
ARC
  5
33E2
  8
0
 10
699.9459435133450143
 20
34.9902539783627518
 30
0.0
 40
0.0917185985503799
 50
276.7332494718427256
 51
299.632295091559115
  0
ARC
  5
33E3
  8
0
 10
699.9312371028826192
 20
35.1268536346756619
 30
0.0
 40
0.2291047246613083
 50
271.6483053284679272
 51
276.3803935478089784
  0
ARC
  5
33E4
  8
0
 10
699.9907886417031477
 20
34.9405931420358726
 30
0.0
 40
0.0216305216055767
 50
357.4349195194055255
 51
48.4563613373166788
  0
ARC
  5
33E5
  8
0
 10
699.9607145261546748
 20
34.9056044408064707
 30
0.0
 40
0.0677662711059484
 50
49.0441319129181323
 51
74.7929879272899854
  0
ARC
  5
33E6
  8
0
 10
699.9404881121980679
 20
34.8428469345484331
 30
0.0
 40
0.1336667698514042
 50
73.4827489262761588
 51
85.4542838999904149
  0
ARC
  5
33E7
  8
0
 10
699.9172312402635043
 20
34.3261630165881684
 30
0.0
 40
0.6508111565202995
 50
87.0185358555674355
 51
88.1864841793668717
  0
ARC
  5
33E8
  8
0
 10
699.8860273051857348
 20
34.9714070086695301
 30
0.0
 40
0.0264225791564705
 50
120.2495699796525059
 51
183.2932686671749138
  0
ARC
  5
33E9
  8
0
 10
699.9315901536849651
 20
34.8780962280116569
 30
0.0
 40
0.1302059839604101
 50
56.9355844709224286
 51
116.8822273020840044
  0
ARC
  5
33EA
  8
0
 10
699.9721070135965419
 20
34.9498240362927817
 30
0.0
 40
0.048267223591841
 50
24.5639241348906303
 51
50.7772852487177317
  0
LINE
  5
33EB
  8
0
 10
699.8632568764511461
 20
34.7011251126019289
 30
0.0
 11
699.8596484079512265
 21
34.7313891438019269
 31
0.0
  0
ARC
  5
33EC
  8
0
 10
699.9415512155649139
 20
34.6635062955480535
 30
0.0
 40
0.0333124890067253
 50
96.4185212513989995
 51
134.1242982986819925
  0
ARC
  5
33ED
  8
0
 10
699.9402120257178694
 20
34.7084950364380518
 30
0.0
 40
0.0303607479682646
 50
223.9623712410659948
 51
265.4948092088542921
  0
ARC
  5
33EE
  8
0
 10
699.9030957849433889
 20
34.7078224181319683
 30
0.0
 40
0.0403979273134158
 50
189.542746474700607
 51
242.3722589792340045
  0
ARC
  5
33EF
  8
0
 10
699.929710853307256
 20
34.7517540044627467
 30
0.0
 40
0.0917185985503799
 50
240.3677049084409134
 51
263.2667505281572744
  0
ARC
  5
33F0
  8
0
 10
699.9444172637698784
 20
34.8883536607756497
 30
0.0
 40
0.2291047246613083
 50
263.6196064521910216
 51
268.3516946715320728
  0
ARC
  5
33F1
  8
0
 10
699.8848657249493499
 20
34.7020931681358675
 30
0.0
 40
0.0216305216055767
 50
131.5436386626832928
 51
182.5650804805945029
  0
ARC
  5
33F2
  8
0
 10
699.9149398404977092
 20
34.6671044669064798
 30
0.0
 40
0.0677662711059484
 50
105.2070120727100004
 51
130.9558680870819103
  0
ARC
  5
33F3
  8
0
 10
699.935166254454316
 20
34.604346960648428
 30
0.0
 40
0.1336667698514042
 50
94.5457161000095851
 51
106.5172510737237985
  0
ARC
  5
33F4
  8
0
 10
699.9584231263886522
 20
34.0876630426881633
 30
0.0
 40
0.6508111565202995
 50
91.8135158206331425
 51
92.9814641444325645
  0
LINE
  5
33F5
  8
0
 10
700.0123975371510596
 20
34.7011251126019289
 30
0.0
 11
700.0160060056510929
 21
34.7313891438019269
 31
0.0
  0
ARC
  5
33F6
  8
0
 10
699.9341031980376329
 20
34.6635062955480535
 30
0.0
 40
0.0333124890067253
 50
45.8757017013179791
 51
83.5814787486009863
  0
ARC
  5
33F7
  8
0
 10
699.9354423878845637
 20
34.7084950364380518
 30
0.0
 40
0.0303607479682646
 50
274.5051907911455942
 51
316.0376287589334083
  0
ARC
  5
33F8
  8
0
 10
699.9725586286589305
 20
34.7078224181319683
 30
0.0
 40
0.0403979273134158
 50
297.6277410207659955
 51
350.457253525299393
  0
ARC
  5
33F9
  8
0
 10
699.9459435602949497
 20
34.7517540044627467
 30
0.0
 40
0.0917185985503799
 50
276.7332494718427256
 51
299.632295091559115
  0
ARC
  5
33FA
  8
0
 10
699.9312371498325547
 20
34.8883536607756497
 30
0.0
 40
0.2291047246613083
 50
271.6483053284679272
 51
276.3803935478089784
  0
ARC
  5
33FB
  8
0
 10
699.9907886886531969
 20
34.7020931681358675
 30
0.0
 40
0.0216305216055767
 50
357.4349195194055255
 51
48.4563613373166788
  0
ARC
  5
33FC
  8
0
 10
699.960714573104724
 20
34.6671044669064798
 30
0.0
 40
0.0677662711059484
 50
49.0441319129181323
 51
74.7929879272899854
  0
ARC
  5
33FD
  8
0
 10
699.9404881591480034
 20
34.604346960648428
 30
0.0
 40
0.1336667698514042
 50
73.4827489262761588
 51
85.4542838999904149
  0
ARC
  5
33FE
  8
0
 10
699.9172312872135535
 20
34.0876630426881633
 30
0.0
 40
0.6508111565202995
 50
87.0185358555674355
 51
88.1864841793668717
  0
ARC
  5
33FF
  8
0
 10
699.886027352135784
 20
34.7329070347695321
 30
0.0
 40
0.0264225791564705
 50
120.2495699796525059
 51
183.2932686671749138
  0
ARC
  5
3400
  8
0
 10
699.931590200635128
 20
34.6395962541116731
 30
0.0
 40
0.1302059839604101
 50
56.9355844709224286
 51
116.8822273020840044
  0
ARC
  5
3401
  8
0
 10
699.9721070605463638
 20
34.7113240623927766
 30
0.0
 40
0.048267223591841
 50
24.5639241348906303
 51
50.7772852487177317
  0
LINE
  5
3402
  8
0
 10
699.8632568764511461
 20
34.4911212558019287
 30
0.0
 11
699.8596484079512265
 21
34.5213852870019267
 31
0.0
  0
ARC
  5
3403
  8
0
 10
699.9415512155649139
 20
34.4535024387480533
 30
0.0
 40
0.0333124890067253
 50
96.4185212513989995
 51
134.1242982986819925
  0
ARC
  5
3404
  8
0
 10
699.9402120257178694
 20
34.4984911796380516
 30
0.0
 40
0.0303607479682646
 50
223.9623712410659948
 51
265.4948092088542921
  0
ARC
  5
3405
  8
0
 10
699.9030957849433889
 20
34.4978185613319681
 30
0.0
 40
0.0403979273134158
 50
189.542746474700607
 51
242.3722589792340045
  0
ARC
  5
3406
  8
0
 10
699.929710853307256
 20
34.5417501476627535
 30
0.0
 40
0.0917185985503799
 50
240.3677049084409134
 51
263.2667505281572744
  0
ARC
  5
3407
  8
0
 10
699.9444172637698784
 20
34.6783498039756495
 30
0.0
 40
0.2291047246613083
 50
263.6196064521910216
 51
268.3516946715320728
  0
ARC
  5
3408
  8
0
 10
699.8848657249493499
 20
34.4920893113358815
 30
0.0
 40
0.0216305216055767
 50
131.5436386626832928
 51
182.5650804805945029
  0
ARC
  5
3409
  8
0
 10
699.9149398404977092
 20
34.4571006101064796
 30
0.0
 40
0.0677662711059484
 50
105.2070120727100004
 51
130.9558680870819103
  0
ARC
  5
340A
  8
0
 10
699.935166254454316
 20
34.3943431038484277
 30
0.0
 40
0.1336667698514042
 50
94.5457161000095851
 51
106.5172510737237985
  0
ARC
  5
340B
  8
0
 10
699.9584231263886522
 20
33.8776591858881631
 30
0.0
 40
0.6508111565202995
 50
91.8135158206331425
 51
92.9814641444325645
  0
LINE
  5
340C
  8
0
 10
700.0123975371510596
 20
34.4911212558019287
 30
0.0
 11
700.0160060056510929
 21
34.5213852870019267
 31
0.0
  0
ARC
  5
340D
  8
0
 10
699.9341031980376329
 20
34.4535024387480533
 30
0.0
 40
0.0333124890067253
 50
45.8757017013179791
 51
83.5814787486009863
  0
ARC
  5
340E
  8
0
 10
699.9354423878845637
 20
34.4984911796380516
 30
0.0
 40
0.0303607479682646
 50
274.5051907911455942
 51
316.0376287589334083
  0
ARC
  5
340F
  8
0
 10
699.9725586286589305
 20
34.4978185613319681
 30
0.0
 40
0.0403979273134158
 50
297.6277410207659955
 51
350.457253525299393
  0
ARC
  5
3410
  8
0
 10
699.9459435602949497
 20
34.5417501476627535
 30
0.0
 40
0.0917185985503799
 50
276.7332494718427256
 51
299.632295091559115
  0
ARC
  5
3411
  8
0
 10
699.9312371498325547
 20
34.6783498039756495
 30
0.0
 40
0.2291047246613083
 50
271.6483053284679272
 51
276.3803935478089784
  0
ARC
  5
3412
  8
0
 10
699.9907886886531969
 20
34.4920893113358815
 30
0.0
 40
0.0216305216055767
 50
357.4349195194055255
 51
48.4563613373166788
  0
ARC
  5
3413
  8
0
 10
699.960714573104724
 20
34.4571006101064796
 30
0.0
 40
0.0677662711059484
 50
49.0441319129181323
 51
74.7929879272899854
  0
ARC
  5
3414
  8
0
 10
699.9404881591480034
 20
34.3943431038484277
 30
0.0
 40
0.1336667698514042
 50
73.4827489262761588
 51
85.4542838999904149
  0
ARC
  5
3415
  8
0
 10
699.9172312872135535
 20
33.8776591858881631
 30
0.0
 40
0.6508111565202995
 50
87.0185358555674355
 51
88.1864841793668717
  0
ARC
  5
3416
  8
0
 10
699.886027352135784
 20
34.5229031779695319
 30
0.0
 40
0.0264225791564705
 50
120.2495699796525059
 51
183.2932686671749138
  0
ARC
  5
3417
  8
0
 10
699.931590200635128
 20
34.4295923973116729
 30
0.0
 40
0.1302059839604101
 50
56.9355844709224286
 51
116.8822273020840044
  0
ARC
  5
3418
  8
0
 10
699.9721070605463638
 20
34.5013202055927835
 30
0.0
 40
0.048267223591841
 50
24.5639241348906303
 51
50.7772852487177317
  0
LINE
  5
3419
  8
0
 10
699.8632568295012106
 20
34.1953911375019288
 30
0.0
 11
699.8596483610012911
 21
34.2256551687019268
 31
0.0
  0
ARC
  5
341A
  8
0
 10
699.9415511686147511
 20
34.1577723204480534
 30
0.0
 40
0.0333124890067253
 50
96.4185212513989995
 51
134.1242982986819925
  0
ARC
  5
341B
  8
0
 10
699.9402119787679339
 20
34.2027610613380517
 30
0.0
 40
0.0303607479682646
 50
223.9623712410659948
 51
265.4948092088542921
  0
ARC
  5
341C
  8
0
 10
699.9030957379934534
 20
34.2020884430319683
 30
0.0
 40
0.0403979273134158
 50
189.542746474700607
 51
242.3722589792340045
  0
ARC
  5
341D
  8
0
 10
699.9297108063574342
 20
34.2460200293627466
 30
0.0
 40
0.0917185985503799
 50
240.3677049084409134
 51
263.2667505281572744
  0
ARC
  5
341E
  8
0
 10
699.9444172168198293
 20
34.3826196856756496
 30
0.0
 40
0.2291047246613083
 50
263.6196064521910216
 51
268.3516946715320728
  0
ARC
  5
341F
  8
0
 10
699.884865677999187
 20
34.1963591930358675
 30
0.0
 40
0.0216305216055767
 50
131.5436386626832928
 51
182.5650804805945029
  0
ARC
  5
3420
  8
0
 10
699.91493979354766
 20
34.1613704918064798
 30
0.0
 40
0.0677662711059484
 50
105.2070120727100004
 51
130.9558680870819103
  0
ARC
  5
3421
  8
0
 10
699.9351662075041531
 20
34.0986129855484279
 30
0.0
 40
0.1336667698514042
 50
94.5457161000095851
 51
106.5172510737237985
  0
ARC
  5
3422
  8
0
 10
699.9584230794387167
 20
33.5819290675881632
 30
0.0
 40
0.6508111565202995
 50
91.8135158206331425
 51
92.9814641444325645
  0
LINE
  5
3423
  8
0
 10
700.0123974902012378
 20
34.1953911375019288
 30
0.0
 11
700.0160059587011574
 21
34.2256551687019268
 31
0.0
  0
ARC
  5
3424
  8
0
 10
699.93410315108747
 20
34.1577723204480534
 30
0.0
 40
0.0333124890067253
 50
45.8757017013179791
 51
83.5814787486009863
  0
ARC
  5
3425
  8
0
 10
699.9354423409345145
 20
34.2027610613380517
 30
0.0
 40
0.0303607479682646
 50
274.5051907911455942
 51
316.0376287589334083
  0
ARC
  5
3426
  8
0
 10
699.9725585817087676
 20
34.2020884430319683
 30
0.0
 40
0.0403979273134158
 50
297.6277410207659955
 51
350.457253525299393
  0
ARC
  5
3427
  8
0
 10
699.9459435133450143
 20
34.2460200293627466
 30
0.0
 40
0.0917185985503799
 50
276.7332494718427256
 51
299.632295091559115
  0
ARC
  5
3428
  8
0
 10
699.9312371028826192
 20
34.3826196856756496
 30
0.0
 40
0.2291047246613083
 50
271.6483053284679272
 51
276.3803935478089784
  0
ARC
  5
3429
  8
0
 10
699.9907886417031477
 20
34.1963591930358675
 30
0.0
 40
0.0216305216055767
 50
357.4349195194055255
 51
48.4563613373166788
  0
ARC
  5
342A
  8
0
 10
699.9607145261546748
 20
34.1613704918064798
 30
0.0
 40
0.0677662711059484
 50
49.0441319129181323
 51
74.7929879272899854
  0
ARC
  5
342B
  8
0
 10
699.9404881121980679
 20
34.0986129855484279
 30
0.0
 40
0.1336667698514042
 50
73.4827489262761588
 51
85.4542838999904149
  0
ARC
  5
342C
  8
0
 10
699.9172312402635043
 20
33.5819290675881632
 30
0.0
 40
0.6508111565202995
 50
87.0185358555674355
 51
88.1864841793668717
  0
ARC
  5
342D
  8
0
 10
699.8860273051857348
 20
34.2271730596695321
 30
0.0
 40
0.0264225791564705
 50
120.2495699796525059
 51
183.2932686671749138
  0
ARC
  5
342E
  8
0
 10
699.9315901536849651
 20
34.133862279011673
 30
0.0
 40
0.1302059839604101
 50
56.9355844709224286
 51
116.8822273020840044
  0
ARC
  5
342F
  8
0
 10
699.9721070135965419
 20
34.2055900872927907
 30
0.0
 40
0.048267223591841
 50
24.5639241348906303
 51
50.7772852487177317
  0
LINE
  5
3430
  8
0
 10
699.8632568764511461
 20
34.0542154789019165
 30
0.0
 11
699.8596484079512265
 21
34.0844795101019287
 31
0.0
  0
ARC
  5
3431
  8
0
 10
699.9415512155649139
 20
34.0165966618480411
 30
0.0
 40
0.0333124890067253
 50
96.4185212513989995
 51
134.1242982986819925
  0
ARC
  5
3432
  8
0
 10
699.9402120257178694
 20
34.0615854027380465
 30
0.0
 40
0.0303607479682646
 50
223.9623712410659948
 51
265.4948092088542921
  0
ARC
  5
3433
  8
0
 10
699.9030957849433889
 20
34.060912784431963
 30
0.0
 40
0.0403979273134158
 50
189.542746474700607
 51
242.3722589792340045
  0
ARC
  5
3434
  8
0
 10
699.929710853307256
 20
34.1048443707627484
 30
0.0
 40
0.0917185985503799
 50
240.3677049084409134
 51
263.2667505281572744
  0
ARC
  5
3435
  8
0
 10
699.9444172637698784
 20
34.2414440270756586
 30
0.0
 40
0.2291047246613083
 50
263.6196064521910216
 51
268.3516946715320728
  0
ARC
  5
3436
  8
0
 10
699.8848657249493499
 20
34.0551835344358693
 30
0.0
 40
0.0216305216055767
 50
131.5436386626832928
 51
182.5650804805945029
  0
ARC
  5
3437
  8
0
 10
699.9149398404977092
 20
34.0201948332064816
 30
0.0
 40
0.0677662711059484
 50
105.2070120727100004
 51
130.9558680870819103
  0
ARC
  5
3438
  8
0
 10
699.935166254454316
 20
33.9574373269484227
 30
0.0
 40
0.1336667698514042
 50
94.5457161000095851
 51
106.5172510737237985
  0
ARC
  5
3439
  8
0
 10
699.9584231263886522
 20
33.4407534089881722
 30
0.0
 40
0.6508111565202995
 50
91.8135158206331425
 51
92.9814641444325645
  0
LINE
  5
343A
  8
0
 10
700.0123975371510596
 20
34.0542154789019165
 30
0.0
 11
700.0160060056510929
 21
34.0844795101019287
 31
0.0
  0
ARC
  5
343B
  8
0
 10
699.9341031980376329
 20
34.0165966618480411
 30
0.0
 40
0.0333124890067253
 50
45.8757017013179791
 51
83.5814787486009863
  0
ARC
  5
343C
  8
0
 10
699.9354423878845637
 20
34.0615854027380465
 30
0.0
 40
0.0303607479682646
 50
274.5051907911455942
 51
316.0376287589334083
  0
ARC
  5
343D
  8
0
 10
699.9725586286589305
 20
34.060912784431963
 30
0.0
 40
0.0403979273134158
 50
297.6277410207659955
 51
350.457253525299393
  0
ARC
  5
343E
  8
0
 10
699.9459435602949497
 20
34.1048443707627484
 30
0.0
 40
0.0917185985503799
 50
276.7332494718427256
 51
299.632295091559115
  0
ARC
  5
343F
  8
0
 10
699.9312371498325547
 20
34.2414440270756586
 30
0.0
 40
0.2291047246613083
 50
271.6483053284679272
 51
276.3803935478089784
  0
ARC
  5
3440
  8
0
 10
699.9907886886531969
 20
34.0551835344358693
 30
0.0
 40
0.0216305216055767
 50
357.4349195194055255
 51
48.4563613373166788
  0
ARC
  5
3441
  8
0
 10
699.960714573104724
 20
34.0201948332064816
 30
0.0
 40
0.0677662711059484
 50
49.0441319129181323
 51
74.7929879272899854
  0
ARC
  5
3442
  8
0
 10
699.9404881591480034
 20
33.9574373269484227
 30
0.0
 40
0.1336667698514042
 50
73.4827489262761588
 51
85.4542838999904149
  0
ARC
  5
3443
  8
0
 10
699.9172312872135535
 20
33.4407534089881722
 30
0.0
 40
0.6508111565202995
 50
87.0185358555674355
 51
88.1864841793668717
  0
ARC
  5
3444
  8
0
 10
699.886027352135784
 20
34.0859974010695197
 30
0.0
 40
0.0264225791564705
 50
120.2495699796525059
 51
183.2932686671749138
  0
ARC
  5
3445
  8
0
 10
699.931590200635128
 20
33.9926866204116607
 30
0.0
 40
0.1302059839604101
 50
56.9355844709224286
 51
116.8822273020840044
  0
ARC
  5
3446
  8
0
 10
699.9721070605463638
 20
34.0644144286927926
 30
0.0
 40
0.048267223591841
 50
24.5639241348906303
 51
50.7772852487177317
  0
LINE
  5
3447
  8
0
 10
699.8632568764511461
 20
33.9415359373019214
 30
0.0
 11
699.8596484079512265
 21
33.9717999685019265
 31
0.0
  0
ARC
  5
3448
  8
0
 10
699.9415512155649139
 20
33.9039171202480389
 30
0.0
 40
0.0333124890067253
 50
96.4185212513989995
 51
134.1242982986819925
  0
ARC
  5
3449
  8
0
 10
699.9402120257178694
 20
33.9489058611380514
 30
0.0
 40
0.0303607479682646
 50
223.9623712410659948
 51
265.4948092088542921
  0
ARC
  5
344A
  8
0
 10
699.9030957849433889
 20
33.9482332428319822
 30
0.0
 40
0.0403979273134158
 50
189.542746474700607
 51
242.3722589792340045
  0
ARC
  5
344B
  8
0
 10
699.929710853307256
 20
33.9921648291627534
 30
0.0
 40
0.0917185985503799
 50
240.3677049084409134
 51
263.2667505281572744
  0
ARC
  5
344C
  8
0
 10
699.9444172637698784
 20
34.1287644854756635
 30
0.0
 40
0.2291047246613083
 50
263.6196064521910216
 51
268.3516946715320728
  0
ARC
  5
344D
  8
0
 10
699.8848657249493499
 20
33.9425039928358672
 30
0.0
 40
0.0216305216055767
 50
131.5436386626832928
 51
182.5650804805945029
  0
ARC
  5
344E
  8
0
 10
699.9149398404977092
 20
33.9075152916064795
 30
0.0
 40
0.0677662711059484
 50
105.2070120727100004
 51
130.9558680870819103
  0
ARC
  5
344F
  8
0
 10
699.935166254454316
 20
33.8447577853484418
 30
0.0
 40
0.1336667698514042
 50
94.5457161000095851
 51
106.5172510737237985
  0
ARC
  5
3450
  8
0
 10
699.9584231263886522
 20
33.32807386738817
 30
0.0
 40
0.6508111565202995
 50
91.8135158206331425
 51
92.9814641444325645
  0
LINE
  5
3451
  8
0
 10
700.0123975371510596
 20
33.9415359373019214
 30
0.0
 11
700.0160060056510929
 21
33.9717999685019265
 31
0.0
  0
ARC
  5
3452
  8
0
 10
699.9341031980376329
 20
33.9039171202480389
 30
0.0
 40
0.0333124890067253
 50
45.8757017013179791
 51
83.5814787486009863
  0
ARC
  5
3453
  8
0
 10
699.9354423878845637
 20
33.9489058611380514
 30
0.0
 40
0.0303607479682646
 50
274.5051907911455942
 51
316.0376287589334083
  0
ARC
  5
3454
  8
0
 10
699.9725586286589305
 20
33.9482332428319822
 30
0.0
 40
0.0403979273134158
 50
297.6277410207659955
 51
350.457253525299393
  0
ARC
  5
3455
  8
0
 10
699.9459435602949497
 20
33.9921648291627534
 30
0.0
 40
0.0917185985503799
 50
276.7332494718427256
 51
299.632295091559115
  0
ARC
  5
3456
  8
0
 10
699.9312371498325547
 20
34.1287644854756635
 30
0.0
 40
0.2291047246613083
 50
271.6483053284679272
 51
276.3803935478089784
  0
ARC
  5
3457
  8
0
 10
699.9907886886531969
 20
33.9425039928358672
 30
0.0
 40
0.0216305216055767
 50
357.4349195194055255
 51
48.4563613373166788
  0
ARC
  5
3458
  8
0
 10
699.960714573104724
 20
33.9075152916064795
 30
0.0
 40
0.0677662711059484
 50
49.0441319129181323
 51
74.7929879272899854
  0
ARC
  5
3459
  8
0
 10
699.9404881591480034
 20
33.8447577853484418
 30
0.0
 40
0.1336667698514042
 50
73.4827489262761588
 51
85.4542838999904149
  0
ARC
  5
345A
  8
0
 10
699.9172312872135535
 20
33.32807386738817
 30
0.0
 40
0.6508111565202995
 50
87.0185358555674355
 51
88.1864841793668717
  0
ARC
  5
345B
  8
0
 10
699.886027352135784
 20
33.9733178594695318
 30
0.0
 40
0.0264225791564705
 50
120.2495699796525059
 51
183.2932686671749138
  0
ARC
  5
345C
  8
0
 10
699.931590200635128
 20
33.8800070788116585
 30
0.0
 40
0.1302059839604101
 50
56.9355844709224286
 51
116.8822273020840044
  0
ARC
  5
345D
  8
0
 10
699.9721070605463638
 20
33.9517348870927904
 30
0.0
 40
0.048267223591841
 50
24.5639241348906303
 51
50.7772852487177317
  0
LINE
  5
345E
  8
0
 10
699.8632568295012106
 20
33.8563351321019326
 30
0.0
 11
699.8596483610012911
 21
33.8865991633019306
 31
0.0
  0
ARC
  5
345F
  8
0
 10
699.9415511686147511
 20
33.818716315048043
 30
0.0
 40
0.0333124890067253
 50
96.4185212513989995
 51
134.1242982986819925
  0
ARC
  5
3460
  8
0
 10
699.9402119787679339
 20
33.8637050559380413
 30
0.0
 40
0.0303607479682646
 50
223.9623712410659948
 51
265.4948092088542921
  0
ARC
  5
3461
  8
0
 10
699.9030957379934534
 20
33.863032437631972
 30
0.0
 40
0.0403979273134158
 50
189.542746474700607
 51
242.3722589792340045
  0
ARC
  5
3462
  8
0
 10
699.9297108063574342
 20
33.9069640239627503
 30
0.0
 40
0.0917185985503799
 50
240.3677049084409134
 51
263.2667505281572744
  0
ARC
  5
3463
  8
0
 10
699.953629050555719
 20
34.1448361658163222
 30
0.0
 40
0.330780292636093
 50
263.9832752147547126
 51
267.2618490726047185
  0
ARC
  5
3464
  8
0
 10
699.884865677999187
 20
33.8573031876358712
 30
0.0
 40
0.0216305216055767
 50
131.5436386626832928
 51
182.5650804805945029
  0
ARC
  5
3465
  8
0
 10
699.91493979354766
 20
33.8223144864064693
 30
0.0
 40
0.0677662711059484
 50
105.2070120727100004
 51
130.9558680870819103
  0
ARC
  5
3466
  8
0
 10
699.9351662075041531
 20
33.7595569801484316
 30
0.0
 40
0.1336667698514042
 50
94.5457161000095851
 51
106.5172510737237985
  0
ARC
  5
3467
  8
0
 10
699.9584230794387167
 20
33.242873062188167
 30
0.0
 40
0.6508111565202995
 50
91.8135158206331425
 51
92.9814641444325645
  0
LINE
  5
3468
  8
0
 10
700.0123974902012378
 20
33.8563351321019326
 30
0.0
 11
700.0160059587011574
 21
33.8865991633019306
 31
0.0
  0
ARC
  5
3469
  8
0
 10
699.93410315108747
 20
33.818716315048043
 30
0.0
 40
0.0333124890067253
 50
45.8757017013179791
 51
83.5814787486009863
  0
ARC
  5
346A
  8
0
 10
699.9354423409345145
 20
33.8637050559380413
 30
0.0
 40
0.0303607479682646
 50
274.5051907911455942
 51
316.0376287589334083
  0
ARC
  5
346B
  8
0
 10
699.9725585817087676
 20
33.863032437631972
 30
0.0
 40
0.0403979273134158
 50
297.6277410207659955
 51
350.457253525299393
  0
ARC
  5
346C
  8
0
 10
699.9459435133450143
 20
33.9069640239627503
 30
0.0
 40
0.0917185985503799
 50
276.7332494718427256
 51
299.632295091559115
  0
ARC
  5
346D
  8
0
 10
699.9220252691467294
 20
34.1448361658162867
 30
0.0
 40
0.3307802926360718
 50
272.7381509273952815
 51
276.0167247852454011
  0
ARC
  5
346E
  8
0
 10
699.9907886417031477
 20
33.8573031876358712
 30
0.0
 40
0.0216305216055767
 50
357.4349195194055255
 51
48.4563613373166788
  0
ARC
  5
346F
  8
0
 10
699.9607145261546748
 20
33.8223144864064693
 30
0.0
 40
0.0677662711059484
 50
49.0441319129181323
 51
74.7929879272899854
  0
ARC
  5
3470
  8
0
 10
699.9404881121980679
 20
33.7595569801484316
 30
0.0
 40
0.1336667698514042
 50
73.4827489262761588
 51
85.4542838999904149
  0
ARC
  5
3471
  8
0
 10
699.9172312402635043
 20
33.242873062188167
 30
0.0
 40
0.6508111565202995
 50
87.0185358555674355
 51
88.1864841793668717
  0
ARC
  5
3472
  8
0
 10
699.8860273051857348
 20
33.8881170542695287
 30
0.0
 40
0.0264225791564705
 50
120.2495699796525059
 51
183.2932686671749138
  0
ARC
  5
3473
  8
0
 10
699.9315901536849651
 20
33.7948062736116697
 30
0.0
 40
0.1302059839604101
 50
56.9355844709224286
 51
63.6031582535810927
  0
ARC
  5
3474
  8
0
 10
699.9315901536849651
 20
33.7948062736116697
 30
0.0
 40
0.1302059839604101
 50
113.0261716263273968
 51
116.8822273020840044
  0
ARC
  5
3475
  8
0
 10
699.9721070135965419
 20
33.8665340818927803
 30
0.0
 40
0.048267223591841
 50
24.5639241348906303
 51
50.7772852487177317
  0
ARC
  5
3476
  8
0
 10
712.8024733205644452
 20
28.6921315593867803
 30
0.0
 40
13.1398671073854896
 50
180.1953439675060054
 51
191.7652902640589048
  0
ARC
  5
3477
  8
0
 10
709.4538617778262051
 20
28.1035183749306192
 30
0.0
 40
9.7421688600103522
 50
192.3919163016443008
 51
205.7996328129719075
  0
ARC
  5
3478
  8
0
 10
696.6867671608641785
 20
22.2602653377287396
 30
0.0
 40
4.3056232817347011
 50
1.7222562408971009
 51
21.8608441018142408
  0
ARC
  5
3479
  8
0
 10
628.3352642290972199
 20
19.8240341209700688
 30
0.0
 40
72.7004665436542581
 50
0.256144984987507
 51
2.0224157206173281
  0
ARC
  5
347A
  8
0
 10
668.3801571770850387
 20
17.8933493754271105
 30
0.0
 40
32.732662670871683
 50
0.0788262595505944
 51
3.9515391710741108
  0
ARC
  5
347B
  8
0
 10
699.202168714885147
 20
17.9898721201613405
 30
0.0
 40
1.9113138379618471
 50
333.7623097281004902
 51
358.4562920811276854
  0
ARC
  5
347C
  8
0
 10
700.6328355516814099
 20
17.283709373045351
 30
0.0
 40
0.3158614325865679
 50
282.8721349098419751
 51
333.9279480513562248
  0
ARC
  5
347D
  8
0
 10
700.6962417785830439
 20
17.4871577155688485
 30
0.0
 40
0.5114194318549073
 50
234.6831445448135867
 51
270.7797870921452272
  0
ARC
  5
347E
  8
0
 10
700.8953248455009089
 20
17.8217421059856918
 30
0.0
 40
0.9000521307355954
 50
202.0300204213407937
 51
236.6554858337682958
  0
ARC
  5
347F
  8
0
 10
701.1158124551092214
 20
17.8659279458772708
 30
0.0
 40
1.121792084836895
 50
167.9899037256224972
 51
199.8974697879469034
  0
ARC
  5
3480
  8
0
 10
710.9160298138539247
 20
16.1830300961399587
 30
0.0
 40
11.0646651648325403
 50
168.1484118408619963
 51
170.0264687200254912
  0
ARC
  5
3481
  8
0
 10
704.8250690981919888
 20
17.4874768429718799
 30
0.0
 40
5.3920889226350566
 50
166.4304211477628996
 51
176.6768809050929008
  0
ARC
  5
3482
  8
0
 10
700.9066136926818444
 20
17.8293917904613402
 30
0.0
 40
1.4648608711195441
 50
181.1481546175592996
 51
228.5970455980881013
  0
ARC
  5
3483
  8
0
 10
700.7618077890240329
 20
17.644068340602999
 30
0.0
 40
1.2301656346585059
 50
227.9473854415869027
 51
259.4418451038911826
  0
ARC
  5
3484
  8
0
 10
700.6938355795169855
 20
17.4487862183634412
 30
0.0
 40
1.0262044906316701
 50
261.1751115154634135
 51
268.85492928013241
  0
ARC
  5
3485
  8
0
 10
700.6422736604944248
 20
17.3802624332686086
 30
0.0
 40
0.9579792424589166
 50
271.8576536305935178
 51
288.6435221034413985
  0
ARC
  5
3486
  8
0
 10
700.3977401496339326
 20
17.5286809639777985
 30
0.0
 40
1.1911195313942959
 50
297.5423999142705043
 51
347.575992754746494
  0
ARC
  5
3487
  8
0
 10
696.06007107855703
 20
18.4017977930618386
 30
0.0
 40
5.6156341365534388
 50
348.3979204691660243
 51
359.1837170125319858
  0
ARC
  5
3488
  8
0
 10
696.06007107855703
 20
18.4017977930618386
 30
0.0
 40
5.6156341365534388
 50
0.8162829874672347
 51
3.7471680047900251
  0
ARC
  5
3489
  8
0
 10
750.2289493493146892
 20
22.1709375542129088
 30
0.0
 40
48.684268426051851
 50
179.8030952791098969
 51
184.0071892422637916
  0
ARC
  5
348A
  8
0
 10
696.6618879319629514
 20
22.2563328673476413
 30
0.0
 40
4.8837674985924977
 50
0.9610556755655778
 51
24.1779164295416713
  0
ARC
  5
348B
  8
0
 10
708.3568796710369497
 20
27.7957253417271311
 30
0.0
 40
8.0584039285742737
 50
187.9517501787354945
 51
206.0519766847907874
  0
ARC
  5
348C
  8
0
 10
712.6362799153049536
 20
28.6793901552058514
 30
0.0
 40
12.4221305111032496
 50
180.1463111496094029
 51
189.2579083187320919
  0
LINE
  5
348D
  8
0
 10
701.6751353163798512
 20
18.4818000476991493
 30
0.0
 11
701.6751353163798512
 21
18.3217955384245208
 31
0.0
  0
ENDSEC
  0
EOF
