  0
SECTION
  2
HEADER
  9
$ACADVER
  1
AC1009
  9
$INSBASE
 10
4522.5089401546056251
 20
139.6915810119039065
 30
0.0
  9
$EXTMIN
 10
4517.2237581510853488
 20
116.0837212960822029
 30
-0.0000000000000058
  9
$EXTMAX
 10
4528.9187415125561529
 20
139.697398980371986
 30
0.0000000000000104
  9
$LIMMIN
 10
0.0
 20
0.0
  9
$LIMMAX
 10
11.6929133858000007
 20
8.2677165353999982
  9
$ORTHOMODE
 70
     0
  9
$REGENMODE
 70
     1
  9
$FILLMODE
 70
     1
  9
$QTEXTMODE
 70
     0
  9
$MIRRTEXT
 70
     0
  9
$DRAGMODE
 70
     2
  9
$LTSCALE
 40
0.6431102362
  9
$OSMODE
 70
  4095
  9
$ATTMODE
 70
     1
  9
$TEXTSIZE
 40
0.2
  9
$TRACEWID
 40
0.05
  9
$TEXTSTYLE
  7
STANDARD
  9
$CLAYER
  8
0
  9
$CELTYPE
  6
BYLAYER
  9
$CECOLOR
 62
   256
  9
$DIMSCALE
 40
1.0
  9
$DIMASZ
 40
0.1875
  9
$DIMEXO
 40
0.0625
  9
$DIMDLI
 40
0.4443307087
  9
$DIMRND
 40
0.0
  9
$DIMDLE
 40
0.0
  9
$DIMEXE
 40
0.125
  9
$DIMTP
 40
0.01
  9
$DIMTM
 40
0.01
  9
$DIMTXT
 40
2.0
  9
$DIMCEN
 40
0.1052362205
  9
$DIMTSZ
 40
0.0
  9
$DIMTOL
 70
     1
  9
$DIMLIM
 70
     0
  9
$DIMTIH
 70
     1
  9
$DIMTOH
 70
     1
  9
$DIMSE1
 70
     0
  9
$DIMSE2
 70
     0
  9
$DIMTAD
 70
     0
  9
$DIMZIN
 70
     0
  9
$DIMBLK
  1

  9
$DIMASO
 70
     1
  9
$DIMSHO
 70
     1
  9
$DIMPOST
  1
\X
  9
$DIMAPOST
  1

  9
$DIMALT
 70
     1
  9
$DIMALTD
 70
     2
  9
$DIMALTF
 40
25.3999999999999986
  9
$DIMLFAC
 40
1.0
  9
$DIMTOFL
 70
     0
  9
$DIMTVP
 40
0.0
  9
$DIMTIX
 70
     0
  9
$DIMSOXD
 70
     0
  9
$DIMSAH
 70
     0
  9
$DIMBLK1
  1

  9
$DIMBLK2
  1

  9
$DIMSTYLE
  2
STANDARD
  9
$DIMCLRD
 70
     0
  9
$DIMCLRE
 70
     0
  9
$DIMCLRT
 70
     0
  9
$DIMTFAC
 40
1.0
  9
$DIMGAP
 40
0.09
  9
$LUNITS
 70
     2
  9
$LUPREC
 70
     4
  9
$SKETCHINC
 40
0.1
  9
$FILLETRAD
 40
0.0
  9
$AUNITS
 70
     0
  9
$AUPREC
 70
     0
  9
$MENU
  1
.
  9
$ELEVATION
 40
0.0
  9
$PELEVATION
 40
0.0
  9
$THICKNESS
 40
0.0
  9
$LIMCHECK
 70
     0
  9
$BLIPMODE
 70
     0
  9
$CHAMFERA
 40
0.0
  9
$CHAMFERB
 40
0.0
  9
$SKPOLY
 70
     0
  9
$TDCREATE
 40
2458060.468368056230247
  9
$TDUPDATE
 40
2459506.7753240740858018
  9
$TDINDWG
 40
0.4052616898
  9
$TDUSRTIMER
 40
0.4052616898
  9
$USRTIMER
 70
     1
  9
$ANGBASE
 50
0.0
  9
$ANGDIR
 70
     0
  9
$PDMODE
 70
     0
  9
$PDSIZE
 40
0.3125
  9
$PLINEWID
 40
0.0
  9
$COORDS
 70
     1
  9
$SPLFRAME
 70
     0
  9
$SPLINETYPE
 70
     6
  9
$SPLINESEGS
 70
     8
  9
$ATTDIA
 70
     1
  9
$ATTREQ
 70
     1
  9
$HANDLING
 70
     1
  9
$HANDSEED
  5
C02D
  9
$SURFTAB1
 70
     6
  9
$SURFTAB2
 70
     6
  9
$SURFTYPE
 70
     6
  9
$SURFU
 70
     6
  9
$SURFV
 70
     6
  9
$UCSNAME
  2

  9
$UCSORG
 10
0.0
 20
0.0
 30
0.0
  9
$UCSXDIR
 10
1.0
 20
0.0
 30
0.0
  9
$UCSYDIR
 10
0.0
 20
1.0
 30
0.0
  9
$PUCSNAME
  2

  9
$PUCSORG
 10
0.0
 20
0.0
 30
0.0
  9
$PUCSXDIR
 10
1.0
 20
0.0
 30
0.0
  9
$PUCSYDIR
 10
0.0
 20
1.0
 30
0.0
  9
$USERI1
 70
     0
  9
$USERI2
 70
     0
  9
$USERI3
 70
     0
  9
$USERI4
 70
     0
  9
$USERI5
 70
     0
  9
$USERR1
 40
0.0
  9
$USERR2
 40
0.0
  9
$USERR3
 40
0.0
  9
$USERR4
 40
0.0
  9
$USERR5
 40
0.0
  9
$WORLDVIEW
 70
     1
  9
$SHADEDGE
 70
     3
  9
$SHADEDIF
 70
    70
  9
$TILEMODE
 70
     1
  9
$MAXACTVP
 70
    64
  9
$PLIMCHECK
 70
     0
  9
$PEXTMIN
 10
1.0000000000000000E+20
 20
1.0000000000000000E+20
 30
1.0000000000000000E+20
  9
$PEXTMAX
 10
-1.0000000000000000E+20
 20
-1.0000000000000000E+20
 30
-1.0000000000000000E+20
  9
$PLIMMIN
 10
0.0
 20
0.0
  9
$PLIMMAX
 10
12.0
 20
9.0
  9
$UNITMODE
 70
     0
  9
$VISRETAIN
 70
     1
  9
$PLINEGEN
 70
     0
  9
$PSLTSCALE
 70
     1
  0
ENDSEC
  0
SECTION
  2
TABLES
  0
TABLE
  2
VPORT
 70
     1
  0
VPORT
  2
*ACTIVE
 70
     0
 10
0.0
 20
0.0
 11
1.0
 21
1.0
 12
719.5271824490082508
 22
1.8952979414771809
 13
0.0
 23
0.0
 14
1.0
 24
1.0
 15
0.0
 25
0.0
 16
0.0
 26
0.0
 36
17.1152628219792007
 17
3803.5440673828129547
 27
125.9952621967499056
 37
0.0
 40
23.8260945750030189
 41
2.8393393393393378
 42
50.0
 43
0.0
 44
0.0
 50
0.0
 51
0.0
 71
     0
 72
   100
 73
     1
 74
     1
 75
     0
 76
     0
 77
     0
 78
     0
  0
ENDTAB
  0
TABLE
  2
LTYPE
 70
     2
  0
LTYPE
  2
CONTINUOUS
 70
     0
  3
Solid line
 72
    65
 73
     0
 40
0.0
  0
LTYPE
  2
PHANTOM2
 70
     0
  3
___ _ _ ___ _ _ ___ _ _ ___ _ _
 72
    65
 73
     6
 40
1.25
 49
0.625
 49
-0.125
 49
0.125
 49
-0.125
 49
0.125
 49
-0.125
  0
ENDTAB
  0
TABLE
  2
LAYER
 70
     2
  0
LAYER
  2
0
 70
     0
 62
   255
  6
CONTINUOUS
  0
LAYER
  2
DEFPOINTS
 70
     0
 62
     7
  6
CONTINUOUS
  0
ENDTAB
  0
TABLE
  2
STYLE
 70
     1
  0
STYLE
  2
STANDARD
 70
     0
 40
0.0
 41
0.8
 50
0.0
 71
     0
 42
0.2
  3
txt
  4

  0
ENDTAB
  0
TABLE
  2
VIEW
 70
     0
  0
ENDTAB
  0
TABLE
  2
UCS
 70
     0
  0
ENDTAB
  0
TABLE
  2
APPID
 70
     9
  0
APPID
  2
ACAD
 70
     0
  0
APPID
  2
ACAD_MLEADERVER
 70
     0
  0
APPID
  2
ACAD_EXEMPT_FROM_CAD_STANDARDS
 70
     0
  0
APPID
  2
ACAD_NAV_VCDISPLAY
 70
     0
  0
APPID
  2
ACAECLAYERSTANDARD
 70
     0
  0
APPID
  2
ACCMTRANSPARENCY
 70
     0
  0
APPID
  2
ACAD_DSTYLE_DIMJAG
 70
     0
  0
APPID
  2
ACAD_DSTYLE_DIMTALN
 70
     0
  0
APPID
  2
ACDBATTR
 70
     0
  0
ENDTAB
  0
TABLE
  2
DIMSTYLE
 70
     1
  0
DIMSTYLE
  2
STANDARD
 70
     0
  3

  4

  5

  6

  7

 40
1.0
 41
0.1875
 42
0.0625
 43
0.38
 44
0.125
 45
0.0
 46
0.0
 47
0.01
 48
0.01
140
0.15625
141
0.09
142
0.0
143
25.3999999999999986
144
1.0
145
0.0
146
1.0
147
0.09
 71
     1
 72
     0
 73
     1
 74
     1
 75
     0
 76
     0
 77
     0
 78
     4
170
     0
171
     2
172
     0
173
     0
174
     0
175
     0
176
     0
177
     0
178
     0
  0
ENDTAB
  0
ENDSEC
  0
SECTION
  2
BLOCKS
  0
BLOCK
  8
0
  2
$MODEL_SPACE
 70
     0
 10
0.0
 20
0.0
 30
0.0
  3
$MODEL_SPACE
  1

  0
ENDBLK
  5
21
  8
0
  0
BLOCK
 67
     1
  8
0
  2
$PAPER_SPACE
 70
     0
 10
0.0
 20
0.0
 30
0.0
  3
$PAPER_SPACE
  1

  0
ENDBLK
  5
1D
 67
     1
  8
0
  0
ENDSEC
  0
SECTION
  2
ENTITIES
  0
ATTDEF
  5
3930
  8
DEFPOINTS
 10
4522.5042142711708948
 20
139.6884877917692052
 30
0.0
 40
0.001
  1
K-26787T-4
  3

  2
MODELNUMBER
 70
     0
1001
ACDBATTR
1070
     0
1070
     1
  0
ATTDEF
  5
3931
  8
DEFPOINTS
 10
4522.5042142711708948
 20
139.6868211251025116
 30
0.0
 40
0.001
  1
ACCLIV
  3

  2
TRADENAME
 70
     0
1001
ACDBATTR
1070
     0
1070
     1
  0
ATTDEF
  5
3932
  8
DEFPOINTS
 10
4522.5042142711708948
 20
139.6851544584357896
 30
0.0
 40
0.001
  1
BATH AND SHOWER FAUCET
  3

  2
PRODUCT
 70
     0
1001
ACDBATTR
1070
     0
1070
     1
  0
LINE
  5
BE1B
  8
0
 10
4527.6443648179210868
 20
136.2231910174780865
 30
0.0
 11
4527.6499141683352718
 21
135.4299231945493887
 31
0.0
  0
ARC
  5
BE1C
  8
0
 10
4525.6716901215486359
 20
133.823700966633595
 30
0.0
 40
3.365378591641317
 50
73.0595708148432834
 51
86.8686894785264343
  0
ARC
  5
BE1D
  8
0
 10
4526.1934952947349302
 20
135.1908826063670972
 30
0.0
 40
1.908143397306217
 50
50.0492067585217484
 51
76.0876234205796891
  0
ARC
  5
BE1E
  8
0
 10
4527.0178123715168113
 20
136.169181406003986
 30
0.0
 40
0.6288759863647224
 50
4.926789482516722
 51
50.388481234248772
  0
ARC
  5
BE1F
  8
0
 10
4526.111999378256769
 20
136.5945214887645136
 30
0.0
 40
2.046018242376149
 50
281.0670476314743951
 51
310.2557967986411995
  0
ARC
  5
BE20
  8
0
 10
4527.016195322643398
 20
135.5173964974866863
 30
0.0
 40
0.6397274060971156
 50
310.7920049433719782
 51
352.1410255637940168
  0
ARC
  5
BE21
  8
0
 10
4525.877698731575947
 20
137.9504691088660024
 30
0.0
 40
2.684500414906271
 50
278.2382305410866934
 51
300.975555974380427
  0
ARC
  5
BE22
  8
0
 10
4526.851681541801554
 20
136.3383194612706006
 30
0.0
 40
0.8010002089941187
 50
300.5927710111071178
 51
351.7362073597910808
  0
LINE
  5
BE23
  8
0
 10
4523.3293502959913894
 20
136.2231910174780865
 30
0.0
 11
4523.3238000785431723
 21
135.4299231945493887
 31
0.0
  0
ARC
  5
BE24
  8
0
 10
4525.2980182282199166
 20
133.8150762329806867
 30
0.0
 40
3.37246757333001
 50
93.3475167439004849
 51
106.8326159483216031
  0
ARC
  5
BE25
  8
0
 10
4524.7802198191766365
 20
135.1908826063670972
 30
0.0
 40
1.908143397306217
 50
103.9123765794202967
 51
129.950793241478209
  0
ARC
  5
BE26
  8
0
 10
4523.9559027423947555
 20
136.169181406003986
 30
0.0
 40
0.6288759863647224
 50
129.6115187657512138
 51
175.0732105174824085
  0
ARC
  5
BE27
  8
0
 10
4524.8617157356557072
 20
136.5945214887645136
 30
0.0
 40
2.046018242376149
 50
229.7442032013588005
 51
258.9329523685256049
  0
ARC
  5
BE28
  8
0
 10
4523.9575250688576489
 20
135.5174007515153107
 30
0.0
 40
0.6397340746924595
 50
187.8592766077858016
 51
229.2078861163402053
  0
ARC
  5
BE29
  8
0
 10
4525.0960163823347102
 20
137.9504691088660024
 30
0.0
 40
2.684500414906271
 50
239.0244440256196015
 51
261.7617694589133066
  0
ARC
  5
BE2A
  8
0
 10
4524.1220335721100128
 20
136.3383194612706006
 30
0.0
 40
0.8010002089941187
 50
188.2637926402072992
 51
239.4072289888929106
  0
ARC
  5
BE2B
  8
0
 10
4525.4868575569562381
 20
139.8061667330973989
 30
0.0
 40
4.578648809753151
 50
260.2486092431868201
 51
279.7513907568132936
  0
ARC
  5
BE2C
  8
0
 10
4525.4868575569562381
 20
138.9825809411277078
 30
0.0
 40
4.512334915559574
 50
256.9630395638620257
 51
283.0369604361379743
  0
ARC
  5
BE2D
  8
0
 10
4525.4845344582217876
 20
136.8461590607921892
 30
0.0
 40
0.5018022586984385
 50
42.3272811337949335
 51
137.5798343973804947
  0
ARC
  5
BE2E
  8
0
 10
4525.1471287279100579
 20
137.1682282585923076
 30
0.0
 40
0.0338803496105067
 50
91.2210460444837139
 51
148.7232898545813953
  0
ARC
  5
BE2F
  8
0
 10
4525.0779157587267036
 20
137.3178394899574926
 30
0.0
 40
0.1380101497128975
 50
279.6680966481035853
 51
285.1976282561611811
  0
ARC
  5
BE30
  8
0
 10
4525.1107749427628733
 20
137.2040391551865923
 30
0.0
 40
0.0196654737043577
 50
279.7197956040521944
 51
292.0957252198775791
  0
ARC
  5
BE31
  8
0
 10
4525.8278462339421822
 20
137.1741013172647001
 30
0.0
 40
0.0280047729659478
 50
59.2890482181717005
 51
91.0997678864016365
  0
LINE
  5
BE32
  8
0
 10
4525.1464067490533125
 20
137.2021009147649977
 30
0.0
 11
4525.8273087273573765
 21
137.202100931468209
 31
0.0
  0
LINE
  5
BE33
  8
0
 10
4518.260012549530984
 20
139.6718810119039063
 30
0.0
 11
4518.260012549530984
 21
139.5498729231229049
 31
0.0
  0
LINE
  5
BE34
  8
0
 10
4519.0473924834559512
 20
137.4304129046821004
 30
0.0
 11
4519.0473924834559512
 21
138.1600849490208134
 31
0.0
  0
LINE
  5
BE35
  8
0
 10
4518.9906424926193722
 20
138.9041794371040055
 30
0.0
 11
4520.1278078032937628
 21
138.9041794371040055
 31
0.0
  0
LINE
  5
BE36
  8
0
 10
4518.3356888050348061
 20
139.3947136057410034
 30
0.0
 11
4518.9421899345088605
 21
138.9208629907963939
 31
0.0
  0
LINE
  5
BE37
  8
0
 10
4518.2797125495308137
 20
139.6915810119039065
 30
0.0
 11
4520.8387377463814119
 21
139.6915810119039065
 31
0.0
  0
ARC
  5
BE38
  8
0
 10
4518.2797125495308137
 20
139.6718810119039063
 30
0.0
 40
0.0197
 50
89.9999999999478888
 51
180.0000000000821956
  0
ARC
  5
BE39
  8
0
 10
4518.4569125495299886
 20
139.5498729231229049
 30
0.0
 40
0.1969
 50
180.0
 51
231.9999999984345038
  0
ARC
  5
BE3A
  8
0
 10
4518.9906424926193722
 20
138.9828794371040885
 30
0.0
 40
0.0787
 50
231.9999999984439967
 51
270.0
  0
LINE
  5
BE3B
  8
0
 10
4518.9494279967057082
 20
138.8101303173546057
 30
0.0
 11
4518.9494279967057082
 21
138.3368112340533003
 31
0.0
  0
LINE
  5
BE3C
  8
0
 10
4518.9883590062563599
 20
138.8490613269038931
 30
0.0
 11
4520.1300912896567752
 21
138.8490613269038931
 31
0.0
  0
LINE
  5
BE3D
  8
0
 10
4518.9883590062563599
 20
138.8490613269038931
 30
0.0
 11
4518.9494279967057082
 21
138.8101303173546057
 31
0.0
  0
ARC
  5
BE3E
  8
0
 10
4519.5671150273683452
 20
138.1956104578812869
 30
0.0
 40
0.6534984991746596
 50
90.6917655889938459
 51
110.0017756699354976
  0
ARC
  5
BE3F
  8
0
 10
4519.0648405670572174
 20
138.6794577438157887
 30
0.0
 40
0.1690733240127423
 50
50.3788821150430834
 51
129.3872169146702049
  0
LINE
  5
BE40
  8
0
 10
4519.1726599681551306
 20
138.8096912481038885
 30
0.0
 11
4519.3435863457561936
 21
138.8096912481038885
 31
0.0
  0
LINE
  5
BE41
  8
0
 10
4518.9494279967057082
 20
138.8101303173546057
 30
0.0
 11
4518.9575537206228546
 21
138.8101303173546057
 31
0.0
  0
LINE
  5
BE42
  8
0
 10
4518.9883590062563599
 20
138.2978802245038992
 30
0.0
 11
4518.9494279967057082
 21
138.3368112340531866
 31
0.0
  0
ARC
  5
BE43
  8
0
 10
4519.5671150273683452
 20
138.9513310935265054
 30
0.0
 40
0.6534984991746596
 50
249.9982243300644882
 51
269.3082344110060831
  0
ARC
  5
BE44
  8
0
 10
4519.0648405670572174
 20
138.4674838075920036
 30
0.0
 40
0.1690733240127423
 50
230.6127830853297951
 51
309.6211178849569023
  0
LINE
  5
BE45
  8
0
 10
4519.1726599681551306
 20
138.3372503033039038
 30
0.0
 11
4519.3435863457561936
 21
138.3372503033039038
 31
0.0
  0
LINE
  5
BE46
  8
0
 10
4518.9494279967057082
 20
138.3368112340531866
 30
0.0
 11
4518.9575537206228546
 21
138.3368112340531866
 31
0.0
  0
LINE
  5
BE47
  8
0
 10
4518.9883590062563599
 20
138.2978802245038992
 30
0.0
 11
4520.1300912896567752
 21
138.2978802245038992
 31
0.0
  0
LINE
  5
BE48
  8
0
 10
4520.1690222992056079
 20
138.8101303173546057
 30
0.0
 11
4520.1690222992056079
 21
138.3368112340533003
 31
0.0
  0
LINE
  5
BE49
  8
0
 10
4520.1300912896567752
 20
138.8490613269038931
 30
0.0
 11
4520.1690222992056079
 21
138.8101303173546057
 31
0.0
  0
ARC
  5
BE4A
  8
0
 10
4519.5513352685438804
 20
138.1956104578812869
 30
0.0
 40
0.6534984991746596
 50
69.998224330064474
 51
89.3082344110061541
  0
ARC
  5
BE4B
  8
0
 10
4520.0536097288568271
 20
138.6794577438157887
 30
0.0
 40
0.1690733240127423
 50
50.6127830853298022
 51
129.6211178849569023
  0
LINE
  5
BE4C
  8
0
 10
4519.9457903277561854
 20
138.8096912481038885
 30
0.0
 11
4519.7748639501560319
 21
138.8096912481038885
 31
0.0
  0
LINE
  5
BE4D
  8
0
 10
4520.1690222992056079
 20
138.8101303173546057
 30
0.0
 11
4520.1608965752902805
 21
138.8101303173546057
 31
0.0
  0
LINE
  5
BE4E
  8
0
 10
4520.1300912896567752
 20
138.2978802245038992
 30
0.0
 11
4520.1690222992056079
 21
138.3368112340531866
 31
0.0
  0
ARC
  5
BE4F
  8
0
 10
4519.5513352685438804
 20
138.9513310935265054
 30
0.0
 40
0.6534984991746596
 50
270.6917655889938032
 51
290.0017756699356255
  0
ARC
  5
BE50
  8
0
 10
4520.0536097288568271
 20
138.4674838075920036
 30
0.0
 40
0.1690733240127423
 50
230.3788821150430977
 51
309.3872169146702049
  0
LINE
  5
BE51
  8
0
 10
4519.9457903277561854
 20
138.3372503033039038
 30
0.0
 11
4519.7748639501560319
 21
138.3372503033039038
 31
0.0
  0
LINE
  5
BE52
  8
0
 10
4520.1690222992056079
 20
138.3368112340531866
 30
0.0
 11
4520.1608965752902805
 21
138.3368112340531866
 31
0.0
  0
LINE
  5
BE53
  8
0
 10
4519.9457903277561854
 20
138.3372503033039038
 30
0.0
 11
4519.9457903277561854
 21
138.8096912481038885
 31
0.0
  0
LINE
  5
BE54
  8
0
 10
4519.7748639501560319
 20
138.8096912481038885
 30
0.0
 11
4519.7748639501560319
 21
138.3372503033039038
 31
0.0
  0
LINE
  5
BE55
  8
0
 10
4520.1608965752902805
 20
138.3368112340531866
 30
0.0
 11
4520.1608965752902805
 21
138.8101303173546057
 31
0.0
  0
LINE
  5
BE56
  8
0
 10
4519.3435863457561936
 20
138.8096912481038885
 30
0.0
 11
4519.3435863457561936
 21
138.3372503033039038
 31
0.0
  0
LINE
  5
BE57
  8
0
 10
4519.1726599681551306
 20
138.8096912481038885
 30
0.0
 11
4519.1726599681551306
 21
138.3372503033039038
 31
0.0
  0
LINE
  5
BE58
  8
0
 10
4518.9575537206228546
 20
138.3368112340538971
 30
0.0
 11
4518.9575537206237641
 21
138.8101303173546057
 31
0.0
  0
LINE
  5
BE59
  8
0
 10
4519.0822585561909364
 20
137.3913638292895882
 30
0.0
 11
4519.533168001183185
 21
137.3401641616345046
 31
0.0
  0
ARC
  5
BE5A
  8
0
 10
4519.0866924834563179
 20
137.4304129046821004
 30
0.0
 40
0.0393
 50
179.9999999999787974
 51
263.5219495153152138
  0
LINE
  5
BE5B
  8
0
 10
4519.0526670738618122
 20
138.1797699882039012
 30
0.0
 11
4522.0168141703552465
 21
138.1797699882039012
 31
0.0
  0
ARC
  5
BE5C
  8
0
 10
4519.0867625615128418
 20
138.1600849490208134
 30
0.0
 40
0.0393700780567716
 50
149.9999997399096117
 51
180.0000001700412895
  0
LINE
  5
BE5D
  8
0
 10
4519.5388786640205581
 20
136.1046887408205066
 30
0.0
 11
4519.520589678027136
 21
136.8182267380080077
 31
0.0
  0
LINE
  5
BE5E
  8
0
 10
4519.5387011569437163
 20
137.5697624178274054
 30
0.0
 11
4519.520589678027136
 21
136.8182267380080077
 31
0.0
  0
LINE
  5
BE5F
  8
0
 10
4519.5701484121527756
 20
136.0739966328295907
 30
0.0
 11
4520.2013041448471995
 21
136.0695902630401122
 31
0.0
  0
ARC
  5
BE60
  8
0
 10
4519.5703683218507649
 20
136.1054958651967866
 30
0.0
 40
0.0315
 50
181.4682502238040058
 51
269.6000000044367084
  0
LINE
  5
BE61
  8
0
 10
4519.5699721040082295
 20
137.6005027427951859
 30
0.0
 11
4520.2012747351773214
 21
137.6049101381460105
 31
0.0
  0
ARC
  5
BE62
  8
0
 10
4519.5701920137053094
 20
137.56900351042799
 30
0.0
 40
0.0315
 50
90.3999999955111235
 51
178.619479410056897
  0
LINE
  5
BE63
  8
0
 10
4520.8584377463812416
 20
139.6718810119039063
 30
0.0
 11
4520.8584377463812416
 21
139.5498729231229049
 31
0.0
  0
LINE
  5
BE64
  8
0
 10
4520.7827614908774194
 20
139.3947136057410034
 30
0.0
 11
4520.1762603614033651
 21
138.9208629907963939
 31
0.0
  0
ARC
  5
BE65
  8
0
 10
4520.8387377463814119
 20
139.6718810119039063
 30
0.0
 40
0.0197
 50
359.9999999999170086
 51
90.0000000000521254
  0
ARC
  5
BE66
  8
0
 10
4520.6615377463813275
 20
139.5498729231229049
 30
0.0
 40
0.1969
 50
308.0000000015655246
 51
0.0
  0
ARC
  5
BE67
  8
0
 10
4520.1278078032937628
 20
138.9828794371040885
 30
0.0
 40
0.0787
 50
270.0
 51
308.0000000015559749
  0
LINE
  5
BE68
  8
0
 10
4519.0434771164573249
 20
138.9041794371040055
 30
0.0
 11
4519.0434771164573249
 21
138.8490613269038931
 31
0.0
  0
LINE
  5
BE69
  8
0
 10
4520.0749731794567197
 20
138.9041794371040055
 30
0.0
 11
4520.0749731794567197
 21
138.8490613269038931
 31
0.0
  0
LINE
  5
BE6A
  8
0
 10
4519.1379653054564187
 20
138.2663841615039075
 30
0.0
 11
4519.1379653054564187
 21
138.1797699882039012
 31
0.0
  0
LINE
  5
BE6B
  8
0
 10
4519.1379653054564187
 20
138.2663841615039075
 30
0.0
 11
4519.1505637306563585
 21
138.2978802245038992
 31
0.0
  0
LINE
  5
BE6C
  8
0
 10
4519.9804849904567163
 20
138.2663841615039075
 30
0.0
 11
4519.9804849904567163
 21
138.1797699882039012
 31
0.0
  0
LINE
  5
BE6D
  8
0
 10
4519.9804849904567163
 20
138.2663841615039075
 30
0.0
 11
4519.9678865652567765
 21
138.2978802245038992
 31
0.0
  0
ARC
  5
BE6E
  8
0
 10
4518.5119506903401998
 20
136.5111932770163037
 30
0.0
 40
2.0161332395777709
 50
19.5881605597325503
 51
32.7301281234859331
  0
ARC
  5
BE6F
  8
0
 10
4519.4301869170003556
 20
136.8379487051844023
 30
0.0
 40
1.0414913167216131
 50
342.3283438880055201
 51
19.5881605597317794
  0
ARC
  5
BE70
  8
0
 10
4518.6963110453134504
 20
137.071758414138003
 30
0.0
 40
1.8117125674330401
 50
326.5503619916428875
 51
342.3283438880055201
  0
LINE
  5
BE71
  8
0
 10
4520.2290813944573529
 20
136.1058818776284909
 30
0.0
 11
4520.2290813944573529
 21
136.0774337994039058
 31
0.0
  0
LINE
  5
BE72
  8
0
 10
4520.2290813944573529
 20
137.567723155776207
 30
0.0
 11
4520.2290813944573529
 21
137.5970668387039098
 31
0.0
  0
ARC
  5
BE73
  8
0
 10
4520.2013592968023659
 20
136.0774900705229982
 30
0.0
 40
0.0079
 50
269.6000000048014726
 51
326.5503619896783221
  0
ARC
  5
BE74
  8
0
 10
4520.2013298871315783
 20
137.5970103306640056
 30
0.0
 40
0.0079
 50
32.7301281210211528
 51
90.3999999968660291
  0
LINE
  5
BE75
  8
0
 10
4520.2369813944560519
 20
137.6049668387038878
 30
0.0
 11
4522.193979524756287
 21
137.6049668387038878
 31
0.0
  0
LINE
  5
BE76
  8
0
 10
4522.8239007844567823
 20
137.6049668387038878
 30
0.0
 11
4524.3905141972563797
 21
137.6049668387038878
 31
0.0
  0
LINE
  5
BE77
  8
0
 10
4524.4337992366563412
 20
137.6049668387038878
 30
0.0
 11
4525.972091229434227
 21
137.6049668387038878
 31
0.0
  0
LINE
  5
BE78
  8
0
 10
4520.2369813944560519
 20
136.0695337994038994
 30
0.0
 11
4522.1152393672573453
 21
136.0695337994038994
 31
0.0
  0
LINE
  5
BE79
  8
0
 10
4522.902640941955724
 20
136.0695337994038994
 30
0.0
 11
4523.3282752101904407
 21
136.0695337994038994
 31
0.0
  0
ARC
  5
BE7A
  8
0
 10
4520.2369813944560519
 20
136.0774337994039058
 30
0.0
 40
0.0079
 50
180.0
 51
270.0000000000521254
  0
ARC
  5
BE7B
  8
0
 10
4520.2369813944560519
 20
137.5970668387039098
 30
0.0
 40
0.0079
 50
89.9999999999478888
 51
180.0000000001026024
  0
LINE
  5
BE7C
  8
0
 10
4521.2687826743567712
 20
139.6915810119039065
 30
0.0
 11
4523.7490976348562981
 21
139.6915810119039065
 31
0.0
  0
LINE
  5
BE7D
  8
0
 10
4521.2982829826542002
 20
139.2978802245038992
 30
0.0
 11
4523.7195973265570501
 21
139.2978802245038992
 31
0.0
  0
LINE
  5
BE7E
  8
0
 10
4521.2785897333533285
 20
139.3170645386221906
 30
0.0
 11
4521.2687826743567712
 21
139.6915810119039065
 31
0.0
  0
LINE
  5
BE7F
  8
0
 10
4522.0168141703552465
 20
137.6049668387038878
 30
0.0
 11
4522.0168141703552465
 21
139.2978802245038992
 31
0.0
  0
ARC
  5
BE80
  8
0
 10
4521.2982829826542002
 20
139.3175802245038994
 30
0.0
 40
0.0197
 50
181.5000000002087006
 51
269.9999999999478746
  0
LINE
  5
BE81
  8
0
 10
4520.2588640592566662
 20
138.1994550277038911
 30
0.0
 11
4522.0168141703552465
 21
138.1994550277038911
 31
0.0
  0
ARC
  5
BE82
  8
0
 10
4520.2645382390992381
 20
138.1704942787150117
 30
0.0
 40
0.0295113757494539
 50
101.0853431888455987
 51
161.6808583856314954
  0
LINE
  5
BE83
  8
0
 10
4521.0128771625568334
 20
138.1994550277038911
 30
0.0
 11
4521.0128771625568334
 21
138.2191400670039059
 31
0.0
  0
LINE
  5
BE84
  8
0
 10
4521.0128771625568334
 20
138.2191400670039059
 30
0.0
 11
4521.2490976349563425
 21
138.2191400670039059
 31
0.0
  0
LINE
  5
BE85
  8
0
 10
4521.2490976349563425
 20
138.2191400670039059
 30
0.0
 11
4521.2490976349563425
 21
138.1994550277038911
 31
0.0
  0
LINE
  5
BE86
  8
0
 10
4522.0168141703552465
 20
137.9396125080039042
 30
0.0
 11
4523.0010661388550943
 21
137.9396125080039042
 31
0.0
  0
LINE
  5
BE87
  8
0
 10
4522.0561842491561038
 20
137.9396125080039042
 30
0.0
 11
4522.0561842491561038
 21
137.6049668387038878
 31
0.0
  0
LINE
  5
BE88
  8
0
 10
4522.193979524756287
 20
137.9396125080039042
 30
0.0
 11
4522.193979524756287
 21
137.4281464230355994
 31
0.0
  0
ARC
  5
BE89
  8
0
 10
4520.9198913967129556
 20
131.2794785035237908
 30
0.0
 40
3.1591778125424081
 50
67.7670535859671617
 51
73.1335826329723488
  0
ARC
  5
BE8A
  8
0
 10
4522.0680509811236334
 20
135.0664954570700047
 30
0.0
 40
0.7980646412023961
 50
242.5360701321341139
 51
253.1335826329724057
  0
ARC
  5
BE8B
  8
0
 10
4521.806494735718843
 20
134.5632773617770965
 30
0.0
 40
0.2309313932436156
 50
215.5249847072981026
 51
242.5360701321343981
  0
ARC
  5
BE8C
  8
0
 10
4521.7250630259350146
 20
134.4873224255931916
 30
0.0
 40
0.1213921292197917
 50
188.6733578475246986
 51
208.6646117356438879
  0
LINE
  5
BE8D
  8
0
 10
4521.6050591231196449
 20
134.4690163515309109
 30
0.0
 11
4521.6050591231196449
 21
135.4235680560038872
 31
0.0
  0
ARC
  5
BE8E
  8
0
 10
4522.302599980249397
 20
136.3712038304095131
 30
0.0
 40
1.2038770216478241
 50
245.2915040732823115
 51
261.0466046323397791
  0
ARC
  5
BE8F
  8
0
 10
4521.9511615025876381
 20
135.6074201259106928
 30
0.0
 40
0.3631187027250189
 50
226.0834779416200035
 51
245.2915040732819989
  0
ARC
  5
BE90
  8
0
 10
4521.8079625836408013
 20
135.4587002900489097
 30
0.0
 40
0.1566640588766452
 50
200.8775561083739944
 51
226.0834779416188951
  0
ARC
  5
BE91
  8
0
 10
4521.7229645365396209
 20
135.4262808368860078
 30
0.0
 40
0.0656932451277655
 50
181.7828901940345929
 51
200.8775561083708965
  0
LINE
  5
BE92
  8
0
 10
4521.6358135020300324
 20
135.4450680560038904
 30
0.0
 11
4521.6265591231212966
 21
135.4450680560038904
 31
0.0
  0
ARC
  5
BE93
  8
0
 10
4521.6358135020291229
 20
135.4235680559997945
 30
0.0
 40
0.0215
 50
1.7828902047860951
 51
89.9999999955706329
  0
ARC
  5
BE94
  8
0
 10
4521.6265591231212966
 20
135.4235680560038872
 30
0.0
 40
0.0215
 50
90.0
 51
179.9999999999616875
  0
ARC
  5
BE95
  8
0
 10
4522.3559351861331379
 20
136.6817110299849105
 30
0.0
 40
1.5521445346600209
 50
251.8531271325306875
 51
261.0789658735017156
  0
ARC
  5
BE96
  8
0
 10
4522.0190963998284133
 20
135.7318619768705901
 30
0.0
 40
0.5451696532615657
 50
226.9186602812465878
 51
254.4026403747162988
  0
ARC
  5
BE97
  8
0
 10
4521.7315567344458032
 20
135.4294751254502103
 30
0.0
 40
0.1279581322612378
 50
188.7543922893229933
 51
228.4741822360635979
  0
LINE
  5
BE98
  8
0
 10
4521.6254367812553028
 20
135.57054477890199
 30
0.0
 11
4521.6254367811561679
 21
136.0695337994038994
 31
0.0
  0
ARC
  5
BE99
  8
0
 10
4521.73381313239679
 20
135.699195358739189
 30
0.0
 40
0.1682153535770118
 50
229.8889261367000074
 51
268.5659023960877789
  0
ARC
  5
BE9A
  8
0
 10
4521.7284333119869189
 20
135.4500088543877894
 30
0.0
 40
0.1585471363380389
 50
97.7992540375974642
 51
130.5134995249663916
  0
ARC
  5
BE9B
  8
0
 10
4522.2005272263722873
 20
132.7519362137520034
 30
0.0
 40
2.8975074733791111
 50
91.6867394932858986
 51
99.8085464117598207
  0
ARC
  5
BE9C
  8
0
 10
4522.3189293351279048
 20
131.3450714188379891
 30
0.0
 40
4.3007532757319673
 50
92.7146274641359014
 51
95.7332536279019592
  0
ARC
  5
BE9D
  8
0
 10
4521.9515296654562917
 20
135.0044499598859886
 30
0.0
 40
0.6229776131938976
 50
95.7332536279019592
 51
112.818982516934895
  0
ARC
  5
BE9E
  8
0
 10
4521.7334648462729092
 20
135.5924210018467875
 30
0.0
 40
0.0272611783983625
 50
210.2925323092395047
 51
261.4515621888064061
  0
ARC
  5
BE9F
  8
0
 10
4523.8170110207556718
 20
135.5592412843039085
 30
0.0
 40
2.0875984251998521
 50
179.9999999999992042
 51
186.8885264999427989
  0
LINE
  5
BEA0
  8
0
 10
4521.7294125955568234
 20
135.5592412843039085
 30
0.0
 11
4521.7294125955568234
 21
135.5864852799479934
 31
0.0
  0
ARC
  5
BEA1
  8
0
 10
4522.2755528984043849
 20
132.9961787935295945
 30
0.0
 40
1.683745560707768
 50
95.4635474253656611
 51
107.2288485365803012
  0
ARC
  5
BEA2
  8
0
 10
4521.9200417653337354
 20
134.1426059780015123
 30
0.0
 40
0.4834608215590417
 50
107.2288485365803012
 51
124.8859484492587058
  0
ARC
  5
BEA3
  8
0
 10
4521.6950316372658563
 20
134.4653190655824062
 30
0.0
 40
0.0900484493222477
 50
124.8859484492572989
 51
177.6468395514064866
  0
ARC
  5
BEA4
  8
0
 10
4522.5089401546565568
 20
136.8372503033039038
 30
0.0
 40
0.649606299200003
 50
307.3052009553845778
 51
232.6947990335374072
  0
ARC
  5
BEA5
  8
0
 10
4522.154579524755718
 20
137.4281464230355994
 30
0.0
 40
0.0394
 50
300.9511322657755841
 51
0.0
  0
LINE
  5
BEA6
  8
0
 10
4521.8987039341564014
 20
137.0599611004157907
 30
0.0
 11
4521.8987039341564014
 21
136.6145395061921022
 31
0.0
  0
ARC
  5
BEA7
  8
0
 10
4522.5089401546565568
 20
136.8372503033039038
 30
0.0
 40
0.4330708661000006
 50
335.38002265112641
 51
204.6199773171140919
  0
LINE
  5
BEA8
  8
0
 10
4526.7578677596802663
 20
139.6718810119039063
 30
0.0
 11
4526.7578677596802663
 21
139.5498729231229049
 31
0.0
  0
LINE
  5
BEA9
  8
0
 10
4525.9704878257562086
 20
137.6049668387038878
 30
0.0
 11
4525.9704878257562086
 21
138.1600849490208134
 31
0.0
  0
LINE
  5
BEAA
  8
0
 10
4526.0272378165927876
 20
138.9041794371040055
 30
0.0
 11
4524.8900725059193064
 21
138.9041794371040055
 31
0.0
  0
LINE
  5
BEAB
  8
0
 10
4526.6821915041773536
 20
139.3947136057410034
 30
0.0
 11
4526.0756903747032993
 21
138.9208629907963939
 31
0.0
  0
LINE
  5
BEAC
  8
0
 10
4526.7381677596813461
 20
139.6915810119039065
 30
0.0
 11
4524.1791425628307479
 21
139.6915810119039065
 31
0.0
  0
ARC
  5
BEAD
  8
0
 10
4526.7381677596813461
 20
139.6718810119039063
 30
0.0
 40
0.0197
 50
359.9999999999170086
 51
90.0000000000521254
  0
ARC
  5
BEAE
  8
0
 10
4526.5609677596812617
 20
139.5498729231229049
 30
0.0
 40
0.1969
 50
308.0000000015655246
 51
0.0
  0
ARC
  5
BEAF
  8
0
 10
4526.0272378165927876
 20
138.9828794371040885
 30
0.0
 40
0.0787
 50
270.0
 51
308.0000000015559749
  0
LINE
  5
BEB0
  8
0
 10
4526.0684523125064516
 20
138.8101303173546057
 30
0.0
 11
4526.0684523125064516
 21
138.3368112340533003
 31
0.0
  0
LINE
  5
BEB1
  8
0
 10
4526.0295213029557999
 20
138.8490613269038931
 30
0.0
 11
4524.8877890195562941
 21
138.8490613269038931
 31
0.0
  0
LINE
  5
BEB2
  8
0
 10
4526.0295213029557999
 20
138.8490613269038931
 30
0.0
 11
4526.0684523125064516
 21
138.8101303173546057
 31
0.0
  0
ARC
  5
BEB3
  8
0
 10
4525.4507652818447241
 20
138.1956104578812869
 30
0.0
 40
0.6534984991746596
 50
69.998224330064474
 51
89.3082344110061541
  0
ARC
  5
BEB4
  8
0
 10
4525.9530397421567613
 20
138.6794577438157887
 30
0.0
 40
0.1690733240127423
 50
50.6127830853298022
 51
129.6211178849569023
  0
LINE
  5
BEB5
  8
0
 10
4525.8452203410561197
 20
138.8096912481038885
 30
0.0
 11
4525.6742939634559661
 21
138.8096912481038885
 31
0.0
  0
LINE
  5
BEB6
  8
0
 10
4526.0684523125064516
 20
138.8101303173546057
 30
0.0
 11
4526.0603265885911242
 21
138.8101303173546057
 31
0.0
  0
LINE
  5
BEB7
  8
0
 10
4526.0295213029557999
 20
138.2978802245038992
 30
0.0
 11
4526.0684523125064516
 21
138.3368112340531866
 31
0.0
  0
ARC
  5
BEB8
  8
0
 10
4525.4507652818447241
 20
138.9513310935265054
 30
0.0
 40
0.6534984991746596
 50
270.6917655889938032
 51
290.0017756699356255
  0
ARC
  5
BEB9
  8
0
 10
4525.9530397421567613
 20
138.4674838075920036
 30
0.0
 40
0.1690733240127423
 50
230.3788821150430977
 51
309.3872169146702049
  0
LINE
  5
BEBA
  8
0
 10
4525.8452203410561197
 20
138.3372503033039038
 30
0.0
 11
4525.6742939634559661
 21
138.3372503033039038
 31
0.0
  0
LINE
  5
BEBB
  8
0
 10
4526.0684523125064516
 20
138.3368112340531866
 30
0.0
 11
4526.0603265885911242
 21
138.3368112340531866
 31
0.0
  0
LINE
  5
BEBC
  8
0
 10
4526.0295213029557999
 20
138.2978802245038992
 30
0.0
 11
4524.8877890195562941
 21
138.2978802245038992
 31
0.0
  0
LINE
  5
BEBD
  8
0
 10
4524.8488580100065519
 20
138.8101303173546057
 30
0.0
 11
4524.8488580100065519
 21
138.3368112340533003
 31
0.0
  0
LINE
  5
BEBE
  8
0
 10
4524.8877890195562941
 20
138.8490613269038931
 30
0.0
 11
4524.8488580100065519
 21
138.8101303173546057
 31
0.0
  0
ARC
  5
BEBF
  8
0
 10
4525.4665450406682794
 20
138.1956104578812869
 30
0.0
 40
0.6534984991746596
 50
90.6917655889938459
 51
110.0017756699354976
  0
ARC
  5
BEC0
  8
0
 10
4524.9642705803562421
 20
138.6794577438157887
 30
0.0
 40
0.1690733240127423
 50
50.3788821150430834
 51
129.3872169146702049
  0
LINE
  5
BEC1
  8
0
 10
4525.0720899814550648
 20
138.8096912481038885
 30
0.0
 11
4525.2430163590561278
 21
138.8096912481038885
 31
0.0
  0
LINE
  5
BEC2
  8
0
 10
4524.8488580100065519
 20
138.8101303173546057
 30
0.0
 11
4524.8569837339218793
 21
138.8101303173546057
 31
0.0
  0
LINE
  5
BEC3
  8
0
 10
4524.8877890195562941
 20
138.2978802245038992
 30
0.0
 11
4524.8488580100065519
 21
138.3368112340531866
 31
0.0
  0
ARC
  5
BEC4
  8
0
 10
4525.4665450406682794
 20
138.9513310935265054
 30
0.0
 40
0.6534984991746596
 50
249.9982243300644882
 51
269.3082344110060831
  0
ARC
  5
BEC5
  8
0
 10
4524.9642705803562421
 20
138.4674838075920036
 30
0.0
 40
0.1690733240127423
 50
230.6127830853297951
 51
309.6211178849569023
  0
LINE
  5
BEC6
  8
0
 10
4525.0720899814550648
 20
138.3372503033039038
 30
0.0
 11
4525.2430163590561278
 21
138.3372503033039038
 31
0.0
  0
LINE
  5
BEC7
  8
0
 10
4524.8488580100065519
 20
138.3368112340531866
 30
0.0
 11
4524.8569837339218793
 21
138.3368112340531866
 31
0.0
  0
LINE
  5
BEC8
  8
0
 10
4525.0720899814550648
 20
138.3372503033039038
 30
0.0
 11
4525.0720899814550648
 21
138.8096912481038885
 31
0.0
  0
LINE
  5
BEC9
  8
0
 10
4525.2430163590561278
 20
138.8096912481038885
 30
0.0
 11
4525.2430163590561278
 21
138.3372503033039038
 31
0.0
  0
LINE
  5
BECA
  8
0
 10
4524.8569837339236983
 20
138.3368112340531866
 30
0.0
 11
4524.8569837339236983
 21
138.8101303173546057
 31
0.0
  0
LINE
  5
BECB
  8
0
 10
4525.6742939634559661
 20
138.8096912481038885
 30
0.0
 11
4525.6742939634559661
 21
138.3372503033039038
 31
0.0
  0
LINE
  5
BECC
  8
0
 10
4525.8452203410561197
 20
138.8096912481038885
 30
0.0
 11
4525.8452203410561197
 21
138.3372503033039038
 31
0.0
  0
LINE
  5
BECD
  8
0
 10
4526.0603265885911242
 20
138.3368112340538971
 30
0.0
 11
4526.0603265885893052
 21
138.8101303173546057
 31
0.0
  0
LINE
  5
BECE
  8
0
 10
4525.965213235351257
 20
138.1797699882039012
 30
0.0
 11
4523.0010661388550943
 21
138.1797699882039012
 31
0.0
  0
ARC
  5
BECF
  8
0
 10
4525.931117747699318
 20
138.1600849490208134
 30
0.0
 40
0.0393700780567716
 50
359.9999998299587105
 51
30.000000260090399
  0
LINE
  5
BED0
  8
0
 10
4524.1594425628318277
 20
139.6718810119039063
 30
0.0
 11
4524.1594425628318277
 21
139.5498729231229049
 31
0.0
  0
LINE
  5
BED1
  8
0
 10
4524.2351188183347404
 20
139.3947136057410034
 30
0.0
 11
4524.8416199478078852
 21
138.9208629907963939
 31
0.0
  0
ARC
  5
BED2
  8
0
 10
4524.1791425628307479
 20
139.6718810119039063
 30
0.0
 40
0.0197
 50
89.9999999999478888
 51
180.0000000000821956
  0
ARC
  5
BED3
  8
0
 10
4524.3563425628308323
 20
139.5498729231229049
 30
0.0
 40
0.1969
 50
180.0
 51
231.9999999984345038
  0
ARC
  5
BED4
  8
0
 10
4524.8900725059193064
 20
138.9828794371040885
 30
0.0
 40
0.0787
 50
231.9999999984439967
 51
270.0
  0
LINE
  5
BED5
  8
0
 10
4525.9744031927566539
 20
138.9041794371040055
 30
0.0
 11
4525.9744031927566539
 21
138.8490613269038931
 31
0.0
  0
LINE
  5
BED6
  8
0
 10
4524.9429071297563496
 20
138.9041794371040055
 30
0.0
 11
4524.9429071297563496
 21
138.8490613269038931
 31
0.0
  0
LINE
  5
BED7
  8
0
 10
4525.8799150037557411
 20
138.2663841615039075
 30
0.0
 11
4525.8799150037557411
 21
138.1797699882039012
 31
0.0
  0
LINE
  5
BED8
  8
0
 10
4525.8799150037557411
 20
138.2663841615039075
 30
0.0
 11
4525.8673165785567107
 21
138.2978802245038992
 31
0.0
  0
LINE
  5
BED9
  8
0
 10
4525.0373953187563529
 20
138.2663841615039075
 30
0.0
 11
4525.0373953187563529
 21
138.1797699882039012
 31
0.0
  0
LINE
  5
BEDA
  8
0
 10
4525.0373953187563529
 20
138.2663841615039075
 30
0.0
 11
4525.0499937439562927
 21
138.2978802245038992
 31
0.0
  0
LINE
  5
BEDB
  8
0
 10
4523.7392905758597408
 20
139.3170645386221906
 30
0.0
 11
4523.7490976348562981
 21
139.6915810119039065
 31
0.0
  0
LINE
  5
BEDC
  8
0
 10
4523.0010661388550943
 20
137.6049668387038878
 30
0.0
 11
4523.0010661388550943
 21
139.2978802245038992
 31
0.0
  0
ARC
  5
BEDD
  8
0
 10
4523.7195973265570501
 20
139.3175802245038994
 30
0.0
 40
0.0197
 50
270.0000000000521254
 51
358.4999999997913278
  0
LINE
  5
BEDE
  8
0
 10
4524.759016249956403
 20
138.1994550277038911
 30
0.0
 11
4523.0010661388550943
 21
138.1994550277038911
 31
0.0
  0
ARC
  5
BEDF
  8
0
 10
4524.7533420701138311
 20
138.1704942787150117
 30
0.0
 40
0.0295113757494539
 50
18.3191416143677195
 51
78.9146568111543303
  0
LINE
  5
BEE0
  8
0
 10
4522.961696060056056
 20
137.9396125080039042
 30
0.0
 11
4522.961696060056056
 21
137.6049668387038878
 31
0.0
  0
LINE
  5
BEE1
  8
0
 10
4522.8239007844567823
 20
137.9396125080039042
 30
0.0
 11
4522.8239007844567823
 21
137.4281464230355994
 31
0.0
  0
ARC
  5
BEE2
  8
0
 10
4524.0979889125001137
 20
131.2794785035237908
 30
0.0
 40
3.1591778125424081
 50
106.8664173670275943
 51
112.2329464140327957
  0
ARC
  5
BEE3
  8
0
 10
4522.9498293280903454
 20
135.0664954570700047
 30
0.0
 40
0.7980646412023961
 50
286.8664173670276227
 51
297.4639298678658861
  0
ARC
  5
BEE4
  8
0
 10
4523.2113855734933168
 20
134.5632773617770965
 30
0.0
 40
0.2309313932436156
 50
297.4639298678654882
 51
324.4750152927019258
  0
ARC
  5
BEE5
  8
0
 10
4523.2928172832771452
 20
134.4873224255931916
 30
0.0
 40
0.1213921292197917
 50
331.3353882643561974
 51
351.3266421524751877
  0
LINE
  5
BEE6
  8
0
 10
4523.4128211860916053
 20
134.4690163515309109
 30
0.0
 11
4523.4128211860916053
 21
135.1819050489770007
 31
0.0
  0
ARC
  5
BEE7
  8
0
 10
4522.7152803289645817
 20
136.3712038304095131
 30
0.0
 40
1.2038770216478241
 50
278.9533953676602209
 51
294.7084959267177169
  0
ARC
  5
BEE8
  8
0
 10
4523.0667188066236122
 20
135.6074201259106928
 30
0.0
 40
0.3631187027250189
 50
294.7084959267181148
 51
313.9165220583799965
  0
ARC
  5
BEE9
  8
0
 10
4523.209917725572268
 20
135.4587002900489097
 30
0.0
 40
0.1566640588766452
 50
313.9165220583810765
 51
323.6064854636741188
  0
ARC
  5
BEEA
  8
0
 10
4522.6619451230799314
 20
136.6817110299849105
 30
0.0
 40
1.5521445346600209
 50
278.9210341264983981
 51
288.1468728674691988
  0
ARC
  5
BEEB
  8
0
 10
4522.9987839093837465
 20
135.7318619768705901
 30
0.0
 40
0.5451696532615657
 50
285.597359625283616
 51
310.1818306088886743
  0
ARC
  5
BEEC
  8
0
 10
4523.2840671768153697
 20
135.699195358739189
 30
0.0
 40
0.1682153535770118
 50
271.4340976039121074
 51
283.9226305812298961
  0
ARC
  5
BEED
  8
0
 10
4523.2894469972261504
 20
135.4500088543877894
 30
0.0
 40
0.1585471363380389
 50
77.0336437088817547
 51
82.20074596240255
  0
ARC
  5
BEEE
  8
0
 10
4522.8173530828398725
 20
132.7519362137520034
 30
0.0
 40
2.8975074733791111
 50
80.1914535882401935
 51
88.3132605067141014
  0
ARC
  5
BEEF
  8
0
 10
4522.698950974084255
 20
131.3450714188379891
 30
0.0
 40
4.3007532757319673
 50
84.266746372098055
 51
87.2853725358640844
  0
ARC
  5
BEF0
  8
0
 10
4523.0663506437549586
 20
135.0044499598859886
 30
0.0
 40
0.6229776131938976
 50
67.1810174830650624
 51
84.266746372098055
  0
ARC
  5
BEF1
  8
0
 10
4523.2844154629392506
 20
135.5924210018467875
 30
0.0
 40
0.0272611783983625
 50
278.5484378111934802
 51
329.707467690760609
  0
ARC
  5
BEF2
  8
0
 10
4521.2008692884555785
 20
135.5592412843039085
 30
0.0
 40
2.0875984251998521
 50
353.1114735000563769
 51
0.0000000000008142
  0
LINE
  5
BEF3
  8
0
 10
4523.2884677136562459
 20
135.5592412843039085
 30
0.0
 11
4523.2884677136562459
 21
135.5864852799479934
 31
0.0
  0
ARC
  5
BEF4
  8
0
 10
4522.7423274108086844
 20
132.9961787935295945
 30
0.0
 40
1.683745560707768
 50
72.7711514634196845
 51
84.5364525746343674
  0
ARC
  5
BEF5
  8
0
 10
4523.0978385438793339
 20
134.1426059780015123
 30
0.0
 40
0.4834608215590417
 50
55.1140515507412871
 51
72.7711514634196845
  0
ARC
  5
BEF6
  8
0
 10
4523.3228486719481225
 20
134.4653190655824062
 30
0.0
 40
0.0900484493222477
 50
2.3531604485934801
 51
55.1140515507426727
  0
ARC
  5
BEF7
  8
0
 10
4522.5089401545574219
 20
136.8372503033039038
 30
0.0
 40
0.649606299200003
 50
307.3052009664626212
 51
232.6947990446153938
  0
ARC
  5
BEF8
  8
0
 10
4522.8633007844564418
 20
137.4281464230355994
 30
0.0
 40
0.0394
 50
180.0
 51
239.0488677342243875
  0
LINE
  5
BEF9
  8
0
 10
4523.1191763750566679
 20
137.0599611004157907
 30
0.0
 11
4523.1191763750566679
 21
136.6145395061921022
 31
0.0
  0
ARC
  5
BEFA
  8
0
 10
4522.5089401545574219
 20
136.8372503033039038
 30
0.0
 40
0.4330708661000006
 50
335.3800226828851123
 51
204.6199773488735048
  0
ARC
  5
BEFB
  8
0
 10
4523.1830595621277098
 20
135.8534022279822011
 30
0.0
 40
0.4708939032685013
 50
282.1086096500358167
 51
287.8875432018112974
  0
ARC
  5
BEFC
  8
0
 10
4522.5089401546056251
 20
136.8372503033039038
 30
0.0
 40
0.3937007873500011
 50
0.0
 51
180.0
  0
LINE
  5
BEFD
  8
0
 10
4522.9402177588663108
 20
136.7978802247538965
 30
0.0
 11
4522.902640941955724
 21
136.7978802247538965
 31
0.0
  0
LINE
  5
BEFE
  8
0
 10
4522.9402177588708582
 20
136.8766203818038889
 30
0.0
 11
4522.9006674920219666
 21
136.8766203818038889
 31
0.0
  0
ARC
  5
BEFF
  8
0
 10
4522.5089401546547379
 20
136.8372503033039038
 30
0.0
 40
0.401574881200418
 50
354.373730178224605
 51
5.6262698146080696
  0
ARC
  5
BF00
  8
0
 10
4522.5089401546565568
 20
136.8372503033039038
 30
0.0
 40
0.4212598575999832
 50
354.6374286005204226
 51
5.36257139264732
  0
ARC
  5
BF01
  8
0
 10
4523.5925280810797631
 20
139.0458531542871015
 30
0.0
 40
0.3612221356167329
 50
356.7417352490818985
 51
65.7630441799984169
  0
ARC
  5
BF02
  8
0
 10
4522.5232920267380905
 20
139.106723510298707
 30
0.0
 40
1.432189427435407
 50
341.8658974797742189
 51
356.7417352490826943
  0
ARC
  5
BF03
  8
0
 10
4525.7729159276814244
 20
138.0424414703136904
 30
0.0
 40
1.9872771622852889
 50
161.8658974797741905
 51
175.4683722465061066
  0
ARC
  5
BF04
  8
0
 10
4524.8976618307988247
 20
138.1260450773600894
 30
0.0
 40
1.6799834542599601
 50
160.6888260453943928
 51
177.4955586653439923
  0
ARC
  5
BF05
  8
0
 10
4527.0443284732764369
 20
132.6013700508092086
 30
0.0
 40
7.134292958412888
 50
121.5421170130115058
 51
124.5229456732428019
  0
ARC
  5
BF06
  8
0
 10
4525.0066594383142728
 20
135.9390581523217065
 30
0.0
 40
3.7945537115800101
 50
117.7276497319867019
 51
121.9072151053940019
  0
LINE
  5
BF07
  8
0
 10
4525.9720661814262712
 20
137.1894306545038944
 30
0.0
 11
4525.8505537470373383
 21
137.1894306545038944
 31
0.0
  0
ARC
  5
BF08
  8
0
 10
4524.1756343395882141
 20
137.3973235533663058
 30
0.0
 40
1.8329664107451189
 50
354.2657330306461745
 51
5.726305797983958
  0
ARC
  5
BF09
  8
0
 10
4525.972091229434227
 20
137.5774668387037991
 30
0.0
 40
0.0275
 50
5.7263057981811647
 51
89.9999999998957776
  0
ARC
  5
BF0A
  8
0
 10
4525.9720661814262712
 20
137.2169306545040968
 30
0.0
 40
0.0275
 50
270.000000000104194
 51
354.2657330303765093
  0
LINE
  5
BF0B
  8
0
 10
4527.4728241716657067
 20
136.6032888442638011
 30
0.0
 11
4528.4483191901263126
 21
136.624570938110395
 31
0.0
  0
LINE
  5
BF0C
  8
0
 10
4526.2305875814026876
 20
137.1423462767633907
 30
0.0
 11
4528.3987594393493055
 21
137.1963197591481105
 31
0.0
  0
ARC
  5
BF0D
  8
0
 10
4527.3918243544621873
 20
155.7070342555655031
 30
0.0
 40
18.5304094070723906
 50
265.6950670890391279
 51
271.064286805969175
  0
ARC
  5
BF0E
  8
0
 10
4528.4118538474376692
 20
136.9072094885682134
 30
0.0
 40
0.2894066552074269
 50
7.6624571467354192
 51
92.5932732597965611
  0
ARC
  5
BF0F
  8
0
 10
4528.3576169741872945
 20
136.9534370890197863
 30
0.0
 40
0.341144891784927
 50
285.4190072904606836
 51
358.7169052781355845
  0
LINE
  5
BF10
  8
0
 10
4522.1152393672573453
 20
136.8372503033039038
 30
0.0
 11
4522.1152393672573453
 21
121.0892164085033045
 31
0.0
  0
LINE
  5
BF11
  8
0
 10
4522.902640941955724
 20
136.8372503033039038
 30
0.0
 11
4522.902640941955724
 21
121.0892164085033045
 31
0.0
  0
ARC
  5
BF12
  8
0
 10
4522.5089401546056251
 20
121.0892164085033045
 30
0.0
 40
4.9997203196999997
 50
94.5164067812446689
 51
85.4835932187553453
  0
ARC
  5
BF13
  8
0
 10
4522.5089401546056251
 20
121.0892164085033045
 30
0.0
 40
4.9485883383499969
 50
94.5631715946331894
 51
85.4368284053668248
  0
ARC
  5
BF14
  8
0
 10
4522.5089401546056251
 20
121.0892164085033045
 30
0.0
 40
4.9409448819499984
 50
94.5702456476938664
 51
85.4297543523061194
  0
ARC
  5
BF15
  8
0
 10
4522.5089401546056251
 20
121.0892164085033045
 30
0.0
 40
0.3937007873500011
 50
180.0
 51
0.0
  0
ARC
  5
BF16
  8
0
 10
4522.5089401546056251
 20
121.0892164085033045
 30
0.0
 40
0.7130220899000346
 50
123.515180969331297
 51
56.4848190306687101
  0
ARC
  5
BF17
  8
0
 10
4522.5089401546056251
 20
121.0892164085033045
 30
0.0
 40
0.472440944900038
 50
146.4426902234430941
 51
33.5573097765568633
  0
ARC
  5
BF18
  8
0
 10
4522.5089401546056251
 20
121.0892164085033045
 30
0.0
 40
0.5334645668500011
 50
137.5619504233343946
 51
42.4380495766649588
  0
ARC
  5
BF19
  8
0
 10
4522.5089401546056251
 20
121.0892164085033045
 30
0.0
 40
0.807086614150001
 50
119.1964044063748958
 51
60.8035955936250616
  0
ARC
  5
BF1A
  8
0
 10
4522.5089401546565568
 20
121.0892164085033045
 30
0.0
 40
0.6541448507000004
 50
127.0029161462207981
 51
52.9970838647433382
  0
LINE
  5
BF1C
  8
0
 10
4524.42199923665612
 20
137.593166838703894
 30
0.0
 11
4524.42199923665612
 21
137.0717813561967091
 31
0.0
  0
LINE
  5
BF1D
  8
0
 10
4524.4023141972556914
 20
137.593166838703894
 30
0.0
 11
4524.4023141972556914
 21
137.0664223883565001
 31
0.0
  0
LINE
  5
BF1E
  8
0
 10
4524.414125220855567
 20
137.5265702122927109
 30
0.0
 11
4524.414125220855567
 21
137.0696531155716116
 31
0.0
  0
ARC
  5
BF1F
  8
0
 10
4524.4337992366563412
 20
137.593166838703894
 30
0.0
 40
0.0118
 50
89.9999999998957776
 51
180.0
  0
ARC
  5
BF20
  8
0
 10
4524.3905141972563797
 20
137.593166838703894
 30
0.0
 40
0.0118
 50
0.0000000000692089
 51
90.0000000000521254
  0
ARC
  5
BF21
  8
0
 10
4524.4259497890679995
 20
137.5261415405616106
 30
0.0
 40
0.011832335906689
 50
109.5434980273611956
 51
177.9237855550005065
  0
ARC
  5
BF22
  8
0
 10
4524.3984098371556684
 20
137.502367358003994
 30
0.0
 40
0.0157158291999678
 50
0.4314136289931227
 51
75.6150843957009613
  0
LINE
  5
BF23
  8
0
 10
4525.8799150037557411
 20
138.2663841615039075
 30
0.0
 11
4525.0373953187563529
 21
138.2663841615039075
 31
0.0
  0
LINE
  5
BF24
  8
0
 10
4519.9804849904567163
 20
138.2663841615039075
 30
0.0
 11
4519.1379653054564187
 21
138.2663841615039075
 31
0.0
  0
LINE
  5
BF25
  8
0
 10
4518.3356888050348061
 20
139.3947136057410034
 30
0.0
 11
4520.7827614908774194
 21
139.3947136057410034
 31
0.0
  0
LINE
  5
BF26
  8
0
 10
4524.2351188183347404
 20
139.3947136057410034
 30
0.0
 11
4526.6821915041773536
 21
139.3947136057410034
 31
0.0
  0
ENDSEC
  0
EOF
