  0
SECTION
  2
HEADER
  9
$ACADVER
  1
AC1009
  9
$INSBASE
 10
4451.9063534114538925
 20
164.4478270262835906
 30
0.0
  9
$EXTMIN
 10
4446.5908420608548113
 20
150.9635750577336069
 30
0.0
  9
$EXTMAX
 10
4451.9154017037226367
 20
177.9320789948336028
 30
0.0
  9
$LIMMIN
 10
0.0
 20
0.0
  9
$LIMMAX
 10
11.6929133858000007
 20
8.2677165353999982
  9
$ORTHOMODE
 70
     0
  9
$REGENMODE
 70
     1
  9
$FILLMODE
 70
     1
  9
$QTEXTMODE
 70
     0
  9
$MIRRTEXT
 70
     0
  9
$DRAGMODE
 70
     2
  9
$LTSCALE
 40
0.6431102362
  9
$OSMODE
 70
  4095
  9
$ATTMODE
 70
     1
  9
$TEXTSIZE
 40
0.2
  9
$TRACEWID
 40
0.05
  9
$TEXTSTYLE
  7
STANDARD
  9
$CLAYER
  8
0
  9
$CELTYPE
  6
BYLAYER
  9
$CECOLOR
 62
   256
  9
$DIMSCALE
 40
1.0
  9
$DIMASZ
 40
0.1875
  9
$DIMEXO
 40
0.0625
  9
$DIMDLI
 40
0.4443307087
  9
$DIMRND
 40
0.0
  9
$DIMDLE
 40
0.0
  9
$DIMEXE
 40
0.125
  9
$DIMTP
 40
0.01
  9
$DIMTM
 40
0.01
  9
$DIMTXT
 40
2.0
  9
$DIMCEN
 40
0.1052362205
  9
$DIMTSZ
 40
0.0
  9
$DIMTOL
 70
     1
  9
$DIMLIM
 70
     0
  9
$DIMTIH
 70
     1
  9
$DIMTOH
 70
     1
  9
$DIMSE1
 70
     0
  9
$DIMSE2
 70
     0
  9
$DIMTAD
 70
     0
  9
$DIMZIN
 70
     0
  9
$DIMBLK
  1

  9
$DIMASO
 70
     1
  9
$DIMSHO
 70
     1
  9
$DIMPOST
  1
\X
  9
$DIMAPOST
  1

  9
$DIMALT
 70
     1
  9
$DIMALTD
 70
     2
  9
$DIMALTF
 40
25.3999999999999986
  9
$DIMLFAC
 40
1.0
  9
$DIMTOFL
 70
     0
  9
$DIMTVP
 40
0.0
  9
$DIMTIX
 70
     0
  9
$DIMSOXD
 70
     0
  9
$DIMSAH
 70
     0
  9
$DIMBLK1
  1

  9
$DIMBLK2
  1

  9
$DIMSTYLE
  2
STANDARD
  9
$DIMCLRD
 70
     0
  9
$DIMCLRE
 70
     0
  9
$DIMCLRT
 70
     0
  9
$DIMTFAC
 40
1.0
  9
$DIMGAP
 40
0.09
  9
$LUNITS
 70
     2
  9
$LUPREC
 70
     4
  9
$SKETCHINC
 40
0.1
  9
$FILLETRAD
 40
0.0
  9
$AUNITS
 70
     0
  9
$AUPREC
 70
     0
  9
$MENU
  1
.
  9
$ELEVATION
 40
0.0
  9
$PELEVATION
 40
0.0
  9
$THICKNESS
 40
0.0
  9
$LIMCHECK
 70
     0
  9
$BLIPMODE
 70
     0
  9
$CHAMFERA
 40
0.0
  9
$CHAMFERB
 40
0.0
  9
$SKPOLY
 70
     0
  9
$TDCREATE
 40
2458060.468368056230247
  9
$TDUPDATE
 40
2459599.5439583328552544
  9
$TDINDWG
 40
0.4022292824
  9
$TDUSRTIMER
 40
0.4022292824
  9
$USRTIMER
 70
     1
  9
$ANGBASE
 50
0.0
  9
$ANGDIR
 70
     0
  9
$PDMODE
 70
     0
  9
$PDSIZE
 40
0.3125
  9
$PLINEWID
 40
0.0
  9
$COORDS
 70
     1
  9
$SPLFRAME
 70
     0
  9
$SPLINETYPE
 70
     6
  9
$SPLINESEGS
 70
     8
  9
$ATTDIA
 70
     1
  9
$ATTREQ
 70
     1
  9
$HANDLING
 70
     1
  9
$HANDSEED
  5
BBCD
  9
$SURFTAB1
 70
     6
  9
$SURFTAB2
 70
     6
  9
$SURFTYPE
 70
     6
  9
$SURFU
 70
     6
  9
$SURFV
 70
     6
  9
$UCSNAME
  2

  9
$UCSORG
 10
0.0
 20
0.0
 30
0.0
  9
$UCSXDIR
 10
1.0
 20
0.0
 30
0.0
  9
$UCSYDIR
 10
0.0
 20
1.0
 30
0.0
  9
$PUCSNAME
  2

  9
$PUCSORG
 10
0.0
 20
0.0
 30
0.0
  9
$PUCSXDIR
 10
1.0
 20
0.0
 30
0.0
  9
$PUCSYDIR
 10
0.0
 20
1.0
 30
0.0
  9
$USERI1
 70
     0
  9
$USERI2
 70
     0
  9
$USERI3
 70
     0
  9
$USERI4
 70
     0
  9
$USERI5
 70
     0
  9
$USERR1
 40
0.0
  9
$USERR2
 40
0.0
  9
$USERR3
 40
0.0
  9
$USERR4
 40
0.0
  9
$USERR5
 40
0.0
  9
$WORLDVIEW
 70
     1
  9
$SHADEDGE
 70
     3
  9
$SHADEDIF
 70
    70
  9
$TILEMODE
 70
     1
  9
$MAXACTVP
 70
    64
  9
$PLIMCHECK
 70
     0
  9
$PEXTMIN
 10
1.0000000000000000E+20
 20
1.0000000000000000E+20
 30
1.0000000000000000E+20
  9
$PEXTMAX
 10
-1.0000000000000000E+20
 20
-1.0000000000000000E+20
 30
-1.0000000000000000E+20
  9
$PLIMMIN
 10
0.0
 20
0.0
  9
$PLIMMAX
 10
12.0
 20
9.0
  9
$UNITMODE
 70
     0
  9
$VISRETAIN
 70
     1
  9
$PLINEGEN
 70
     0
  9
$PSLTSCALE
 70
     1
  0
ENDSEC
  0
SECTION
  2
TABLES
  0
TABLE
  2
VPORT
 70
     1
  0
VPORT
  2
*ACTIVE
 70
     0
 10
0.0
 20
0.0
 11
1.0
 21
1.0
 12
645.709054499476224
 22
38.4525648295336566
 13
0.0
 23
0.0
 14
1.0
 24
1.0
 15
0.0
 25
0.0
 16
0.0
 26
0.0
 36
17.1152628219792007
 17
3803.5440673828129547
 27
125.9952621967499056
 37
0.0
 40
27.2103739275672609
 41
2.8398203592814371
 42
50.0
 43
0.0
 44
0.0
 50
0.0
 51
0.0
 71
     0
 72
   100
 73
     1
 74
     1
 75
     0
 76
     0
 77
     0
 78
     0
  0
ENDTAB
  0
TABLE
  2
LTYPE
 70
     2
  0
LTYPE
  2
CONTINUOUS
 70
     0
  3
Solid line
 72
    65
 73
     0
 40
0.0
  0
LTYPE
  2
PHANTOM2
 70
     0
  3
___ _ _ ___ _ _ ___ _ _ ___ _ _
 72
    65
 73
     6
 40
1.25
 49
0.625
 49
-0.125
 49
0.125
 49
-0.125
 49
0.125
 49
-0.125
  0
ENDTAB
  0
TABLE
  2
LAYER
 70
     2
  0
LAYER
  2
0
 70
     0
 62
   255
  6
CONTINUOUS
  0
LAYER
  2
DEFPOINTS
 70
     0
 62
     7
  6
CONTINUOUS
  0
ENDTAB
  0
TABLE
  2
STYLE
 70
     1
  0
STYLE
  2
STANDARD
 70
     0
 40
0.0
 41
0.8
 50
0.0
 71
     0
 42
0.2
  3
txt
  4

  0
ENDTAB
  0
TABLE
  2
VIEW
 70
     0
  0
ENDTAB
  0
TABLE
  2
UCS
 70
     0
  0
ENDTAB
  0
TABLE
  2
APPID
 70
     9
  0
APPID
  2
ACAD
 70
     0
  0
APPID
  2
ACAD_MLEADERVER
 70
     0
  0
APPID
  2
ACAD_EXEMPT_FROM_CAD_STANDARDS
 70
     0
  0
APPID
  2
ACAD_NAV_VCDISPLAY
 70
     0
  0
APPID
  2
ACAECLAYERSTANDARD
 70
     0
  0
APPID
  2
ACCMTRANSPARENCY
 70
     0
  0
APPID
  2
ACAD_DSTYLE_DIMJAG
 70
     0
  0
APPID
  2
ACAD_DSTYLE_DIMTALN
 70
     0
  0
APPID
  2
ACDBATTR
 70
     0
  0
ENDTAB
  0
TABLE
  2
DIMSTYLE
 70
     1
  0
DIMSTYLE
  2
STANDARD
 70
     0
  3

  4

  5

  6

  7

 40
1.0
 41
0.1875
 42
0.0625
 43
0.38
 44
0.125
 45
0.0
 46
0.0
 47
0.01
 48
0.01
140
0.15625
141
0.09
142
0.0
143
25.3999999999999986
144
1.0
145
0.0
146
1.0
147
0.09
 71
     1
 72
     0
 73
     1
 74
     1
 75
     0
 76
     0
 77
     0
 78
     4
170
     0
171
     2
172
     0
173
     0
174
     0
175
     0
176
     0
177
     0
178
     0
  0
ENDTAB
  0
ENDSEC
  0
SECTION
  2
BLOCKS
  0
BLOCK
  8
0
  2
$MODEL_SPACE
 70
     0
 10
0.0
 20
0.0
 30
0.0
  3
$MODEL_SPACE
  1

  0
ENDBLK
  5
21
  8
0
  0
BLOCK
 67
     1
  8
0
  2
$PAPER_SPACE
 70
     0
 10
0.0
 20
0.0
 30
0.0
  3
$PAPER_SPACE
  1

  0
ENDBLK
  5
1D
 67
     1
  8
0
  0
ENDSEC
  0
SECTION
  2
ENTITIES
  0
ATTDEF
  5
3930
  8
DEFPOINTS
 10
4451.904735037053797
 20
164.452434785667208
 30
0.0
 40
0.001
  1
K-26789T
  3

  2
MODELNUMBER
 70
     0
1001
ACDBATTR
1070
     0
1070
     1
  0
ATTDEF
  5
3931
  8
DEFPOINTS
 10
4451.904735037053797
 20
164.450768119000486
 30
0.0
 40
0.001
  1

  3

  2
TRADENAME
 70
     0
1001
ACDBATTR
1070
     0
1070
     1
  0
ATTDEF
  5
3932
  8
DEFPOINTS
 10
4451.904735037053797
 20
164.4491014523337924
 30
0.0
 40
0.001
  1
SLIDEBAR
  3

  2
PRODUCT
 70
     0
1001
ACDBATTR
1070
     0
1070
     1
  0
LINE
  5
B9E9
  8
0
 10
4449.5638337264535949
 20
151.0620002546336025
 30
0.0
 11
4450.3118652224547986
 21
151.0620002546336025
 31
0.0
  0
LINE
  5
B9EA
  8
0
 10
4449.5638337264535949
 20
151.0620002546336025
 30
0.0
 11
4449.5638337264535949
 21
152.0943146843983982
 31
0.0
  0
LINE
  5
B9EB
  8
0
 10
4449.5638337264535949
 20
151.0463002546335076
 30
0.0
 11
4449.5638337264535949
 21
151.0045641421187099
 31
0.0
  0
ARC
  5
B9EC
  8
0
 10
4449.9378494744541968
 20
154.5265671837296964
 30
0.0
 40
3.5629921259961388
 50
264.3181519413147953
 51
275.6818480586852047
  0
ARC
  5
B9ED
  8
0
 10
4449.5795337264544287
 20
151.0463002546335929
 30
0.0
 40
0.0157
 50
90.0
 51
180.0000000000032117
  0
ARC
  5
B9EE
  8
0
 10
4449.5874337264549467
 20
151.0045641421187099
 30
0.0
 40
0.0236
 50
179.9999999999984084
 51
264.3181519413147953
  0
LINE
  5
B9EF
  8
0
 10
4449.585097220253374
 20
150.9810800892578015
 30
0.0
 11
4450.290601728655929
 21
150.9810800892578015
 31
0.0
  0
LINE
  5
B9F0
  8
0
 10
4449.5638337264535949
 20
153.8643314940676987
 30
0.0
 11
4449.5638337264535949
 21
156.2239687586335037
 31
0.0
  0
LINE
  5
B9F1
  8
0
 10
4449.5638337264535949
 20
157.5226301759336138
 30
0.0
 11
4449.5638337264535949
 21
164.8403709082276123
 31
0.0
  0
LINE
  5
B9F2
  8
0
 10
4449.5638337264535949
 20
166.1812673982360025
 30
0.0
 11
4449.5638337264535949
 21
175.0313225584993972
 31
0.0
  0
LINE
  5
B9F3
  8
0
 10
4450.3118652224547986
 20
151.0620002546336025
 30
0.0
 11
4450.3118652224547986
 21
152.0865101824286114
 31
0.0
  0
LINE
  5
B9F4
  8
0
 10
4450.3118652224547986
 20
151.0463002546335929
 30
0.0
 11
4450.3118652224547986
 21
151.0045641421187099
 31
0.0
  0
ARC
  5
B9F5
  8
0
 10
4450.2882652224543563
 20
151.0045641421187099
 30
0.0
 40
0.0236
 50
275.6818480586852047
 51
0.0000000000016284
  0
ARC
  5
B9F6
  8
0
 10
4450.2961652224548743
 20
151.0463002546335929
 30
0.0
 40
0.0157
 50
0.0
 51
90.0
  0
LINE
  5
B9F7
  8
0
 10
4450.3118652224547986
 20
153.8721359960377981
 30
0.0
 11
4450.3118652224547986
 21
156.2239687586335037
 31
0.0
  0
LINE
  5
B9F8
  8
0
 10
4450.3118652224547986
 20
157.5226301759336138
 30
0.0
 11
4450.3118652224547986
 21
164.8403709082276123
 31
0.0
  0
LINE
  5
B9F9
  8
0
 10
4450.3118652224547986
 20
166.1812673982360025
 30
0.0
 11
4450.3118652224547986
 21
175.0235180565292978
 31
0.0
  0
LINE
  5
B9FA
  8
0
 10
4449.5638337264535949
 20
177.8336537979336072
 30
0.0
 11
4450.3118652224547986
 21
177.8336537979336072
 31
0.0
  0
LINE
  5
B9FB
  8
0
 10
4449.5638337264535949
 20
177.8336537979336072
 30
0.0
 11
4449.5638337264535949
 21
176.8013393681688115
 31
0.0
  0
LINE
  5
B9FC
  8
0
 10
4449.5638337264535949
 20
177.8493537979335883
 30
0.0
 11
4449.5638337264535949
 21
177.891089910448386
 31
0.0
  0
ARC
  5
B9FD
  8
0
 10
4449.9378494744541968
 20
174.3690868688373996
 30
0.0
 40
3.5629921259961388
 50
84.3181519413148379
 51
95.6818480586851763
  0
ARC
  5
B9FE
  8
0
 10
4449.5795337264544287
 20
177.8493537979335883
 30
0.0
 40
0.0157
 50
179.9999999999967031
 51
270.0
  0
ARC
  5
B9FF
  8
0
 10
4449.5874337264549467
 20
177.891089910448386
 30
0.0
 40
0.0236
 50
95.6818480586851763
 51
180.0000000000015916
  0
LINE
  5
BA00
  8
0
 10
4449.585097220253374
 20
177.9145739633092944
 30
0.0
 11
4450.290601728655929
 21
177.9145739633092944
 31
0.0
  0
LINE
  5
BA01
  8
0
 10
4450.3118652224547986
 20
177.8336537979336072
 30
0.0
 11
4450.3118652224547986
 21
176.809143870138513
 31
0.0
  0
LINE
  5
BA02
  8
0
 10
4450.3118652224547986
 20
177.8493537979335883
 30
0.0
 11
4450.3118652224547986
 21
177.891089910448386
 31
0.0
  0
ARC
  5
BA03
  8
0
 10
4450.2882652224543563
 20
177.891089910448386
 30
0.0
 40
0.0236
 50
359.9999999999968168
 51
84.3181519413148379
  0
ARC
  5
BA04
  8
0
 10
4450.2961652224548743
 20
177.8493537979335883
 30
0.0
 40
0.0157
 50
270.0
 51
0.0000000000032569
  0
LINE
  5
BA05
  8
0
 10
4449.8787943562538203
 20
151.0620002546336025
 30
0.0
 11
4449.8787943562538203
 21
151.0383782073336079
 31
0.0
  0
LINE
  5
BA06
  8
0
 10
4449.8787943562538203
 20
151.0383782073336079
 30
0.0
 11
4449.9969045925554383
 21
151.0383782073336079
 31
0.0
  0
LINE
  5
BA07
  8
0
 10
4449.9969045925554383
 20
151.0383782073336079
 30
0.0
 11
4449.9969045925554383
 21
151.0620002546336025
 31
0.0
  0
LINE
  5
BA08
  8
0
 10
4449.4535975059543489
 20
152.1051631077178001
 30
0.0
 11
4449.4535975059543489
 21
153.8534830707482968
 31
0.0
  0
LINE
  5
BA09
  8
0
 10
4451.9063534114538925
 20
152.0698742703335995
 30
0.0
 11
4449.4632952643278259
 21
152.0953636410665126
 31
0.0
  0
LINE
  5
BA0A
  8
0
 10
4449.4632952643278259
 20
153.8632825373996127
 30
0.0
 11
4451.9063534114538925
 21
153.8887719081334922
 31
0.0
  0
LINE
  5
BA0B
  8
0
 10
4451.9063534114538925
 20
152.0698742703335995
 30
0.0
 11
4451.9063534114538925
 21
153.8887719081334922
 31
0.0
  0
ARC
  5
BA0C
  8
0
 10
4449.4633975059541626
 20
152.1051631077178001
 30
0.0
 40
0.0098
 50
180.0000000000098055
 51
269.4022326572122097
  0
ARC
  5
BA0D
  8
0
 10
4449.4633975059541626
 20
153.8534830707482968
 30
0.0
 40
0.0098
 50
90.5977673427878187
 51
179.9999999999722888
  0
LINE
  5
BA0E
  8
0
 10
4449.4535975059543489
 20
176.7904909448492958
 30
0.0
 11
4449.4535975059543489
 21
175.0421709818187992
 31
0.0
  0
LINE
  5
BA0F
  8
0
 10
4451.9063534114538925
 20
176.8257797822336101
 30
0.0
 11
4449.4632952643278259
 21
176.8002904115006118
 31
0.0
  0
LINE
  5
BA10
  8
0
 10
4449.4632952643278259
 20
175.0323715151675117
 30
0.0
 11
4451.9063534114538925
 21
175.0068821444336038
 31
0.0
  0
LINE
  5
BA11
  8
0
 10
4451.9063534114538925
 20
176.8257797822336101
 30
0.0
 11
4451.9063534114538925
 21
175.0068821444336038
 31
0.0
  0
ARC
  5
BA12
  8
0
 10
4449.4633975059541626
 20
176.7904909448492958
 30
0.0
 40
0.0098
 50
90.5977673427878187
 51
179.9999999999886029
  0
ARC
  5
BA13
  8
0
 10
4449.4633975059541626
 20
175.0421709818187992
 30
0.0
 40
0.0098
 50
180.0000000000277112
 51
269.4022326572122097
  0
CIRCLE
  5
BA14
  8
0
 10
4449.9378494744541968
 20
165.5108191532318074
 30
0.0
 40
0.7677165030017364
  0
ARC
  5
BA15
  8
0
 10
4449.5581315339777575
 20
164.8755343952722114
 30
0.0
 40
0.0276
 50
239.1326914827905057
 51
359.9999999999968168
  0
LINE
  5
BA16
  8
0
 10
4449.5857315339781053
 20
166.1249515744812868
 30
0.0
 11
4449.5857315339781053
 21
164.8755343952720978
 31
0.0
  0
LINE
  5
BA17
  8
0
 10
4450.2899894470901927
 20
166.1249375281180107
 30
0.0
 11
4450.2899894470901927
 21
164.8755475646983086
 31
0.0
  0
ARC
  5
BA18
  8
0
 10
4449.5463315339784458
 20
166.1249515744812868
 30
0.0
 40
0.0394
 50
359.9999999999951115
 51
122.5180759229284035
  0
ARC
  5
BA19
  8
0
 10
4450.3293894470898522
 20
166.1249375281180107
 30
0.0
 40
0.0394
 50
57.4798685526216602
 51
179.9999999999951115
  0
ARC
  5
BA1A
  8
0
 10
4450.31758944709145
 20
164.8755475646983086
 30
0.0
 40
0.0276
 50
180.0000000000260059
 51
300.8692955990499058
  0
ARC
  5
BA1B
  8
0
 10
4449.9378496032986732
 20
165.5309972155176013
 30
0.0
 40
0.6632572866777742
 50
57.9320284968103323
 51
122.0657518513517061
  0
ARC
  5
BA1C
  8
0
 10
4449.9378609053192122
 20
165.5091188007642984
 30
0.0
 40
0.6700144422088364
 50
58.2944772050150917
 51
121.7056061793307009
  0
ARC
  5
BA1D
  8
0
 10
4449.9378588018480514
 20
165.5431662450299939
 30
0.0
 40
0.6248526944173945
 50
55.6989038713470492
 51
124.3007212446416929
  0
ARC
  5
BA1E
  8
0
 10
4449.4654058787100439
 20
165.5895599778208975
 30
0.0
 40
0.2559078605367402
 50
298.0467163781447084
 51
61.9532836218552276
  0
ARC
  5
BA1F
  8
0
 10
4450.4102930701992591
 20
165.5895599778208975
 30
0.0
 40
0.2559078605367402
 50
118.0467163781447937
 51
241.9532836218552063
  0
ARC
  5
BA20
  8
0
 10
4450.4102901756550636
 20
165.5895593422335992
 30
0.0
 40
0.2539367853810259
 50
118.2775266215405026
 51
241.722473378459398
  0
ARC
  5
BA21
  8
0
 10
4449.4654087732542393
 20
165.5895593422335992
 30
0.0
 40
0.2539367853810259
 50
298.2775266215405168
 51
61.722473378459469
  0
LINE
  5
BA23
  8
0
 10
4446.6793364811837819
 20
156.9126301759334865
 30
0.0
 11
4450.755131171418725
 21
156.9126301759334865
 31
0.0
  0
LINE
  5
BA24
  8
0
 10
4446.6060712616390447
 20
157.0559992717855948
 30
0.0
 11
4446.5908603360430789
 21
157.4915831910354882
 31
0.0
  0
LINE
  5
BA25
  8
0
 10
4446.6208420608545566
 20
157.5226301759336138
 30
0.0
 11
4450.8136255914960202
 21
157.5226301759336138
 31
0.0
  0
ARC
  5
BA26
  8
0
 10
4446.7959555191346226
 20
157.0626301761527088
 30
0.0
 40
0.1900000003623072
 50
182.0000000572518957
 51
232.1363536054377903
  0
ARC
  5
BA27
  8
0
 10
4446.6208420608545566
 20
157.4926301759336127
 30
0.0
 40
0.03
 50
90.0
 51
181.9999999942614863
  0
LINE
  5
BA28
  8
0
 10
4450.8283963907097132
 20
157.0559992717855948
 30
0.0
 11
4450.843607316305679
 21
157.4915831910354882
 31
0.0
  0
ARC
  5
BA29
  8
0
 10
4450.6385121332141352
 20
157.0626301761527088
 30
0.0
 40
0.1900000003623072
 50
307.8636463945532
 51
357.9999999427481043
  0
ARC
  5
BA2A
  8
0
 10
4450.8136255914960202
 20
157.4926301759336127
 30
0.0
 40
0.03
 50
358.0000000057385137
 51
90.0
  0
LINE
  5
BA2B
  8
0
 10
4449.4908283946106167
 20
156.2239687586335037
 30
0.0
 11
4450.3837303479176626
 21
156.2239687586335037
 31
0.0
  0
LINE
  5
BA2C
  8
0
 10
4449.1948219278938268
 20
156.4389659233164878
 30
0.0
 11
4449.4790826949820257
 21
156.2278533060566019
 31
0.0
  0
ARC
  5
BA2D
  8
0
 10
4449.2183133271528277
 20
156.4705968284702919
 30
0.0
 40
0.0394
 50
182.0000000007086101
 51
233.3997478819536013
  0
LINE
  5
BA2E
  8
0
 10
4449.1648415324107191
 20
156.8728725771483141
 30
0.0
 11
4449.1789373285691909
 21
156.4692217882997909
 31
0.0
  0
LINE
  5
BA2F
  8
0
 10
4449.1777377717753552
 20
156.8932600972335081
 30
0.0
 11
4450.696820970754743
 21
156.8932600972335081
 31
0.0
  0
LINE
  5
BA30
  8
0
 10
4449.1698380725829338
 20
156.9010911576505123
 30
0.0
 11
4449.1697373731640255
 21
156.9126301759334865
 31
0.0
  0
ARC
  5
BA31
  8
0
 10
4449.1777377717753552
 20
156.9011600972335998
 30
0.0
 40
0.0079
 50
180.4999996560297859
 51
270.0
  0
ARC
  5
BA32
  8
0
 10
4449.184529531703447
 20
156.8735600972335078
 30
0.0
 40
0.0197
 50
90.0
 51
182.0000000007102017
  0
ARC
  5
BA33
  8
0
 10
4449.4908283946106167
 20
156.2436687586335893
 30
0.0
 40
0.0197
 50
233.3997478819545961
 51
270.0
  0
LINE
  5
BA34
  8
0
 10
4450.679736814635362
 20
156.4389659233164878
 30
0.0
 11
4450.3954760475480725
 21
156.2278533060566019
 31
0.0
  0
LINE
  5
BA35
  8
0
 10
4450.7047206699471644
 20
156.9010911576505123
 30
0.0
 11
4450.7048213693651633
 21
156.9126301759334865
 31
0.0
  0
ARC
  5
BA36
  8
0
 10
4450.696820970754743
 20
156.9011600972335998
 30
0.0
 40
0.0079
 50
270.0
 51
359.5000003439702141
  0
ARC
  5
BA37
  8
0
 10
4450.3837303479176626
 20
156.2436687586335893
 30
0.0
 40
0.0197
 50
270.0
 51
306.6002521180453755
  0
LINE
  5
BA38
  8
0
 10
4450.7097172101175602
 20
156.8728725771483141
 30
0.0
 11
4450.6956214139609074
 21
156.4692217882997909
 31
0.0
  0
ARC
  5
BA39
  8
0
 10
4450.6562454153763611
 20
156.4705968284702919
 30
0.0
 40
0.0394
 50
306.6002521180463987
 51
357.9999999992912763
  0
ARC
  5
BA3A
  8
0
 10
4450.6900292108266513
 20
156.8735600972335078
 30
0.0
 40
0.0197
 50
357.9999999992896846
 51
90.0
  0
LINE
  5
BA3B
  8
0
 10
4449.6828405860906059
 20
156.4935562734210066
 30
0.0
 11
4449.6828405860906059
 21
156.8932600972335081
 31
0.0
  0
LINE
  5
BA3C
  8
0
 10
4450.1929205949509196
 20
156.4922259417670887
 30
0.0
 11
4450.1929205949509196
 21
156.8932600972335081
 31
0.0
  0
ARC
  5
BA3D
  8
0
 10
4449.9404067206087348
 20
157.3118368222172023
 30
0.0
 40
0.886264522098585
 50
255.0713292167947941
 51
284.5752013627758856
  0
ARC
  5
BA3E
  8
0
 10
4449.7222405860902654
 20
156.4935562734210919
 30
0.0
 40
0.0394
 50
180.0000000000194973
 51
255.0713292167918098
  0
ARC
  5
BA3F
  8
0
 10
4450.1535205949512601
 20
156.4922259417670887
 30
0.0
 40
0.0394
 50
284.5752013628301142
 51
359.9999999999756142
  0
LINE
  5
BA40
  8
0
 10
4450.1677524693177475
 20
156.4554861302266033
 30
0.0
 11
4450.6926325944168639
 21
156.4554861302266033
 31
0.0
  0
LINE
  5
BA41
  8
0
 10
4449.7120905024858075
 20
156.4554861302266033
 30
0.0
 11
4449.1819261481132344
 21
156.4554861302266033
 31
0.0
  0
ENDSEC
  0
EOF
