  0
SECTION
  2
HEADER
  9
$ACADVER
  1
AC1009
  9
$INSBASE
 10
503.2050866062268142
 20
3.494098423703476
 30
0.0
  9
$EXTMIN
 10
495.8542970170129252
 20
-14.6261015762964899
 30
0.0
  9
$EXTMAX
 10
510.5558761954129068
 20
3.499004123563775
 30
0.0
  9
$LIMMIN
 10
0.0
 20
0.0
  9
$LIMMAX
 10
11.6929133858000007
 20
8.2677165353999982
  9
$ORTHOMODE
 70
     1
  9
$REGENMODE
 70
     1
  9
$FILLMODE
 70
     1
  9
$QTEXTMODE
 70
     0
  9
$MIRRTEXT
 70
     0
  9
$DRAGMODE
 70
     2
  9
$LTSCALE
 40
0.6431102362
  9
$OSMODE
 70
  4095
  9
$ATTMODE
 70
     1
  9
$TEXTSIZE
 40
0.2
  9
$TRACEWID
 40
0.05
  9
$TEXTSTYLE
  7
STANDARD
  9
$CLAYER
  8
0
  9
$CELTYPE
  6
BYLAYER
  9
$CECOLOR
 62
   256
  9
$DIMSCALE
 40
1.0
  9
$DIMASZ
 40
0.1875
  9
$DIMEXO
 40
0.0625
  9
$DIMDLI
 40
0.4443307087
  9
$DIMRND
 40
0.0
  9
$DIMDLE
 40
0.0
  9
$DIMEXE
 40
0.125
  9
$DIMTP
 40
0.01
  9
$DIMTM
 40
0.01
  9
$DIMTXT
 40
1.0
  9
$DIMCEN
 40
0.1052362205
  9
$DIMTSZ
 40
0.0
  9
$DIMTOL
 70
     1
  9
$DIMLIM
 70
     0
  9
$DIMTIH
 70
     1
  9
$DIMTOH
 70
     1
  9
$DIMSE1
 70
     0
  9
$DIMSE2
 70
     0
  9
$DIMTAD
 70
     0
  9
$DIMZIN
 70
     0
  9
$DIMBLK
  1

  9
$DIMASO
 70
     1
  9
$DIMSHO
 70
     1
  9
$DIMPOST
  1
\X
  9
$DIMAPOST
  1

  9
$DIMALT
 70
     1
  9
$DIMALTD
 70
     2
  9
$DIMALTF
 40
25.3999999999999986
  9
$DIMLFAC
 40
1.0
  9
$DIMTOFL
 70
     0
  9
$DIMTVP
 40
0.0
  9
$DIMTIX
 70
     0
  9
$DIMSOXD
 70
     0
  9
$DIMSAH
 70
     0
  9
$DIMBLK1
  1

  9
$DIMBLK2
  1

  9
$DIMSTYLE
  2
STANDARD
  9
$DIMCLRD
 70
     0
  9
$DIMCLRE
 70
     0
  9
$DIMCLRT
 70
     0
  9
$DIMTFAC
 40
1.0
  9
$DIMGAP
 40
0.09
  9
$LUNITS
 70
     2
  9
$LUPREC
 70
     4
  9
$SKETCHINC
 40
0.1
  9
$FILLETRAD
 40
0.0
  9
$AUNITS
 70
     0
  9
$AUPREC
 70
     0
  9
$MENU
  1
.
  9
$ELEVATION
 40
0.0
  9
$PELEVATION
 40
0.0
  9
$THICKNESS
 40
0.0
  9
$LIMCHECK
 70
     0
  9
$BLIPMODE
 70
     0
  9
$CHAMFERA
 40
0.0
  9
$CHAMFERB
 40
0.0
  9
$SKPOLY
 70
     0
  9
$TDCREATE
 40
2458306.6094560190103948
  9
$TDUPDATE
 40
2459885.7609374998137355
  9
$TDINDWG
 40
0.060205787
  9
$TDUSRTIMER
 40
0.0602056597
  9
$USRTIMER
 70
     1
  9
$ANGBASE
 50
0.0
  9
$ANGDIR
 70
     0
  9
$PDMODE
 70
     0
  9
$PDSIZE
 40
0.3125
  9
$PLINEWID
 40
0.0
  9
$COORDS
 70
     1
  9
$SPLFRAME
 70
     0
  9
$SPLINETYPE
 70
     6
  9
$SPLINESEGS
 70
     8
  9
$ATTDIA
 70
     1
  9
$ATTREQ
 70
     1
  9
$HANDLING
 70
     1
  9
$HANDSEED
  5
1C7E
  9
$SURFTAB1
 70
     6
  9
$SURFTAB2
 70
     6
  9
$SURFTYPE
 70
     6
  9
$SURFU
 70
     6
  9
$SURFV
 70
     6
  9
$UCSNAME
  2

  9
$UCSORG
 10
0.0
 20
0.0
 30
0.0
  9
$UCSXDIR
 10
1.0
 20
0.0
 30
0.0
  9
$UCSYDIR
 10
0.0
 20
1.0
 30
0.0
  9
$PUCSNAME
  2

  9
$PUCSORG
 10
0.0
 20
0.0
 30
0.0
  9
$PUCSXDIR
 10
1.0
 20
0.0
 30
0.0
  9
$PUCSYDIR
 10
0.0
 20
1.0
 30
0.0
  9
$USERI1
 70
     0
  9
$USERI2
 70
     0
  9
$USERI3
 70
     0
  9
$USERI4
 70
     0
  9
$USERI5
 70
     0
  9
$USERR1
 40
0.0
  9
$USERR2
 40
0.0
  9
$USERR3
 40
0.0
  9
$USERR4
 40
0.0
  9
$USERR5
 40
0.0
  9
$WORLDVIEW
 70
     1
  9
$SHADEDGE
 70
     3
  9
$SHADEDIF
 70
    70
  9
$TILEMODE
 70
     1
  9
$MAXACTVP
 70
    64
  9
$PLIMCHECK
 70
     0
  9
$PEXTMIN
 10
1.0000000000000000E+20
 20
1.0000000000000000E+20
 30
1.0000000000000000E+20
  9
$PEXTMAX
 10
-1.0000000000000000E+20
 20
-1.0000000000000000E+20
 30
-1.0000000000000000E+20
  9
$PLIMMIN
 10
0.0
 20
0.0
  9
$PLIMMAX
 10
12.0
 20
9.0
  9
$UNITMODE
 70
     0
  9
$VISRETAIN
 70
     1
  9
$PLINEGEN
 70
     0
  9
$PSLTSCALE
 70
     1
  0
ENDSEC
  0
SECTION
  2
TABLES
  0
TABLE
  2
VPORT
 70
     1
  0
VPORT
  2
*ACTIVE
 70
     0
 10
0.0
 20
0.0
 11
1.0
 21
1.0
 12
0.0
 22
0.0
 13
0.0
 23
0.0
 14
1.0
 24
1.0
 15
0.0
 25
0.0
 16
0.0
 26
0.0
 36
66.8594792365031054
 17
503.2050933837890057
 27
-5.5635486851358369
 37
0.0
 40
23.3378570791268984
 41
2.1481900452488678
 42
50.0
 43
0.0
 44
0.0
 50
0.0
 51
0.0
 71
     0
 72
   100
 73
     1
 74
     1
 75
     0
 76
     0
 77
     0
 78
     0
  0
ENDTAB
  0
TABLE
  2
LTYPE
 70
     1
  0
LTYPE
  2
CONTINUOUS
 70
     0
  3
Solid line
 72
    65
 73
     0
 40
0.0
  0
ENDTAB
  0
TABLE
  2
LAYER
 70
     2
  0
LAYER
  2
0
 70
     0
 62
   255
  6
CONTINUOUS
  0
LAYER
  2
DEFPOINT
 70
     0
 62
     7
  6
CONTINUOUS
  0
ENDTAB
  0
TABLE
  2
STYLE
 70
     1
  0
STYLE
  2
STANDARD
 70
     0
 40
0.0
 41
0.8
 50
0.0
 71
     0
 42
0.2
  3
txt
  4

  0
ENDTAB
  0
TABLE
  2
VIEW
 70
     0
  0
ENDTAB
  0
TABLE
  2
UCS
 70
     0
  0
ENDTAB
  0
TABLE
  2
APPID
 70
    10
  0
APPID
  2
ACAD
 70
     0
  0
APPID
  2
ACADANNOTATIVE
 70
     0
  0
APPID
  2
ACAD_MLEADERVER
 70
     0
  0
APPID
  2
ACAD_EXEMPT_FROM_CAD_STANDARDS
 70
     0
  0
APPID
  2
ACAD_DSTYLE_DIMJAG
 70
     0
  0
APPID
  2
ACAD_DSTYLE_DIMTALN
 70
     0
  0
APPID
  2
ACAD_NAV_VCDISPLAY
 70
     0
  0
APPID
  2
ACAECLAYERSTANDARD
 70
     0
  0
APPID
  2
ACCMTRANSPARENCY
 70
     0
  0
APPID
  2
ACDBATTR
 70
     0
  0
ENDTAB
  0
TABLE
  2
DIMSTYLE
 70
     1
  0
DIMSTYLE
  2
STANDARD
 70
     0
  3

  4

  5

  6

  7

 40
1.0
 41
0.1875
 42
0.0625
 43
0.38
 44
0.125
 45
0.0
 46
0.0
 47
0.01
 48
0.01
140
0.15625
141
0.09
142
0.0
143
25.3999999999999986
144
1.0
145
0.0
146
1.0
147
0.09
 71
     1
 72
     0
 73
     1
 74
     1
 75
     0
 76
     0
 77
     0
 78
     4
170
     0
171
     2
172
     0
173
     0
174
     0
175
     0
176
     0
177
     0
178
     0
  0
ENDTAB
  0
ENDSEC
  0
SECTION
  2
BLOCKS
  0
BLOCK
  8
0
  2
$MODEL_SPACE
 70
     0
 10
0.0
 20
0.0
 30
0.0
  3
$MODEL_SPACE
  1

  0
ENDBLK
  5
1598
  8
0
  0
BLOCK
 67
     1
  8
0
  2
$PAPER_SPACE
 70
     0
 10
0.0
 20
0.0
 30
0.0
  3
$PAPER_SPACE
  1

  0
ENDBLK
  5
1594
 67
     1
  8
0
  0
ENDSEC
  0
SECTION
  2
ENTITIES
  0
ATTDEF
  5
659
  8
DEFPOINT
 10
503.2021781899304074
 20
3.4980041235637742
 30
0.0
 40
0.001
  1
K-26802
  3

  2
MODELNUMBER
 70
     0
1001
ACDBATTR
1070
     0
1070
     1
  0
ATTDEF
  5
65A
  8
DEFPOINT
 10
503.2021781899304074
 20
3.4963374568971091
 30
0.0
 40
0.001
  1
IMPRO
  3

  2
TRADENAME
 70
     0
1001
ACDBATTR
1070
     0
1070
     1
  0
ATTDEF
  5
65B
  8
DEFPOINT
 10
503.2021781899304074
 20
3.4946707902304439
 30
0.0
 40
0.001
  1
TOILET SEAT
  3

  2
PRODUCT
 70
     0
1001
ACDBATTR
1070
     0
1070
     1
  0
LINE
  5
1B7D
  8
0
 10
499.6818175580128809
 20
1.7108637801335711
 30
0.0
 11
499.6918646156128716
 21
1.852253242133564
 31
0.0
  0
LINE
  5
1B7E
  8
0
 10
499.691296925912809
 20
1.8834125318335699
 30
0.0
 11
499.6976678379128884
 21
1.806610670233574
 31
0.0
  0
LINE
  5
1B7F
  8
0
 10
501.3584896514129241
 20
1.851923257233572
 30
0.0
 11
501.3550866608129013
 21
1.82798552273357
 31
0.0
  0
LINE
  5
1B80
  8
0
 10
501.2264313486128913
 20
1.807586461333571
 30
0.0
 11
501.2293588775128796
 21
1.8279855228335711
 31
0.0
  0
LINE
  5
1B81
  8
0
 10
499.1684464318202004
 20
1.3185586965335641
 30
0.0
 11
499.1471715755635046
 21
1.3185586965335641
 31
0.0
  0
LINE
  5
1B82
  8
0
 10
499.1672136440636223
 20
1.435626911266261
 30
0.0
 11
499.1442482090113231
 21
1.4356269021352679
 31
0.0
  0
LINE
  5
1B83
  8
0
 10
499.6794483112761895
 20
1.495779293998204
 30
0.0
 11
499.6572825147738968
 21
1.4957791987078151
 31
0.0
  0
LINE
  5
1B84
  8
0
 10
499.1668154839634894
 20
1.4957791965335681
 30
0.0
 11
499.1436469921948174
 21
1.4957791965335681
 31
0.0
  0
LINE
  5
1B85
  8
0
 10
499.225803852213005
 20
1.759558696533567
 30
0.0
 11
499.6066611153128747
 21
1.759558696533567
 31
0.0
  0
LINE
  5
1B86
  8
0
 10
499.7616621095128835
 20
1.8066106723335691
 30
0.0
 11
499.6976678366128795
 21
1.8066106723335691
 31
0.0
  0
LINE
  5
1B87
  8
0
 10
501.2264313486128913
 20
1.807586461333571
 30
0.0
 11
500.6216120291128959
 21
1.807586461233569
 31
0.0
  0
LINE
  5
1B88
  8
0
 10
500.3785612655128716
 20
1.8075864616335691
 30
0.0
 11
499.7699218373128929
 21
1.8075864616335691
 31
0.0
  0
LINE
  5
1B89
  8
0
 10
501.3550866608129013
 20
1.82798552273357
 30
0.0
 11
501.2293588775128796
 21
1.82798552273357
 31
0.0
  0
LINE
  5
1B8A
  8
0
 10
506.6119808395129098
 20
1.851923257233572
 30
0.0
 11
499.7981923732128848
 21
1.851923257233572
 31
0.0
  0
ARC
  5
1B8B
  8
0
 10
499.0087018266762016
 20
1.840426117394713
 30
0.0
 40
2.1882479123183769
 50
0.0116853975193264
 51
0.3010356442254869
  0
ARC
  5
1B8C
  8
0
 10
497.6056525870129121
 20
1.8618248748335651
 30
0.0
 40
2.1825745125
 50
359.1228833344998179
 51
359.626407957500021
  0
ARC
  5
1B8D
  8
0
 10
498.1281989095334097
 20
1.843117492160679
 30
0.0
 40
1.6703912229152289
 50
359.9194449109414222
 51
0.3020463134908314
  0
ARC
  5
1B8E
  8
0
 10
500.5000866608128831
 20
2.459558696533569
 30
0.0
 40
0.6501342599000001
 50
249.1685638770904916
 51
290.8314361229095084
  0
ARC
  5
1B8F
  8
0
 10
500.5000866608128831
 20
2.361617986433572
 30
0.0
 40
0.5663396442999999
 50
258.153791042899627
 51
281.8462054777986054
  0
ARC
  5
1B90
  8
0
 10
500.3794710541650943
 20
1.7706536499455861
 30
0.0
 40
0.0369440156801033
 50
83.2312279790063485
 51
91.4111167726482137
  0
ARC
  5
1B91
  8
0
 10
541.3810662138129146
 20
1.28265120883357
 30
0.0
 40
41.7021625251000003
 50
179.5874917756000002
 51
179.9956618760660092
  0
ARC
  5
1B92
  8
0
 10
503.2970782541032122
 20
-7.4863716332455317
 30
0.0
 40
7.1403225503460224
 50
250.1258426221889977
 51
269.2618150011908824
  0
ARC
  5
1B93
  8
0
 10
503.230252523115098
 20
-7.7307838644355584
 30
0.0
 40
6.8877791112266573
 50
215.0224409275895141
 51
249.9574468992165919
  0
ARC
  5
1B94
  8
0
 10
505.650467808407825
 20
-6.1487992383914678
 30
0.0
 40
9.7781024638552232
 50
187.206455052704996
 51
214.4750028984757932
  0
ARC
  5
1B95
  8
0
 10
564.6187222203201372
 20
-1.7563161543317489
 30
0.0
 40
68.8986333325651117
 50
183.5767802615604012
 51
184.6780104968867136
  0
ARC
  5
1B96
  8
0
 10
513.8211039580609167
 20
-6.4958161740799616
 30
0.0
 40
17.9722229269010683
 50
169.1564631018069917
 51
178.5933488702351895
  0
ARC
  5
1B97
  8
0
 10
506.6459364523784075
 20
-5.4045658484819583
 30
0.0
 40
10.7234828772096904
 50
144.6373461144434032
 51
167.670499469224211
  0
ARC
  5
1B98
  8
0
 10
501.6904027431825739
 20
-1.5795176249551011
 30
0.0
 40
4.4755363113050564
 50
135.7651240806964097
 51
147.8566013912970902
  0
ARC
  5
1B99
  8
0
 10
499.1208605449426159
 20
0.7852410578399472
 30
0.0
 40
0.9897198382124001
 50
92.1144583507643517
 51
130.0709043263451008
  0
ARC
  5
1B9A
  8
0
 10
499.0863221321721994
 20
1.72412407802895
 30
0.0
 40
0.0502019222308876
 50
2.4704653529844771
 51
92.2582891513253571
  0
ARC
  5
1B9B
  8
0
 10
499.1943374066418073
 20
1.33589283801438
 30
0.0
 40
0.0502502545483692
 50
180.0959933377120024
 51
265.340339599949516
  0
ARC
  5
1B9C
  8
0
 10
492.2532734360676159
 20
1.396831375758921
 30
0.0
 40
6.8910839796227776
 50
359.4926211246507251
 51
2.7403051074146472
  0
ARC
  5
1B9D
  8
0
 10
521.8241092053995089
 20
1.6156749299792419
 30
0.0
 40
22.6576109456915304
 50
179.7757086460094911
 51
180.8166324675395913
  0
ARC
  5
1B9E
  8
0
 10
499.2315002061505993
 20
1.6941823397817111
 30
0.0
 40
0.0656240540528301
 50
94.9797029534774566
 51
171.0685050833479863
  0
ARC
  5
1B9F
  8
0
 10
499.6042884580965051
 20
1.7095523651038951
 30
0.0
 40
0.0500625876810393
 50
2.6651288496231151
 51
87.283516602360109
  0
ARC
  5
1BA0
  8
0
 10
480.4898972228322123
 20
1.3390366319381279
 30
0.0
 40
19.1680261676048609
 50
359.8408943355108249
 51
1.114549303301666
  0
ARC
  5
1BA1
  8
0
 10
505.8405970237992051
 20
1.55864713104377
 30
0.0
 40
6.160660225694274
 50
178.5842005798197079
 51
179.7745471376296962
  0
ARC
  5
1BA2
  8
0
 10
499.7121026095338721
 20
1.8508158418209739
 30
0.0
 40
0.020288975272404
 50
157.5311412517820031
 51
175.9373984728308926
  0
ARC
  5
1BA3
  8
0
 10
717.6429722613702324
 20
-2.2457767429309641
 30
0.0
 40
217.990786469543707
 50
178.7830646572699038
 51
178.9146363831962958
  0
ARC
  5
1BA4
  8
0
 10
500.9773946850598918
 20
2.2458382795120211
 30
0.0
 40
1.283487735093539
 50
121.2388391152163933
 51
173.8250308558646111
  0
ARC
  5
1BA5
  8
0
 10
503.503511433971596
 20
-80.1760577415424649
 30
0.0
 40
83.6706883567624971
 50
90.2043549505826263
 51
91.7905511920521064
  0
ARC
  5
1BA6
  8
0
 10
500.9810173944011922
 20
1.4107479404197241
 30
0.0
 40
2.0450932511464388
 50
92.5748342184355693
 51
109.101688555680596
  0
ARC
  5
1BA7
  8
0
 10
499.7629732727120881
 20
1.819230991436867
 30
0.0
 40
0.0648011655256234
 50
103.5559802338044051
 51
147.1033050924897907
  0
ARC
  5
1BA8
  8
0
 10
499.783869304928885
 20
1.8072339534246351
 30
0.0
 40
0.088871606034982
 50
147.9258784143395928
 51
170.0300253346200918
  0
ARC
  5
1BA9
  8
0
 10
501.2314246245618961
 20
1.8417081033732501
 30
0.0
 40
0.0344850585063704
 50
181.388616673070203
 51
261.6745717371717888
  0
ARC
  5
1BAA
  8
0
 10
501.2308174573112183
 20
1.8597225233254659
 30
0.0
 40
0.0317704998645015
 50
194.2106555284385934
 51
267.3686327652894192
  0
ARC
  5
1BAB
  8
0
 10
499.7616136378176179
 20
1.8437015988624159
 30
0.0
 40
0.0370909582010712
 50
270.0748760477719088
 51
355.465178509350892
  0
ARC
  5
1BAC
  8
0
 10
499.761077716925513
 20
1.8404039174655791
 30
0.0
 40
0.0337982977566676
 50
270.9907273344790042
 51
303.9729965731381753
  0
ARC
  5
1BAD
  8
0
 10
499.7669471960242049
 20
1.8288915831175101
 30
0.0
 40
0.0210295845841213
 50
308.2423424143245256
 51
358.6989073838519175
  0
ARC
  5
1BAE
  8
0
 10
499.798727161028296
 20
1.836946357744828
 30
0.0
 40
0.0149864444290286
 50
92.0450220136043669
 51
134.7272905910338068
  0
ARC
  5
1BAF
  8
0
 10
500.512908330480002
 20
2.488107462297485
 30
0.0
 40
0.6928971972576478
 50
246.657239953852212
 51
259.2633847283956925
  0
ARC
  5
1BB0
  8
0
 10
500.6214019724033051
 20
1.7556996843103569
 30
0.0
 40
0.051887202114783
 50
89.7680469306797022
 51
95.5897462113084941
  0
ARC
  5
1BB1
  8
0
 10
500.4872647544909228
 20
2.4881080123250352
 30
0.0
 40
0.6928977824098678
 50
280.7366231817538846
 51
293.3427573812488163
  0
ARC
  5
1BB2
  8
0
 10
499.703644607904323
 20
1.705722672410388
 30
0.0
 40
0.022424341586432
 50
95.0332856693028702
 51
166.7462203976342039
  0
ARC
  5
1BB3
  8
0
 10
499.0916590013017071
 20
1.245576991414985
 30
0.0
 40
0.0887428017356999
 50
49.0668069431271192
 51
88.7879839839551011
  0
ARC
  5
1BB4
  8
0
 10
499.0706588583822167
 20
-1.2608724345215441
 30
0.0
 40
2.5952732061705182
 50
89.4949332475837167
 51
99.209332560128388
  0
ARC
  5
1BB5
  8
0
 10
498.8465156734750963
 20
0.2619723870916673
 30
0.0
 40
1.0564241058567909
 50
100.4278303696986967
 51
119.3532072954230046
  0
ARC
  5
1BB6
  8
0
 10
499.6644939689094258
 20
-0.7472641063064529
 30
0.0
 40
2.3472236418063588
 50
124.6882038495014058
 51
138.7084586484392901
  0
LINE
  5
1BB7
  8
0
 10
506.7283556544128942
 20
1.7108637801335711
 30
0.0
 11
506.7183085968129035
 21
1.852253242133564
 31
0.0
  0
LINE
  5
1BB8
  8
0
 10
506.7188762865129092
 20
1.8834125318335699
 30
0.0
 11
506.7125053745128866
 21
1.806610670233574
 31
0.0
  0
LINE
  5
1BB9
  8
0
 10
505.0516835610129078
 20
1.851923257233572
 30
0.0
 11
505.0550865516128738
 21
1.82798552273357
 31
0.0
  0
LINE
  5
1BBA
  8
0
 10
505.1837418638128838
 20
1.807586461333571
 30
0.0
 11
505.1808143349128954
 21
1.8279855228335711
 31
0.0
  0
LINE
  5
1BBB
  8
0
 10
507.2417267806055747
 20
1.3185586965335641
 30
0.0
 11
507.2630016368622137
 21
1.3185586965335641
 31
0.0
  0
LINE
  5
1BBC
  8
0
 10
507.2429595683622097
 20
1.435626911266261
 30
0.0
 11
507.2659250034145089
 21
1.4356269021352679
 31
0.0
  0
LINE
  5
1BBD
  8
0
 10
506.7307249011495855
 20
1.495779293998204
 30
0.0
 11
506.7528906976518215
 21
1.4957791987078151
 31
0.0
  0
LINE
  5
1BBE
  8
0
 10
507.2433577284622856
 20
1.4957791965335681
 30
0.0
 11
507.2665262202309009
 21
1.4957791965335681
 31
0.0
  0
LINE
  5
1BBF
  8
0
 10
507.1843693602128837
 20
1.759558696533567
 30
0.0
 11
506.8035120971130141
 21
1.759558696533567
 31
0.0
  0
LINE
  5
1BC0
  8
0
 10
506.6485111029130053
 20
1.8066106723335691
 30
0.0
 11
506.7125053758128956
 21
1.8066106723335691
 31
0.0
  0
LINE
  5
1BC1
  8
0
 10
505.1837418638128838
 20
1.807586461333571
 30
0.0
 11
505.7885611833128792
 21
1.807586461233569
 31
0.0
  0
LINE
  5
1BC2
  8
0
 10
506.0316119469129035
 20
1.8075864616335691
 30
0.0
 11
506.6402513751128822
 21
1.8075864616335691
 31
0.0
  0
LINE
  5
1BC3
  8
0
 10
505.0550865516128738
 20
1.82798552273357
 30
0.0
 11
505.1808143349128954
 21
1.82798552273357
 31
0.0
  0
ARC
  5
1BC4
  8
0
 10
507.4014713857495735
 20
1.840426117394713
 30
0.0
 40
2.1882479123183769
 50
179.6989643557745069
 51
179.9883146024810969
  0
ARC
  5
1BC5
  8
0
 10
508.8045206254129198
 20
1.8618248748335651
 30
0.0
 40
2.1825745125
 50
180.3735920425000074
 51
180.8771166654996989
  0
ARC
  5
1BC6
  8
0
 10
508.2819743028924222
 20
1.843117492160679
 30
0.0
 40
1.6703912229152289
 50
179.6979536865092086
 51
180.0805550890584925
  0
ARC
  5
1BC7
  8
0
 10
505.910086551612892
 20
2.459558696533569
 30
0.0
 40
0.6501342599000001
 50
249.1685638770904916
 51
290.8314361229095084
  0
ARC
  5
1BC8
  8
0
 10
505.910086551612892
 20
2.361617986433572
 30
0.0
 40
0.5663396442999999
 50
258.1537945222013946
 51
281.846208957100373
  0
ARC
  5
1BC9
  8
0
 10
506.0307021582606808
 20
1.7706536499455861
 30
0.0
 40
0.0369440156801033
 50
88.5888832273518148
 51
96.7687720209936515
  0
ARC
  5
1BCA
  8
0
 10
465.0291069986129173
 20
1.28265120883357
 30
0.0
 40
41.7021625251000003
 50
0.0043381239336212
 51
0.4125082243999766
  0
ARC
  5
1BCB
  8
0
 10
503.1130949583226197
 20
-7.4863716332455317
 30
0.0
 40
7.1403225503460224
 50
270.7381849988058207
 51
289.8741573778110023
  0
ARC
  5
1BCC
  8
0
 10
503.1799206893107907
 20
-7.730783864435586
 30
0.0
 40
6.8877791112266262
 50
290.0425531007833229
 51
324.9775590724105996
  0
ARC
  5
1BCD
  8
0
 10
500.7597054040178932
 20
-6.1487992383914678
 30
0.0
 40
9.7781024638552232
 50
325.5249971015242068
 51
352.7935449472948903
  0
ARC
  5
1BCE
  8
0
 10
441.7914509921056947
 20
-1.7563161543317489
 30
0.0
 40
68.8986333325651117
 50
355.3219895031132864
 51
356.4232197384396272
  0
ARC
  5
1BCF
  8
0
 10
492.5890692543649152
 20
-6.4958161740799616
 30
0.0
 40
17.9722229269010683
 50
1.406651129764789
 51
10.8435368981929496
  0
ARC
  5
1BD0
  8
0
 10
499.7642367600474813
 20
-5.4045658484819583
 30
0.0
 40
10.7234828772096904
 50
12.3295005307757801
 51
35.3626538855565968
  0
ARC
  5
1BD1
  8
0
 10
504.7197704692433149
 20
-1.5795176249551011
 30
0.0
 40
4.4755363113050564
 50
32.14339860870286
 51
44.2348759193036116
  0
ARC
  5
1BD2
  8
0
 10
507.289312667483216
 20
0.7852410578399472
 30
0.0
 40
0.9897198382124001
 50
49.9290956736548566
 51
87.8855416492356767
  0
ARC
  5
1BD3
  8
0
 10
507.3238510802535757
 20
1.72412407802895
 30
0.0
 40
0.0502019222308876
 50
87.7417108486746429
 51
177.5295346470155096
  0
ARC
  5
1BD4
  8
0
 10
507.2158358057840246
 20
1.33589283801438
 30
0.0
 40
0.0502502545483692
 50
274.659660400050484
 51
359.9040066622875997
  0
ARC
  5
1BD5
  8
0
 10
514.1568997763582729
 20
1.396831375758921
 30
0.0
 40
6.8910839796227776
 50
177.2596948925852871
 51
180.5073788753489055
  0
ARC
  5
1BD6
  8
0
 10
484.586064007026323
 20
1.6156749299792419
 30
0.0
 40
22.6576109456915304
 50
359.1833675324604087
 51
0.2242913539900437
  0
ARC
  5
1BD7
  8
0
 10
507.1786730062751758
 20
1.6941823397817111
 30
0.0
 40
0.0656240540528301
 50
8.9314949166520066
 51
85.0202970465225434
  0
ARC
  5
1BD8
  8
0
 10
506.8058847543293837
 20
1.7095523651038951
 30
0.0
 40
0.0500625876810393
 50
92.7164833976399052
 51
177.3348711503768982
  0
ARC
  5
1BD9
  8
0
 10
525.9202759895936197
 20
1.3390366319381279
 30
0.0
 40
19.1680261676048609
 50
178.8854506966983138
 51
180.1591056644892035
  0
ARC
  5
1BDA
  8
0
 10
500.5695761886266268
 20
1.55864713104377
 30
0.0
 40
6.160660225694274
 50
0.2254528623707323
 51
1.415799420180339
  0
ARC
  5
1BDB
  8
0
 10
506.698070602891903
 20
1.8508158418209739
 30
0.0
 40
0.020288975272404
 50
4.0626015271691136
 51
22.4688587482179685
  0
ARC
  5
1BDC
  8
0
 10
288.7672009510555995
 20
-2.2457767429309641
 30
0.0
 40
217.990786469543707
 50
1.0853636168032961
 51
1.216935342730084
  0
ARC
  5
1BDD
  8
0
 10
505.4327785273658833
 20
2.2458382795120211
 30
0.0
 40
1.283487735093539
 50
6.1749691441353756
 51
58.7611608847836209
  0
ARC
  5
1BDE
  8
0
 10
502.9066617784541791
 20
-80.1760577415424649
 30
0.0
 40
83.6706883567624971
 50
88.2094488079478936
 51
89.7956450494173879
  0
ARC
  5
1BDF
  8
0
 10
505.4291558180245829
 20
1.4107479404197241
 30
0.0
 40
2.0450932511464388
 50
70.8983114443194182
 51
87.425165781564445
  0
ARC
  5
1BE0
  8
0
 10
506.6471999397136869
 20
1.819230991436867
 30
0.0
 40
0.0648011655256234
 50
32.896694907510188
 51
76.4440197661956091
  0
ARC
  5
1BE1
  8
0
 10
506.6263039074968901
 20
1.8072339534246351
 30
0.0
 40
0.088871606034982
 50
9.9699746653798282
 51
32.0741215856604001
  0
ARC
  5
1BE2
  8
0
 10
505.1787485878638222
 20
1.8417081033732501
 30
0.0
 40
0.0344850585063704
 50
278.3254282628282112
 51
358.611383326929797
  0
ARC
  5
1BE3
  8
0
 10
505.1793557551146137
 20
1.8597225233254659
 30
0.0
 40
0.0317704998645015
 50
272.6313672347105808
 51
345.7893444715613782
  0
ARC
  5
1BE4
  8
0
 10
506.648559574608214
 20
1.8437015988624159
 30
0.0
 40
0.0370909582010712
 50
184.534821490649108
 51
269.9251239522280912
  0
ARC
  5
1BE5
  8
0
 10
506.649095495500319
 20
1.8404039174655791
 30
0.0
 40
0.0337982977566676
 50
236.0270034268617962
 51
269.0092726655209958
  0
ARC
  5
1BE6
  8
0
 10
506.643226016401627
 20
1.8288915831175101
 30
0.0
 40
0.0210295845841213
 50
181.301092616147713
 51
231.7576575856755028
  0
ARC
  5
1BE7
  8
0
 10
506.6114460513974791
 20
1.836946357744828
 30
0.0
 40
0.0149864444290286
 50
45.2727094089661293
 51
87.9549779863956331
  0
ARC
  5
1BE8
  8
0
 10
505.8972648819457731
 20
2.488107462297485
 30
0.0
 40
0.6928971972576478
 50
280.7366152716041938
 51
293.3427600461478164
  0
ARC
  5
1BE9
  8
0
 10
505.7887712400225269
 20
1.7556996843103569
 30
0.0
 40
0.051887202114783
 50
84.4102537886914916
 51
90.231953069320312
  0
ARC
  5
1BEA
  8
0
 10
505.9229084579349092
 20
2.4881080123250352
 30
0.0
 40
0.6928977824098678
 50
246.6572426187512121
 51
259.2633768182461154
  0
ARC
  5
1BEB
  8
0
 10
506.7065286045215089
 20
1.705722672410388
 30
0.0
 40
0.022424341586432
 50
13.2537796023658494
 51
84.966714330697144
  0
ARC
  5
1BEC
  8
0
 10
507.3185142111241248
 20
1.245576991414985
 30
0.0
 40
0.0887428017356999
 50
91.2120160160448847
 51
130.9331930568727955
  0
ARC
  5
1BED
  8
0
 10
507.3395143540436152
 20
-1.2608724345215441
 30
0.0
 40
2.5952732061705182
 50
80.7906674398716262
 51
90.5050667524162833
  0
ARC
  5
1BEE
  8
0
 10
507.5636575389506788
 20
0.2619723870916673
 30
0.0
 40
1.0564241058567909
 50
60.6467927045769386
 51
79.5721696303012607
  0
ARC
  5
1BEF
  8
0
 10
506.7456792435164061
 20
-0.7472641063064529
 30
0.0
 40
2.3472236418063588
 50
41.2915413515603404
 51
55.31179615049858
  0
LINE
  5
1BF0
  8
0
 10
499.1902552369128898
 20
1.2858086691335791
 30
0.0
 11
507.219917975512999
 21
1.285808669133587
 31
0.0
  0
LINE
  5
1BF1
  8
0
 10
499.701677220362626
 20
1.7280605434335139
 30
0.0
 11
506.7084959920632059
 21
1.7280605434335139
 31
0.0
  0
LINE
  5
1BF2
  8
0
 10
499.7477841843376041
 20
1.8822268853334521
 30
0.0
 11
506.6623890280882279
 21
1.8822268853334521
 31
0.0
  0
ENDSEC
  0
EOF
