  0
SECTION
  2
HEADER
  9
$ACADVER
  1
AC1009
  9
$INSBASE
 10
3983.0563883318850458
 20
140.3949785150715002
 30
0.0
  9
$EXTMIN
 10
3981.9363883318837907
 20
140.0642698536715045
 30
0.0
  9
$EXTMAX
 10
3984.1763883318840271
 20
140.3999181961578131
 30
0.0
  9
$LIMMIN
 10
0.0
 20
0.0
  9
$LIMMAX
 10
11.6929133858000007
 20
8.2677165353999982
  9
$ORTHOMODE
 70
     0
  9
$REGENMODE
 70
     1
  9
$FILLMODE
 70
     1
  9
$QTEXTMODE
 70
     0
  9
$MIRRTEXT
 70
     0
  9
$DRAGMODE
 70
     2
  9
$LTSCALE
 40
0.6431102362
  9
$OSMODE
 70
  3839
  9
$ATTMODE
 70
     1
  9
$TEXTSIZE
 40
0.2
  9
$TRACEWID
 40
0.05
  9
$TEXTSTYLE
  7
STANDARD
  9
$CLAYER
  8
0
  9
$CELTYPE
  6
BYLAYER
  9
$CECOLOR
 62
   256
  9
$DIMSCALE
 40
1.0
  9
$DIMASZ
 40
0.1875
  9
$DIMEXO
 40
0.0625
  9
$DIMDLI
 40
0.4443307087
  9
$DIMRND
 40
0.0
  9
$DIMDLE
 40
0.0
  9
$DIMEXE
 40
0.125
  9
$DIMTP
 40
0.01
  9
$DIMTM
 40
0.01
  9
$DIMTXT
 40
2.0
  9
$DIMCEN
 40
0.1052362205
  9
$DIMTSZ
 40
0.0
  9
$DIMTOL
 70
     1
  9
$DIMLIM
 70
     0
  9
$DIMTIH
 70
     1
  9
$DIMTOH
 70
     1
  9
$DIMSE1
 70
     0
  9
$DIMSE2
 70
     0
  9
$DIMTAD
 70
     0
  9
$DIMZIN
 70
     0
  9
$DIMBLK
  1

  9
$DIMASO
 70
     1
  9
$DIMSHO
 70
     1
  9
$DIMPOST
  1
\X
  9
$DIMAPOST
  1

  9
$DIMALT
 70
     1
  9
$DIMALTD
 70
     2
  9
$DIMALTF
 40
25.3999999999999986
  9
$DIMLFAC
 40
1.0
  9
$DIMTOFL
 70
     0
  9
$DIMTVP
 40
0.0
  9
$DIMTIX
 70
     0
  9
$DIMSOXD
 70
     0
  9
$DIMSAH
 70
     0
  9
$DIMBLK1
  1

  9
$DIMBLK2
  1

  9
$DIMSTYLE
  2
STANDARD
  9
$DIMCLRD
 70
     0
  9
$DIMCLRE
 70
     0
  9
$DIMCLRT
 70
     0
  9
$DIMTFAC
 40
1.0
  9
$DIMGAP
 40
0.09
  9
$LUNITS
 70
     2
  9
$LUPREC
 70
     4
  9
$SKETCHINC
 40
0.1
  9
$FILLETRAD
 40
0.0
  9
$AUNITS
 70
     0
  9
$AUPREC
 70
     0
  9
$MENU
  1
.
  9
$ELEVATION
 40
0.0
  9
$PELEVATION
 40
0.0
  9
$THICKNESS
 40
0.0
  9
$LIMCHECK
 70
     0
  9
$BLIPMODE
 70
     0
  9
$CHAMFERA
 40
0.0
  9
$CHAMFERB
 40
0.0
  9
$SKPOLY
 70
     0
  9
$TDCREATE
 40
2458060.468368056230247
  9
$TDUPDATE
 40
2459079.7617824068292975
  9
$TDINDWG
 40
0.3956667824
  9
$TDUSRTIMER
 40
0.3956667824
  9
$USRTIMER
 70
     1
  9
$ANGBASE
 50
0.0
  9
$ANGDIR
 70
     0
  9
$PDMODE
 70
     0
  9
$PDSIZE
 40
0.3125
  9
$PLINEWID
 40
0.0
  9
$COORDS
 70
     1
  9
$SPLFRAME
 70
     0
  9
$SPLINETYPE
 70
     6
  9
$SPLINESEGS
 70
     8
  9
$ATTDIA
 70
     1
  9
$ATTREQ
 70
     1
  9
$HANDLING
 70
     1
  9
$HANDSEED
  5
10518
  9
$SURFTAB1
 70
     6
  9
$SURFTAB2
 70
     6
  9
$SURFTYPE
 70
     6
  9
$SURFU
 70
     6
  9
$SURFV
 70
     6
  9
$UCSNAME
  2

  9
$UCSORG
 10
0.0
 20
0.0
 30
0.0
  9
$UCSXDIR
 10
1.0
 20
0.0
 30
0.0
  9
$UCSYDIR
 10
0.0
 20
1.0
 30
0.0
  9
$PUCSNAME
  2

  9
$PUCSORG
 10
0.0
 20
0.0
 30
0.0
  9
$PUCSXDIR
 10
1.0
 20
0.0
 30
0.0
  9
$PUCSYDIR
 10
0.0
 20
1.0
 30
0.0
  9
$USERI1
 70
     0
  9
$USERI2
 70
     0
  9
$USERI3
 70
     0
  9
$USERI4
 70
     0
  9
$USERI5
 70
     0
  9
$USERR1
 40
0.0
  9
$USERR2
 40
0.0
  9
$USERR3
 40
0.0
  9
$USERR4
 40
0.0
  9
$USERR5
 40
0.0
  9
$WORLDVIEW
 70
     1
  9
$SHADEDGE
 70
     3
  9
$SHADEDIF
 70
    70
  9
$TILEMODE
 70
     1
  9
$MAXACTVP
 70
    64
  9
$PLIMCHECK
 70
     0
  9
$PEXTMIN
 10
1.0000000000000000E+20
 20
1.0000000000000000E+20
 30
1.0000000000000000E+20
  9
$PEXTMAX
 10
-1.0000000000000000E+20
 20
-1.0000000000000000E+20
 30
-1.0000000000000000E+20
  9
$PLIMMIN
 10
0.0
 20
0.0
  9
$PLIMMAX
 10
12.0
 20
9.0
  9
$UNITMODE
 70
     0
  9
$VISRETAIN
 70
     1
  9
$PLINEGEN
 70
     0
  9
$PSLTSCALE
 70
     1
  0
ENDSEC
  0
SECTION
  2
TABLES
  0
TABLE
  2
VPORT
 70
     1
  0
VPORT
  2
*ACTIVE
 70
     0
 10
0.0
 20
0.0
 11
1.0
 21
1.0
 12
0.0
 22
0.0
 13
0.0
 23
0.0
 14
1.0
 24
1.0
 15
0.0
 25
0.0
 16
0.0
 26
0.0
 36
9.4032472889013672
 17
3983.0562744140629547
 27
140.2320941078444889
 37
0.0
 40
2.264998001890524
 41
3.314341846758349
 42
50.0
 43
0.0
 44
0.0
 50
0.0
 51
0.0
 71
     0
 72
   100
 73
     1
 74
     1
 75
     0
 76
     0
 77
     0
 78
     0
  0
ENDTAB
  0
TABLE
  2
LTYPE
 70
     2
  0
LTYPE
  2
CONTINUOUS
 70
     0
  3
Solid line
 72
    65
 73
     0
 40
0.0
  0
LTYPE
  2
PHANTOM2
 70
     0
  3
___ _ _ ___ _ _ ___ _ _ ___ _ _
 72
    65
 73
     6
 40
1.25
 49
0.625
 49
-0.125
 49
0.125
 49
-0.125
 49
0.125
 49
-0.125
  0
ENDTAB
  0
TABLE
  2
LAYER
 70
     2
  0
LAYER
  2
0
 70
     0
 62
   255
  6
CONTINUOUS
  0
LAYER
  2
DEFPOINTS
 70
     0
 62
     7
  6
CONTINUOUS
  0
ENDTAB
  0
TABLE
  2
STYLE
 70
     1
  0
STYLE
  2
STANDARD
 70
     0
 40
0.0
 41
0.8
 50
0.0
 71
     0
 42
0.2
  3
txt
  4

  0
ENDTAB
  0
TABLE
  2
VIEW
 70
     0
  0
ENDTAB
  0
TABLE
  2
UCS
 70
     0
  0
ENDTAB
  0
TABLE
  2
APPID
 70
    10
  0
APPID
  2
ACAD
 70
     0
  0
APPID
  2
ACAD_MLEADERVER
 70
     0
  0
APPID
  2
ACAD_EXEMPT_FROM_CAD_STANDARDS
 70
     0
  0
APPID
  2
ACAD_NAV_VCDISPLAY
 70
     0
  0
APPID
  2
ACAECLAYERSTANDARD
 70
     0
  0
APPID
  2
ACCMTRANSPARENCY
 70
     0
  0
APPID
  2
ACAD_DSTYLE_DIMJAG
 70
     0
  0
APPID
  2
ACAD_DSTYLE_DIMTALN
 70
     0
  0
APPID
  2
ACDBATTR
 70
     0
  0
APPID
  2
ACADANNOTATIVE
 70
     0
  0
ENDTAB
  0
TABLE
  2
DIMSTYLE
 70
     1
  0
DIMSTYLE
  2
STANDARD
 70
     0
  3

  4

  5

  6

  7

 40
1.0
 41
0.1875
 42
0.0625
 43
0.38
 44
0.125
 45
0.0
 46
0.0
 47
0.01
 48
0.01
140
0.15625
141
0.09
142
0.0
143
25.3999999999999986
144
1.0
145
0.0
146
1.0
147
0.09
 71
     1
 72
     0
 73
     1
 74
     1
 75
     0
 76
     0
 77
     0
 78
     4
170
     0
171
     2
172
     0
173
     0
174
     0
175
     0
176
     0
177
     0
178
     0
  0
ENDTAB
  0
ENDSEC
  0
SECTION
  2
BLOCKS
  0
BLOCK
  8
0
  2
$MODEL_SPACE
 70
     0
 10
0.0
 20
0.0
 30
0.0
  3
$MODEL_SPACE
  1

  0
ENDBLK
  5
21
  8
0
  0
BLOCK
 67
     1
  8
0
  2
$PAPER_SPACE
 70
     0
 10
0.0
 20
0.0
 30
0.0
  3
$PAPER_SPACE
  1

  0
ENDBLK
  5
1D
 67
     1
  8
0
  0
BLOCK
  8
0
  2
_FILLED
 70
     0
 10
0.0
 20
0.0
 30
0.0
  3
_FILLED
  1

  0
SOLID
  5
EBF0
  8
0
  6
BYBLOCK
 62
     0
 10
0.0
 20
0.0
 30
0.0
 11
-1.0
 21
0.1666666667
 31
0.0
 12
-1.0
 22
-0.1666666667
 32
0.0
 13
-1.0
 23
-0.1666666667
 33
0.0
  0
ENDBLK
  5
EBF1
  8
0
  6
BYBLOCK
 62
     0
  0
ENDSEC
  0
SECTION
  2
ENTITIES
  0
ATTDEF
  5
3930
  8
DEFPOINTS
 10
3983.0567191935938354
 20
140.3989181961576946
 30
0.0
 40
0.001
  1
K-2697T
  3

  2
MODELNUMBER
 70
     0
1001
ACDBATTR
1070
     0
1070
     1
  0
ATTDEF
  5
3931
  8
DEFPOINTS
 10
3983.0567191935938354
 20
140.3972515294910863
 30
0.0
 40
0.001
  1
STILLNESS
  3

  2
TRADENAME
 70
     0
1001
ACDBATTR
1070
     0
1070
     1
  0
ATTDEF
  5
3932
  8
DEFPOINTS
 10
3983.0567191935938354
 20
140.3955848628243928
 30
0.0
 40
0.001
  1
SLIDEBAR TRIM KIT
  3

  2
PRODUCT
 70
     0
1001
ACDBATTR
1070
     0
1070
     1
  0
LINE
  5
103B3
  8
0
 10
3981.9363883318837907
 20
140.3449785150708919
 30
0.0
 11
3981.9363883318837907
 21
140.3649785150720959
 31
0.0
  0
ARC
  5
103B4
  8
0
 10
3982.2580565968928568
 20
140.1335612363747885
 30
0.0
 40
0.029921306380153
 50
224.0378254220638041
 51
269.9771622922124834
  0
ARC
  5
103B5
  8
0
 10
3981.966389492349208
 20
140.3649773546073902
 30
0.0
 40
0.0300011604865981
 50
90.0022162375282591
 51
179.9977837623154073
  0
ARC
  5
103B6
  8
0
 10
3981.768360519954058
 20
139.6642437502661949
 30
0.0
 40
0.6483570815868639
 50
43.7708995927607205
 51
68.5668342332164684
  0
ARC
  5
103B7
  8
0
 10
3981.966400563958814
 20
140.3449907471463121
 30
0.0
 40
0.0300122345674627
 50
180.0233520193293089
 51
269.9766479808334907
  0
ARC
  5
103B8
  8
0
 10
3982.0163558985650525
 20
140.2956088961767023
 30
0.0
 40
0.0299673585822788
 50
180.7098876073997076
 51
248.3098567260369975
  0
ARC
  5
103B9
  8
0
 10
3981.9664715660778711
 20
140.295058610676989
 30
0.0
 40
0.0199200782884354
 50
0.5148705910010419
 51
90.2394057835771122
  0
ARC
  5
103BA
  8
0
 10
3982.3263106553499711
 20
140.0941941130195119
 30
0.0
 40
0.0299242593669293
 50
191.5700955059232911
 51
269.9979634056131772
  0
ARC
  5
103BB
  8
0
 10
3982.2779044022308881
 20
140.0842123309537897
 30
0.0
 40
0.0195005207800485
 50
11.7765733261222199
 51
85.0435425645010241
  0
LINE
  5
103BC
  8
0
 10
3982.3263095916840939
 20
140.0642698536715045
 30
0.0
 11
3983.7864670720841787
 21
140.0642698536715045
 31
0.0
  0
LINE
  5
103BD
  8
0
 10
3982.2580446704641872
 20
140.1036399323714932
 30
0.0
 11
3983.8547319933040853
 21
140.1036399323714932
 31
0.0
  0
LINE
  5
103BE
  8
0
 10
3982.0052803550788667
 20
140.2677633414710954
 30
0.0
 11
3984.1074963086898606
 21
140.2677633414710954
 31
0.0
  0
LINE
  5
103BF
  8
0
 10
3981.9663883318480657
 20
140.3149785150714024
 30
0.0
 11
3984.1463883314968371
 21
140.3149785150714024
 31
0.0
  0
LINE
  5
103C0
  8
0
 10
3981.9663883318839908
 20
140.3949785150715002
 30
0.0
 11
3984.146388331883827
 21
140.3949785150715002
 31
0.0
  0
LINE
  5
103C1
  8
0
 10
3984.1763883318840271
 20
140.3449785150708919
 30
0.0
 11
3984.1763883318840271
 21
140.3649785150720959
 31
0.0
  0
ARC
  5
103C2
  8
0
 10
3983.8547200668758705
 20
140.1335612363747885
 30
0.0
 40
0.029921306380153
 50
270.0228377077875166
 51
315.9621745779361959
  0
ARC
  5
103C3
  8
0
 10
3984.1437839994050591
 20
140.362374182591509
 30
0.0
 40
0.0327081800798453
 50
4.566912017083081
 51
85.4330879830729941
  0
ARC
  5
103C4
  8
0
 10
3984.3444161438151241
 20
139.6642437502661949
 30
0.0
 40
0.6483570815868639
 50
111.4331657667835032
 51
136.2291004072392866
  0
ARC
  5
103C5
  8
0
 10
3984.1463760998090038
 20
140.3449907471463121
 30
0.0
 40
0.0300122345674627
 50
270.0233520191665093
 51
359.9766479806706911
  0
ARC
  5
103C6
  8
0
 10
3984.0964207652018558
 20
140.2956088961767023
 30
0.0
 40
0.0299673585822788
 50
291.6901432739629172
 51
359.2901123926002924
  0
ARC
  5
103C7
  8
0
 10
3984.1463050976890372
 20
140.295058610676989
 30
0.0
 40
0.0199200782884354
 50
89.7605942164229162
 51
179.4851294089988869
  0
ARC
  5
103C8
  8
0
 10
3983.7850362933381803
 20
140.0959461196065945
 30
0.0
 40
0.0317085627458628
 50
272.5862234231423145
 51
345.8457176652366911
  0
ARC
  5
103C9
  8
0
 10
3983.8348722615369297
 20
140.0842123309537897
 30
0.0
 40
0.0195005207800485
 50
94.9564574354989759
 51
168.2234266738778103
  0
ENDSEC
  0
EOF
