  0
SECTION
  2
HEADER
  9
$ACADVER
  1
AC1009
  9
$INSBASE
 10
3813.9621732915547909
 20
120.5760140058982017
 30
0.0
  9
$EXTMIN
 10
3806.9779213230549431
 20
117.8082974691149047
 30
0.0
  9
$EXTMAX
 10
3820.946425260056003
 20
120.5817070162716931
 30
0.0
  9
$LIMMIN
 10
0.0
 20
0.0
  9
$LIMMAX
 10
11.6929133858000007
 20
8.2677165353999982
  9
$ORTHOMODE
 70
     0
  9
$REGENMODE
 70
     1
  9
$FILLMODE
 70
     1
  9
$QTEXTMODE
 70
     0
  9
$MIRRTEXT
 70
     0
  9
$DRAGMODE
 70
     2
  9
$LTSCALE
 40
0.6431102362
  9
$OSMODE
 70
  4095
  9
$ATTMODE
 70
     1
  9
$TEXTSIZE
 40
0.2
  9
$TRACEWID
 40
0.05
  9
$TEXTSTYLE
  7
STANDARD
  9
$CLAYER
  8
0
  9
$CELTYPE
  6
BYLAYER
  9
$CECOLOR
 62
   256
  9
$DIMSCALE
 40
1.0
  9
$DIMASZ
 40
0.1875
  9
$DIMEXO
 40
0.0625
  9
$DIMDLI
 40
0.4443307087
  9
$DIMRND
 40
0.0
  9
$DIMDLE
 40
0.0
  9
$DIMEXE
 40
0.125
  9
$DIMTP
 40
0.01
  9
$DIMTM
 40
0.01
  9
$DIMTXT
 40
2.0
  9
$DIMCEN
 40
0.1052362205
  9
$DIMTSZ
 40
0.0
  9
$DIMTOL
 70
     1
  9
$DIMLIM
 70
     0
  9
$DIMTIH
 70
     1
  9
$DIMTOH
 70
     1
  9
$DIMSE1
 70
     0
  9
$DIMSE2
 70
     0
  9
$DIMTAD
 70
     0
  9
$DIMZIN
 70
     0
  9
$DIMBLK
  1

  9
$DIMASO
 70
     1
  9
$DIMSHO
 70
     1
  9
$DIMPOST
  1
\X
  9
$DIMAPOST
  1

  9
$DIMALT
 70
     1
  9
$DIMALTD
 70
     2
  9
$DIMALTF
 40
25.3999999999999986
  9
$DIMLFAC
 40
1.0
  9
$DIMTOFL
 70
     0
  9
$DIMTVP
 40
0.0
  9
$DIMTIX
 70
     0
  9
$DIMSOXD
 70
     0
  9
$DIMSAH
 70
     0
  9
$DIMBLK1
  1

  9
$DIMBLK2
  1

  9
$DIMSTYLE
  2
STANDARD
  9
$DIMCLRD
 70
     0
  9
$DIMCLRE
 70
     0
  9
$DIMCLRT
 70
     0
  9
$DIMTFAC
 40
1.0
  9
$DIMGAP
 40
0.09
  9
$LUNITS
 70
     2
  9
$LUPREC
 70
     4
  9
$SKETCHINC
 40
0.1
  9
$FILLETRAD
 40
0.0
  9
$AUNITS
 70
     0
  9
$AUPREC
 70
     0
  9
$MENU
  1
.
  9
$ELEVATION
 40
0.0
  9
$PELEVATION
 40
0.0
  9
$THICKNESS
 40
0.0
  9
$LIMCHECK
 70
     0
  9
$BLIPMODE
 70
     0
  9
$CHAMFERA
 40
0.0
  9
$CHAMFERB
 40
0.0
  9
$SKPOLY
 70
     0
  9
$TDCREATE
 40
2458060.468368056230247
  9
$TDUPDATE
 40
2458877.562638889066875
  9
$TDINDWG
 40
0.3167778935
  9
$TDUSRTIMER
 40
0.3167778935
  9
$USRTIMER
 70
     1
  9
$ANGBASE
 50
0.0
  9
$ANGDIR
 70
     0
  9
$PDMODE
 70
     0
  9
$PDSIZE
 40
0.3125
  9
$PLINEWID
 40
0.0
  9
$COORDS
 70
     1
  9
$SPLFRAME
 70
     0
  9
$SPLINETYPE
 70
     6
  9
$SPLINESEGS
 70
     8
  9
$ATTDIA
 70
     1
  9
$ATTREQ
 70
     1
  9
$HANDLING
 70
     1
  9
$HANDSEED
  5
6A07
  9
$SURFTAB1
 70
     6
  9
$SURFTAB2
 70
     6
  9
$SURFTYPE
 70
     6
  9
$SURFU
 70
     6
  9
$SURFV
 70
     6
  9
$UCSNAME
  2

  9
$UCSORG
 10
0.0
 20
0.0
 30
0.0
  9
$UCSXDIR
 10
1.0
 20
0.0
 30
0.0
  9
$UCSYDIR
 10
0.0
 20
1.0
 30
0.0
  9
$PUCSNAME
  2

  9
$PUCSORG
 10
0.0
 20
0.0
 30
0.0
  9
$PUCSXDIR
 10
1.0
 20
0.0
 30
0.0
  9
$PUCSYDIR
 10
0.0
 20
1.0
 30
0.0
  9
$USERI1
 70
     0
  9
$USERI2
 70
     0
  9
$USERI3
 70
     0
  9
$USERI4
 70
     0
  9
$USERI5
 70
     0
  9
$USERR1
 40
0.0
  9
$USERR2
 40
0.0
  9
$USERR3
 40
0.0
  9
$USERR4
 40
0.0
  9
$USERR5
 40
0.0
  9
$WORLDVIEW
 70
     1
  9
$SHADEDGE
 70
     3
  9
$SHADEDIF
 70
    70
  9
$TILEMODE
 70
     1
  9
$MAXACTVP
 70
    64
  9
$PLIMCHECK
 70
     0
  9
$PEXTMIN
 10
1.0000000000000000E+20
 20
1.0000000000000000E+20
 30
1.0000000000000000E+20
  9
$PEXTMAX
 10
-1.0000000000000000E+20
 20
-1.0000000000000000E+20
 30
-1.0000000000000000E+20
  9
$PLIMMIN
 10
0.0
 20
0.0
  9
$PLIMMAX
 10
12.0
 20
9.0
  9
$UNITMODE
 70
     0
  9
$VISRETAIN
 70
     1
  9
$PLINEGEN
 70
     0
  9
$PSLTSCALE
 70
     1
  0
ENDSEC
  0
SECTION
  2
TABLES
  0
TABLE
  2
VPORT
 70
     1
  0
VPORT
  2
*ACTIVE
 70
     0
 10
0.0
 20
0.0
 11
1.0
 21
1.0
 12
0.0
 22
0.0
 13
0.0
 23
0.0
 14
1.0
 24
1.0
 15
0.0
 25
0.0
 16
0.0
 26
0.0
 36
38.6506146516142479
 17
3813.9622802734370453
 27
119.1950016099423948
 37
0.0
 40
14.2411714222940304
 41
2.005224660397074
 42
50.0
 43
0.0
 44
0.0
 50
0.0
 51
0.0
 71
     0
 72
   100
 73
     1
 74
     1
 75
     0
 76
     0
 77
     0
 78
     0
  0
ENDTAB
  0
TABLE
  2
LTYPE
 70
     2
  0
LTYPE
  2
CONTINUOUS
 70
     0
  3
Solid line
 72
    65
 73
     0
 40
0.0
  0
LTYPE
  2
PHANTOM2
 70
     0
  3
___ _ _ ___ _ _ ___ _ _ ___ _ _
 72
    65
 73
     6
 40
1.25
 49
0.625
 49
-0.125
 49
0.125
 49
-0.125
 49
0.125
 49
-0.125
  0
ENDTAB
  0
TABLE
  2
LAYER
 70
     2
  0
LAYER
  2
0
 70
     0
 62
   255
  6
CONTINUOUS
  0
LAYER
  2
DEFPOINTS
 70
     0
 62
     7
  6
CONTINUOUS
  0
ENDTAB
  0
TABLE
  2
STYLE
 70
     1
  0
STYLE
  2
STANDARD
 70
     0
 40
0.0
 41
0.8
 50
0.0
 71
     0
 42
0.2
  3
txt
  4

  0
ENDTAB
  0
TABLE
  2
VIEW
 70
     0
  0
ENDTAB
  0
TABLE
  2
UCS
 70
     0
  0
ENDTAB
  0
TABLE
  2
APPID
 70
     9
  0
APPID
  2
ACAD
 70
     0
  0
APPID
  2
ACAD_MLEADERVER
 70
     0
  0
APPID
  2
ACAD_EXEMPT_FROM_CAD_STANDARDS
 70
     0
  0
APPID
  2
ACAD_NAV_VCDISPLAY
 70
     0
  0
APPID
  2
ACAECLAYERSTANDARD
 70
     0
  0
APPID
  2
ACCMTRANSPARENCY
 70
     0
  0
APPID
  2
ACAD_DSTYLE_DIMJAG
 70
     0
  0
APPID
  2
ACAD_DSTYLE_DIMTALN
 70
     0
  0
APPID
  2
ACDBATTR
 70
     0
  0
ENDTAB
  0
TABLE
  2
DIMSTYLE
 70
     1
  0
DIMSTYLE
  2
STANDARD
 70
     0
  3

  4

  5

  6

  7

 40
1.0
 41
0.1875
 42
0.0625
 43
0.38
 44
0.125
 45
0.0
 46
0.0
 47
0.01
 48
0.01
140
0.15625
141
0.09
142
0.0
143
25.3999999999999986
144
1.0
145
0.0
146
1.0
147
0.09
 71
     1
 72
     0
 73
     1
 74
     1
 75
     0
 76
     0
 77
     0
 78
     4
170
     0
171
     2
172
     0
173
     0
174
     0
175
     0
176
     0
177
     0
178
     0
  0
ENDTAB
  0
ENDSEC
  0
SECTION
  2
BLOCKS
  0
BLOCK
  8
0
  2
$MODEL_SPACE
 70
     0
 10
0.0
 20
0.0
 30
0.0
  3
$MODEL_SPACE
  1

  0
ENDBLK
  5
21
  8
0
  0
BLOCK
 67
     1
  8
0
  2
$PAPER_SPACE
 70
     0
 10
0.0
 20
0.0
 30
0.0
  3
$PAPER_SPACE
  1

  0
ENDBLK
  5
1D
 67
     1
  8
0
  0
BLOCK
  8
0
  2
_FILLED
 70
     0
 10
0.0
 20
0.0
 30
0.0
  3
_FILLED
  1

  0
SOLID
  5
6715
  8
0
  6
BYBLOCK
 62
     0
 10
0.0
 20
0.0
 30
0.0
 11
-1.0
 21
0.1666666667
 31
0.0
 12
-1.0
 22
-0.1666666667
 32
0.0
 13
-1.0
 23
-0.1666666667
 33
0.0
  0
ENDBLK
  5
6716
  8
0
  6
BYBLOCK
 62
     0
  0
ENDSEC
  0
SECTION
  2
ENTITIES
  0
ATTDEF
  5
3930
  8
DEFPOINTS
 10
3813.9522657900838567
 20
120.5807070162717025
 30
0.0
 40
0.001
  1
K-27288
  3

  2
MODELNUMBER
 70
     0
1001
ACDBATTR
1070
     0
1070
     1
  0
ATTDEF
  5
3931
  8
DEFPOINTS
 10
3813.9522657900838567
 20
120.5790403496049947
 30
0.0
 40
0.001
  1
ELATE
  3

  2
TRADENAME
 70
     0
1001
ACDBATTR
1070
     0
1070
     1
  0
ATTDEF
  5
3932
  8
DEFPOINTS
 10
3813.9522657900838567
 20
120.5773736829383012
 30
0.0
 40
0.001
  1
TOWEL BAR
  3

  2
PRODUCT
 70
     0
1001
ACDBATTR
1070
     0
1070
     1
  0
LINE
  5
694E
  8
0
 10
3807.3293602965550235
 20
118.4382187302982032
 30
0.0
 11
3807.3293602965550235
 21
117.8082974704982036
 31
0.0
  0
LINE
  5
694F
  8
0
 10
3807.3716221104550641
 20
118.4382187302982032
 30
0.0
 11
3807.3716221104550641
 21
117.8082974704982036
 31
0.0
  0
LINE
  5
6950
  8
0
 10
3819.7128944650198719
 20
118.4382187302982032
 30
0.0
 11
3808.2114521180901647
 21
118.4382187302982032
 31
0.0
  0
LINE
  5
6951
  8
0
 10
3807.7128789118528402
 20
118.4382187302982032
 30
0.0
 11
3807.3716221104550641
 21
118.4382187302982032
 31
0.0
  0
LINE
  5
6952
  8
0
 10
3807.3616221104548458
 20
118.4382187302982032
 30
0.0
 11
3807.3293602965550235
 21
118.4382187302982032
 31
0.0
  0
ARC
  5
6953
  8
0
 10
3808.6708347092089753
 20
118.1232581003982034
 30
0.0
 40
1.3779527561537619
 50
166.7870196431732097
 51
193.2129803568259092
  0
ARC
  5
6954
  8
0
 10
3807.3607616902299924
 20
118.4254693642243979
 30
0.0
 40
0.0127783668067118
 50
31.7984713596544211
 51
86.1391172489238954
  0
LINE
  5
6955
  8
0
 10
3820.5527244726549725
 20
117.8082974704982036
 30
0.0
 11
3807.3716221104550641
 21
117.8082974704982036
 31
0.0
  0
LINE
  5
6956
  8
0
 10
3807.3616221104548458
 20
117.8082974704982036
 30
0.0
 11
3807.3293602965550235
 21
117.8082974704982036
 31
0.0
  0
ARC
  5
6957
  8
0
 10
3807.3616273689299305
 20
117.8182922120227971
 30
0.0
 40
0.009994742907938
 50
269.9698553076894996
 51
0.0301429401265023
  0
LINE
  5
6958
  8
0
 10
3806.9779213230549431
 20
120.5760140058982017
 30
0.0
 11
3806.9779213230549431
 21
120.161627514798198
 31
0.0
  0
LINE
  5
6959
  8
0
 10
3807.7062600031208603
 20
120.1122392210184984
 30
0.0
 11
3807.7062600031208603
 21
118.448218729992405
 31
0.0
  0
LINE
  5
695A
  8
0
 10
3807.0163906563889213
 20
120.1222677414931042
 30
0.0
 11
3807.7062600031208603
 21
120.1122392210184984
 31
0.0
  0
LINE
  5
695B
  8
0
 10
3807.7062600031208603
 20
120.1122392210184984
 30
0.0
 11
3808.2180710268207804
 21
120.1122391247350976
 31
0.0
  0
LINE
  5
695C
  8
0
 10
3808.2180710268207804
 20
120.1122391247350976
 30
0.0
 11
3808.9079559249321392
 21
120.1222677413982041
 31
0.0
  0
LINE
  5
695D
  8
0
 10
3808.9464252600550935
 20
120.5760140058982017
 30
0.0
 11
3806.9779213230549431
 21
120.5760140058982017
 31
0.0
  0
ARC
  5
695E
  8
0
 10
3807.0172914017562107
 20
120.161627514798198
 30
0.0
 40
0.0393700786999927
 50
179.9999999999951115
 51
268.6890193503215869
  0
ARC
  5
695F
  8
0
 10
3807.7162855964211303
 20
118.4482398268940955
 30
0.0
 40
0.0100256154970328
 50
180.120567592389591
 51
232.798675499085391
  0
ARC
  5
6960
  8
0
 10
3808.2949694644030387
 20
119.2001976069283984
 30
0.0
 40
0.9588749761043827
 50
232.4231798669800924
 51
239.4891780543003108
  0
ARC
  5
6961
  8
0
 10
3807.9772058269390982
 20
118.6417773754769058
 30
0.0
 40
0.3165984763476866
 50
237.7250251035083863
 51
267.2770846163019769
  0
LINE
  5
6962
  8
0
 10
3808.2180710268207804
 20
120.1122391247350976
 30
0.0
 11
3808.2180710268207804
 21
118.448218729992405
 31
0.0
  0
ARC
  5
6963
  8
0
 10
3808.2080454335209652
 20
118.4482398268940955
 30
0.0
 40
0.0100256154970328
 50
307.201324500914609
 51
359.879432407610409
  0
ARC
  5
6964
  8
0
 10
3807.6293615655399663
 20
119.2001976069283984
 30
0.0
 40
0.9588749761043827
 50
300.5108219456996039
 51
307.5768201330199076
  0
ARC
  5
6965
  8
0
 10
3807.9471252030029973
 20
118.6417773754769058
 30
0.0
 40
0.3165984763476866
 50
272.7229153836980231
 51
302.2749748964910737
  0
LINE
  5
6966
  8
0
 10
3808.9464252600550935
 20
120.5760140058982017
 30
0.0
 11
3808.9464252600550935
 21
120.161627514798198
 31
0.0
  0
ARC
  5
6967
  8
0
 10
3808.9070551812601479
 20
120.1616275148366952
 30
0.0
 40
0.0393700787946202
 50
271.3109781785386758
 51
359.999999943883779
  0
LINE
  5
6968
  8
0
 10
3820.5949862865550131
 20
118.4382187302982032
 30
0.0
 11
3820.5949862865550131
 21
117.8082974704982036
 31
0.0
  0
LINE
  5
6969
  8
0
 10
3820.5527244726549725
 20
118.4382187302982032
 30
0.0
 11
3820.5527244726549725
 21
117.8082974704982036
 31
0.0
  0
LINE
  5
696A
  8
0
 10
3820.2114676712581058
 20
118.4382187302982032
 30
0.0
 11
3820.5527244726549725
 21
118.4382187302982032
 31
0.0
  0
LINE
  5
696B
  8
0
 10
3820.5627244726551908
 20
118.4382187302982032
 30
0.0
 11
3820.5949862865550131
 21
118.4382187302982032
 31
0.0
  0
ARC
  5
696C
  8
0
 10
3819.2535118739019708
 20
118.1232581003982034
 30
0.0
 40
1.3779527561537619
 50
346.7870196431733234
 51
13.2129803568267405
  0
ARC
  5
696D
  8
0
 10
3820.5635848928809537
 20
118.4254693642243979
 30
0.0
 40
0.0127783668067118
 50
93.8608827510761188
 51
148.2015286403454866
  0
LINE
  5
696E
  8
0
 10
3820.5627244726551908
 20
117.8082974704982036
 30
0.0
 11
3820.5949862865550131
 21
117.8082974704982036
 31
0.0
  0
ARC
  5
696F
  8
0
 10
3820.5627192141801061
 20
117.8182922120227971
 30
0.0
 40
0.009994742907938
 50
179.9698570598735046
 51
270.0301446923105004
  0
LINE
  5
6970
  8
0
 10
3820.2180865799900857
 20
120.1122392210184984
 30
0.0
 11
3820.2180865799900857
 21
118.448218729992405
 31
0.0
  0
ARC
  5
6971
  8
0
 10
3820.2080609866898158
 20
118.4482398268940955
 30
0.0
 40
0.0100256154970328
 50
307.201324500914609
 51
359.879432407610409
  0
ARC
  5
6972
  8
0
 10
3819.6293771187069979
 20
119.2001976069283984
 30
0.0
 40
0.9588749761043827
 50
300.5108219456996039
 51
307.5768201330199076
  0
ARC
  5
6973
  8
0
 10
3819.9471407561718479
 20
118.6417773754769058
 30
0.0
 40
0.3165984763476866
 50
272.7229153836980231
 51
302.2749748964915284
  0
LINE
  5
6974
  8
0
 10
3819.7062755562901657
 20
120.1122391247350976
 30
0.0
 11
3819.7062755562901657
 21
118.448218729992405
 31
0.0
  0
ARC
  5
6975
  8
0
 10
3819.7163011495890714
 20
118.4482398268940955
 30
0.0
 40
0.0100256154970328
 50
180.120567592389591
 51
232.798675499085391
  0
ARC
  5
6976
  8
0
 10
3820.2949850175718893
 20
119.2001976069283984
 30
0.0
 40
0.9588749761043827
 50
232.4231798669800924
 51
239.4891780543003108
  0
ARC
  5
6977
  8
0
 10
3819.9772213801070393
 20
118.6417773754769058
 30
0.0
 40
0.3165984763476866
 50
237.7250251035088979
 51
267.2770846163019769
  0
LINE
  5
6979
  8
0
 10
3820.946425260056003
 20
120.5760140058982017
 30
0.0
 11
3820.946425260056003
 21
120.161627514798198
 31
0.0
  0
LINE
  5
697A
  8
0
 10
3818.9779213230549431
 20
120.5760140058982017
 30
0.0
 11
3820.946425260056003
 21
120.5760140058982017
 31
0.0
  0
ARC
  5
697B
  8
0
 10
3820.9070551813560996
 20
120.161627514798198
 30
0.0
 40
0.0393700786999927
 50
271.3109806496784131
 51
0.0000000000048853
  0
LINE
  5
697C
  8
0
 10
3818.9779213230549431
 20
120.5760140058982017
 30
0.0
 11
3818.9779213230549431
 21
120.161627514798198
 31
0.0
  0
ARC
  5
697D
  8
0
 10
3819.0172914018498886
 20
120.1616275148366952
 30
0.0
 40
0.0393700787946202
 50
180.0000000561161926
 51
268.6890218214613242
  0
LINE
  5
697E
  8
0
 10
3820.9079559267211152
 20
120.1222677414931042
 30
0.0
 11
3820.2180865799900857
 21
120.1122392210184984
 31
0.0
  0
LINE
  5
697F
  8
0
 10
3820.2180865799900857
 20
120.1122392210184984
 30
0.0
 11
3819.7062755562901657
 21
120.1122391247350976
 31
0.0
  0
LINE
  5
6980
  8
0
 10
3819.7062755562901657
 20
120.1122391247350976
 30
0.0
 11
3819.0163906581788069
 21
120.1222677413982041
 31
0.0
  0
ENDSEC
  0
EOF
