  0
SECTION
  2
HEADER
  9
$ACADVER
  1
AC1009
  9
$INSBASE
 10
3943.12768651821807
 20
447.6860745848297256
 30
0.0
  9
$EXTMIN
 10
3925.2262758943738845
 20
442.4778372050066082
 30
0.0
  9
$EXTMAX
 10
3961.0288356229079909
 20
451.6230815667955198
 30
0.0
  9
$LIMMIN
 10
0.0
 20
0.0
  9
$LIMMAX
 10
11.6929133858000007
 20
8.2677165353999982
  9
$ORTHOMODE
 70
     0
  9
$REGENMODE
 70
     1
  9
$FILLMODE
 70
     1
  9
$QTEXTMODE
 70
     0
  9
$MIRRTEXT
 70
     0
  9
$DRAGMODE
 70
     2
  9
$LTSCALE
 40
0.6431102362
  9
$OSMODE
 70
  4095
  9
$ATTMODE
 70
     1
  9
$TEXTSIZE
 40
0.2
  9
$TRACEWID
 40
0.05
  9
$TEXTSTYLE
  7
STANDARD
  9
$CLAYER
  8
0
  9
$CELTYPE
  6
BYLAYER
  9
$CECOLOR
 62
   256
  9
$DIMSCALE
 40
1.0
  9
$DIMASZ
 40
0.1875
  9
$DIMEXO
 40
0.0625
  9
$DIMDLI
 40
0.4443307087
  9
$DIMRND
 40
0.0
  9
$DIMDLE
 40
0.0
  9
$DIMEXE
 40
0.125
  9
$DIMTP
 40
0.01
  9
$DIMTM
 40
0.01
  9
$DIMTXT
 40
2.0
  9
$DIMCEN
 40
0.1052362205
  9
$DIMTSZ
 40
0.0
  9
$DIMTOL
 70
     1
  9
$DIMLIM
 70
     0
  9
$DIMTIH
 70
     1
  9
$DIMTOH
 70
     1
  9
$DIMSE1
 70
     0
  9
$DIMSE2
 70
     0
  9
$DIMTAD
 70
     0
  9
$DIMZIN
 70
     0
  9
$DIMBLK
  1

  9
$DIMASO
 70
     1
  9
$DIMSHO
 70
     1
  9
$DIMPOST
  1
\X
  9
$DIMAPOST
  1

  9
$DIMALT
 70
     1
  9
$DIMALTD
 70
     2
  9
$DIMALTF
 40
25.3999999999999986
  9
$DIMLFAC
 40
1.0
  9
$DIMTOFL
 70
     0
  9
$DIMTVP
 40
0.0
  9
$DIMTIX
 70
     0
  9
$DIMSOXD
 70
     0
  9
$DIMSAH
 70
     0
  9
$DIMBLK1
  1

  9
$DIMBLK2
  1

  9
$DIMSTYLE
  2
STANDARD
  9
$DIMCLRD
 70
     0
  9
$DIMCLRE
 70
     0
  9
$DIMCLRT
 70
     0
  9
$DIMTFAC
 40
1.0
  9
$DIMGAP
 40
0.09
  9
$LUNITS
 70
     2
  9
$LUPREC
 70
     4
  9
$SKETCHINC
 40
0.1
  9
$FILLETRAD
 40
0.0
  9
$AUNITS
 70
     0
  9
$AUPREC
 70
     0
  9
$MENU
  1
.
  9
$ELEVATION
 40
0.0
  9
$PELEVATION
 40
0.0
  9
$THICKNESS
 40
0.0
  9
$LIMCHECK
 70
     0
  9
$BLIPMODE
 70
     0
  9
$CHAMFERA
 40
0.0
  9
$CHAMFERB
 40
0.0
  9
$SKPOLY
 70
     0
  9
$TDCREATE
 40
2458060.468368056230247
  9
$TDUPDATE
 40
2459010.8781481487676501
  9
$TDINDWG
 40
0.5665116898
  9
$TDUSRTIMER
 40
0.5665116898
  9
$USRTIMER
 70
     1
  9
$ANGBASE
 50
0.0
  9
$ANGDIR
 70
     0
  9
$PDMODE
 70
     0
  9
$PDSIZE
 40
0.3125
  9
$PLINEWID
 40
0.0
  9
$COORDS
 70
     1
  9
$SPLFRAME
 70
     0
  9
$SPLINETYPE
 70
     6
  9
$SPLINESEGS
 70
     8
  9
$ATTDIA
 70
     1
  9
$ATTREQ
 70
     1
  9
$HANDLING
 70
     1
  9
$HANDSEED
  5
9362
  9
$SURFTAB1
 70
     6
  9
$SURFTAB2
 70
     6
  9
$SURFTYPE
 70
     6
  9
$SURFU
 70
     6
  9
$SURFV
 70
     6
  9
$UCSNAME
  2

  9
$UCSORG
 10
0.0
 20
0.0
 30
0.0
  9
$UCSXDIR
 10
1.0
 20
0.0
 30
0.0
  9
$UCSYDIR
 10
0.0
 20
1.0
 30
0.0
  9
$PUCSNAME
  2

  9
$PUCSORG
 10
0.0
 20
0.0
 30
0.0
  9
$PUCSXDIR
 10
1.0
 20
0.0
 30
0.0
  9
$PUCSYDIR
 10
0.0
 20
1.0
 30
0.0
  9
$USERI1
 70
     0
  9
$USERI2
 70
     0
  9
$USERI3
 70
     0
  9
$USERI4
 70
     0
  9
$USERI5
 70
     0
  9
$USERR1
 40
0.0
  9
$USERR2
 40
0.0
  9
$USERR3
 40
0.0
  9
$USERR4
 40
0.0
  9
$USERR5
 40
0.0
  9
$WORLDVIEW
 70
     1
  9
$SHADEDGE
 70
     3
  9
$SHADEDIF
 70
    70
  9
$TILEMODE
 70
     1
  9
$MAXACTVP
 70
    64
  9
$PLIMCHECK
 70
     0
  9
$PEXTMIN
 10
1.0000000000000000E+20
 20
1.0000000000000000E+20
 30
1.0000000000000000E+20
  9
$PEXTMAX
 10
-1.0000000000000000E+20
 20
-1.0000000000000000E+20
 30
-1.0000000000000000E+20
  9
$PLIMMIN
 10
0.0
 20
0.0
  9
$PLIMMAX
 10
12.0
 20
9.0
  9
$UNITMODE
 70
     0
  9
$VISRETAIN
 70
     1
  9
$PLINEGEN
 70
     0
  9
$PSLTSCALE
 70
     1
  0
ENDSEC
  0
SECTION
  2
TABLES
  0
TABLE
  2
VPORT
 70
     1
  0
VPORT
  2
*ACTIVE
 70
     0
 10
0.0
 20
0.0
 11
1.0
 21
1.0
 12
0.0
 22
0.0
 13
0.0
 23
0.0
 14
1.0
 24
1.0
 15
0.0
 25
0.0
 16
0.0
 26
0.0
 36
133.5522932447337894
 17
3943.1275634765629547
 27
447.0504608154295738
 37
0.0
 40
36.9520445500511912
 41
2.8355754857997
 42
50.0
 43
0.0
 44
0.0
 50
0.0
 51
0.0
 71
     0
 72
   100
 73
     1
 74
     1
 75
     0
 76
     0
 77
     0
 78
     0
  0
ENDTAB
  0
TABLE
  2
LTYPE
 70
     2
  0
LTYPE
  2
CONTINUOUS
 70
     0
  3
Solid line
 72
    65
 73
     0
 40
0.0
  0
LTYPE
  2
PHANTOM2
 70
     0
  3
___ _ _ ___ _ _ ___ _ _ ___ _ _
 72
    65
 73
     6
 40
1.25
 49
0.625
 49
-0.125
 49
0.125
 49
-0.125
 49
0.125
 49
-0.125
  0
ENDTAB
  0
TABLE
  2
LAYER
 70
     2
  0
LAYER
  2
0
 70
     0
 62
   255
  6
CONTINUOUS
  0
LAYER
  2
DEFPOINTS
 70
     0
 62
     7
  6
CONTINUOUS
  0
ENDTAB
  0
TABLE
  2
STYLE
 70
     1
  0
STYLE
  2
STANDARD
 70
     0
 40
0.0
 41
0.8
 50
0.0
 71
     0
 42
0.2
  3
txt
  4

  0
ENDTAB
  0
TABLE
  2
VIEW
 70
     0
  0
ENDTAB
  0
TABLE
  2
UCS
 70
     0
  0
ENDTAB
  0
TABLE
  2
APPID
 70
     9
  0
APPID
  2
ACAD
 70
     0
  0
APPID
  2
ACAD_MLEADERVER
 70
     0
  0
APPID
  2
ACAD_EXEMPT_FROM_CAD_STANDARDS
 70
     0
  0
APPID
  2
ACAD_NAV_VCDISPLAY
 70
     0
  0
APPID
  2
ACAECLAYERSTANDARD
 70
     0
  0
APPID
  2
ACCMTRANSPARENCY
 70
     0
  0
APPID
  2
ACAD_DSTYLE_DIMJAG
 70
     0
  0
APPID
  2
ACAD_DSTYLE_DIMTALN
 70
     0
  0
APPID
  2
ACDBATTR
 70
     0
  0
ENDTAB
  0
TABLE
  2
DIMSTYLE
 70
     1
  0
DIMSTYLE
  2
STANDARD
 70
     0
  3

  4

  5

  6

  7

 40
1.0
 41
0.1875
 42
0.0625
 43
0.38
 44
0.125
 45
0.0
 46
0.0
 47
0.01
 48
0.01
140
0.15625
141
0.09
142
0.0
143
25.3999999999999986
144
1.0
145
0.0
146
1.0
147
0.09
 71
     1
 72
     0
 73
     1
 74
     1
 75
     0
 76
     0
 77
     0
 78
     4
170
     0
171
     2
172
     0
173
     0
174
     0
175
     0
176
     0
177
     0
178
     0
  0
ENDTAB
  0
ENDSEC
  0
SECTION
  2
BLOCKS
  0
BLOCK
  8
0
  2
$MODEL_SPACE
 70
     0
 10
0.0
 20
0.0
 30
0.0
  3
$MODEL_SPACE
  1

  0
ENDBLK
  5
21
  8
0
  0
BLOCK
 67
     1
  8
0
  2
$PAPER_SPACE
 70
     0
 10
0.0
 20
0.0
 30
0.0
  3
$PAPER_SPACE
  1

  0
ENDBLK
  5
1D
 67
     1
  8
0
  0
BLOCK
  8
0
  2
A$C3A671683
 70
     0
 10
0.0
 20
0.0
 30
0.0
  3
A$C3A671683
  1

  0
LINE
  5
64AD
  8
0
 10
19.7242805827151813
 20
17.186593760681049
 30
0.0
 11
17.9919971181151794
 21
17.186593760681049
 31
0.0
  0
LINE
  5
64AE
  8
0
 10
17.9919971181151794
 20
17.186593760681049
 30
0.0
 11
17.9919971181151794
 21
17.3243890362810511
 31
0.0
  0
ARC
  5
64AF
  8
0
 10
18.0116821575151818
 20
17.3243890362810511
 30
0.0
 40
0.0196850394000006
 50
90.0
 51
180.0000000000001137
  0
LINE
  5
64B0
  8
0
 10
18.0116821575151818
 20
17.3440740756810392
 30
0.0
 11
19.7045955433151789
 21
17.3440740756810392
 31
0.0
  0
LINE
  5
64B1
  8
0
 10
18.2956388817670685
 20
17.3440740756810392
 30
0.0
 11
18.2956388817670685
 21
20.2196336419188505
 31
0.0
  0
ARC
  5
64B2
  8
0
 10
18.3250044745555485
 20
20.2203861248934196
 30
0.0
 40
0.0293752322619933
 50
103.3931210179136997
 51
181.4678629531381091
  0
ARC
  5
64B3
  8
0
 10
18.3524956441739988
 20
20.0575827250337184
 30
0.0
 40
0.1944283320560142
 50
90.3572060212433001
 51
100.1596096926020039
  0
ARC
  5
64B4
  8
0
 10
18.4301884864185404
 20
17.4679263725625695
 30
0.0
 40
2.7851988236965202
 50
89.6777915155863639
 51
91.623412808093974
  0
LINE
  5
64B5
  8
0
 10
18.4458512449900205
 20
20.25308115560685
 30
0.0
 11
18.8581388504151803
 21
20.2531462157714195
 31
0.0
  0
LINE
  5
64B6
  8
0
 10
18.5825482992151798
 20
19.7394040924810383
 30
0.0
 11
18.5825482992151798
 21
19.7353486181810389
 31
0.0
  0
ARC
  5
64B7
  8
0
 10
18.5829207314853484
 20
19.7353486181810389
 30
0.0
 40
0.0003724322701721
 50
180.0000000001230944
 51
216.6495548276951126
  0
LINE
  5
64B8
  8
0
 10
18.5826219285151808
 20
19.7351263062810389
 30
0.0
 11
18.7500976734151799
 21
19.4823706713810409
 31
0.0
  0
ARC
  5
64B9
  8
0
 10
18.7569350533351518
 20
19.4869923168469299
 30
0.0
 40
0.0082528401767107
 50
214.0562583524256013
 51
264.5475790829518132
  0
ARC
  5
64BA
  8
0
 10
18.8581388504151484
 20
21.1754368430929993
 30
0.0
 40
1.6997225629050901
 50
266.5600311822514072
 51
273.4399688177508096
  0
ARC
  5
64BB
  8
0
 10
18.8581404643989714
 20
17.2486399579505516
 30
0.0
 40
2.2342150727920349
 50
87.7808100175880099
 51
92.2192433637510049
  0
ARC
  5
64BC
  8
0
 10
18.8581384996158405
 20
21.4674066674564017
 30
0.0
 40
1.9881106424789281
 50
267.5059333389526728
 51
272.494120020041521
  0
ARC
  5
64BD
  8
0
 10
18.5825391158227617
 20
19.741761079252349
 30
0.0
 40
0.0055827622209994
 50
225.303642260348397
 51
270.0942490193702952
  0
ARC
  5
64BE
  8
0
 10
18.5838249764580716
 20
19.7306739344601993
 30
0.0
 40
0.0088230133090339
 50
98.3198233499394689
 51
126.2126520955261952
  0
ARC
  5
64BF
  8
0
 10
18.7407229511753712
 20
18.1326798039934616
 30
0.0
 40
1.614491300607918
 50
89.1409621279035349
 51
95.6223908089581727
  0
ARC
  5
64C0
  8
0
 10
18.7950696496019987
 20
22.4958364459219489
 30
0.0
 40
2.749012047345798
 50
269.3717692705130275
 51
271.3146235973587181
  0
ARC
  5
64C1
  8
0
 10
18.5745595370528989
 20
38.2455076295901719
 30
0.0
 40
18.5745595528637288
 50
269.6694244810611849
 51
270.1559017409766739
  0
ARC
  5
64C2
  8
0
 10
18.4718657689205799
 20
20.4466874816682491
 30
0.0
 40
0.7754431515340197
 50
266.1924087295838035
 51
269.6694244810611849
  0
ARC
  5
64C3
  8
0
 10
18.420670491416189
 20
19.697305235251541
 30
0.0
 40
0.0243510872039879
 50
237.574552116457113
 51
269.2967489079658208
  0
ARC
  5
64C4
  8
0
 10
18.4153747727721786
 20
19.6858507639934004
 30
0.0
 40
0.0119603343623452
 50
180.0370851075628025
 51
229.5392928551794967
  0
LINE
  5
64C5
  8
0
 10
18.4034144409151814
 20
19.6858430225810395
 30
0.0
 11
18.4034144409151814
 21
19.7490506882810415
 31
0.0
  0
ARC
  5
64C6
  8
0
 10
18.4795767070448598
 20
18.4649179682395115
 30
0.0
 40
1.286389339765875
 50
89.0083595863617063
 51
93.3942522298393243
  0
ARC
  5
64C7
  8
0
 10
18.67998924409018
 20
274.3849054994178118
 30
0.0
 40
254.6338531722921914
 50
269.959914122701889
 51
270.0400858772978836
  0
LINE
  5
64C8
  8
0
 10
19.7242805827151813
 20
17.186593760681049
 30
0.0
 11
19.7242805827151813
 21
17.3243890362810511
 31
0.0
  0
ARC
  5
64C9
  8
0
 10
19.7045955433151789
 20
17.3243890362810511
 30
0.0
 40
0.0196850394000006
 50
359.9999999999997726
 51
90.0
  0
LINE
  5
64CA
  8
0
 10
19.4206388190632993
 20
17.3440740756810392
 30
0.0
 11
19.4206388190632993
 21
20.2196336419188505
 31
0.0
  0
ARC
  5
64CB
  8
0
 10
19.3912732262748193
 20
20.2203861248934196
 30
0.0
 40
0.0293752322619933
 50
358.5321370468619193
 51
76.6068789820861866
  0
ARC
  5
64CC
  8
0
 10
19.363782056656369
 20
20.0575827250337184
 30
0.0
 40
0.1944283320560142
 50
79.8403903073980672
 51
89.6427939787568135
  0
ARC
  5
64CD
  8
0
 10
19.2738764523260606
 20
16.3924462453898698
 30
0.0
 40
3.8606364517145049
 50
88.6475942299276056
 51
90.0512011371418453
  0
LINE
  5
64CE
  8
0
 10
19.2704264783176704
 20
20.25308115560685
 30
0.0
 11
18.8581388504151803
 21
20.2531462157714195
 31
0.0
  0
LINE
  5
64CF
  8
0
 10
19.1337294016151809
 20
19.7394040924810383
 30
0.0
 11
19.1337294016151809
 21
19.7353486181810389
 31
0.0
  0
ARC
  5
64D0
  8
0
 10
19.1333569693450087
 20
19.7353486181810389
 30
0.0
 40
0.0003724322701721
 50
323.3504451723047737
 51
359.9999999998768203
  0
LINE
  5
64D1
  8
0
 10
19.1336557723151905
 20
19.7351263062810389
 30
0.0
 11
18.9661800274151808
 21
19.4823706713810409
 31
0.0
  0
ARC
  5
64D2
  8
0
 10
18.9593426474952089
 20
19.4869923168469299
 30
0.0
 40
0.0082528401767107
 50
275.4524209170483005
 51
325.9437416475743134
  0
ARC
  5
64D3
  8
0
 10
19.1337385850075989
 20
19.741761079252349
 30
0.0
 40
0.0055827622209994
 50
269.9057509806297048
 51
314.6963577396517167
  0
ARC
  5
64D4
  8
0
 10
19.1324527243722891
 20
19.7306739344601993
 30
0.0
 40
0.0088230133090339
 50
53.78734790447389
 51
81.6801766500604174
  0
ARC
  5
64D5
  8
0
 10
18.9755547496550001
 20
18.1326798039934616
 30
0.0
 40
1.614491300607918
 50
84.377609191041941
 51
90.8590378720963656
  0
ARC
  5
64D6
  8
0
 10
18.9212080512283585
 20
22.4958364459219489
 30
0.0
 40
2.749012047345798
 50
268.685376402641225
 51
270.6282307294869725
  0
ARC
  5
64D7
  8
0
 10
19.1417181637774689
 20
38.2455076295901719
 30
0.0
 40
18.5745595528637288
 50
269.8440982590233261
 51
270.3305755189388151
  0
ARC
  5
64D8
  8
0
 10
19.2444119319097808
 20
20.4466874816682491
 30
0.0
 40
0.7754431515340197
 50
270.3305755189388151
 51
273.8075912704164239
  0
ARC
  5
64D9
  8
0
 10
19.2956072094141788
 20
19.697305235251541
 30
0.0
 40
0.0243510872039879
 50
270.7032510920341792
 51
302.4254478835429154
  0
ARC
  5
64DA
  8
0
 10
19.3009029280581785
 20
19.6858507639934004
 30
0.0
 40
0.0119603343623452
 50
310.4607071448205033
 51
359.9629148924371975
  0
LINE
  5
64DB
  8
0
 10
19.3128632599151793
 20
19.6858430225810395
 30
0.0
 11
19.3128632599151793
 21
19.7490506882810415
 31
0.0
  0
ARC
  5
64DC
  8
0
 10
19.2367009937855009
 20
18.4649179682395115
 30
0.0
 40
1.286389339765875
 50
86.6057477701606899
 51
90.9916404136383932
  0
ARC
  5
64DD
  8
0
 10
19.0362884567401913
 20
274.3849054994178118
 30
0.0
 40
254.6338531722921914
 50
269.959914122701889
 51
270.0400858772979973
  0
LINE
  5
64DE
  8
0
 10
18.8581388504151803
 20
19.7826446988810396
 30
0.0
 11
18.4465124539118897
 21
19.7825738496418886
 31
0.0
  0
ARC
  5
64DF
  8
0
 10
18.4482149446979484
 20
9.8912870029448516
 30
0.0
 40
9.89128699321361
 50
90.0098617639189769
 51
90.5083211738065927
  0
ARC
  5
64E0
  8
0
 10
18.3681834782528384
 20
18.9118534942383505
 30
0.0
 40
0.8703654848826323
 50
90.508321173806479
 51
94.7811258880082903
  0
LINE
  5
64E1
  8
0
 10
18.8581388504151803
 20
19.7826446988810396
 30
0.0
 11
19.269765246918471
 21
19.7825738496418886
 31
0.0
  0
ARC
  5
64E2
  8
0
 10
19.2680627561324087
 20
9.8912870029448516
 30
0.0
 40
9.89128699321361
 50
89.4916788261933931
 51
89.9901382360810231
  0
ARC
  5
64E3
  8
0
 10
19.3480942225775188
 20
18.9118534942383505
 30
0.0
 40
0.8703654848826323
 50
85.2188741119917239
 51
89.4916788261933931
  0
LINE
  5
64E4
  8
0
 10
17.9919971181151794
 20
17.24564887878104
 30
0.0
 11
19.7242805827151813
 21
17.2456488787810507
 31
0.0
  0
LINE
  5
64E5
  8
0
 10
18.8581388504151803
 20
17.186593760681049
 30
0.0
 11
20.1357999530772389
 21
16.0890186315406503
 31
0.0
  0
ENDBLK
  5
64E7
  8
0
  0
BLOCK
  8
0
  2
_FILLED
 70
     0
 10
0.0
 20
0.0
 30
0.0
  3
_FILLED
  1

  0
SOLID
  5
6DD4
  8
0
  6
BYBLOCK
 62
     0
 10
0.0
 20
0.0
 30
0.0
 11
-1.0
 21
0.1666666667
 31
0.0
 12
-1.0
 22
-0.1666666667
 32
0.0
 13
-1.0
 23
-0.1666666667
 33
0.0
  0
ENDBLK
  5
6DD5
  8
0
  6
BYBLOCK
 62
     0
  0
ENDSEC
  0
SECTION
  2
ENTITIES
  0
ATTDEF
  5
3930
  8
DEFPOINTS
 10
3943.1171873177299858
 20
447.6838094957835779
 30
0.0
 40
0.001
  1
K-2746T-8
  3

  2
MODELNUMBER
 70
     0
1001
ACDBATTR
1070
     0
1070
     1
  0
ATTDEF
  5
3931
  8
DEFPOINTS
 10
3943.1171873177299858
 20
447.6821428291169127
 30
0.0
 40
0.001
  1
ALEUTIAN
  3

  2
TRADENAME
 70
     0
1001
ACDBATTR
1070
     0
1070
     1
  0
ATTDEF
  5
3932
  8
DEFPOINTS
 10
3943.1171873177299858
 20
447.6804761624503044
 30
0.0
 40
0.001
  1
BATHROOM SINK
  3

  2
PRODUCT
 70
     0
1001
ACDBATTR
1070
     0
1070
     1
  0
LINE
  5
929B
  8
0
 10
3960.7926973115240799
 20
451.6230815667955198
 30
0.0
 11
3925.4626046214239068
 21
451.6230815667955198
 31
0.0
  0
ARC
  5
929C
  8
0
 10
3925.4936913582009765
 20
451.35685571507031
 30
0.0
 40
0.2680346793425885
 50
96.6601692343324288
 51
176.1046481158400923
  0
LINE
  5
929D
  8
0
 10
3925.2262758943738845
 20
451.3750644776944796
 30
0.0
 11
3925.4016537467241506
 21
447.8730323782411915
 31
0.0
  0
ARC
  5
929E
  8
0
 10
3925.5981858136060509
 20
447.8828516932035768
 30
0.0
 40
0.1967772147865892
 50
182.8602857099043035
 51
270.0595863737397053
  0
ARC
  5
929F
  8
0
 10
3960.6569125871128563
 20
447.8829220456581766
 30
0.0
 40
0.1968474774452602
 50
270.0235421697219067
 51
357.1371486804990809
  0
LINE
  5
92A0
  8
0
 10
3960.8535143890740073
 20
447.8730904210307813
 30
0.0
 11
3961.0288356229079909
 21
451.375064459042278
 31
0.0
  0
ARC
  5
92A1
  8
0
 10
3960.7768170888048189
 20
451.3715391491642208
 30
0.0
 40
0.2520431894367475
 50
0.8014180601504493
 51
86.3876317697472444
  0
LINE
  5
92A2
  8
0
 10
3958.4475421350971374
 20
447.6860745848297256
 30
0.0
 11
3958.1147888308241818
 21
443.8826869129954957
 31
0.0
  0
ARC
  5
92A3
  8
0
 10
3957.918698059676899
 20
443.8998426324924935
 30
0.0
 40
0.1968398060361249
 50
269.9971760309495039
 51
355.0000000001023182
  0
LINE
  5
92A4
  8
0
 10
3957.9186883579241112
 20
443.7030028266955242
 30
0.0
 11
3951.1820516135057915
 21
443.7033348590707078
 31
0.0
  0
ARC
  5
92A5
  8
0
 10
3951.1820613178861095
 20
443.9002279503753812
 30
0.0
 40
0.196893091543857
 50
185.1099158095335895
 51
269.9971760309495039
  0
LINE
  5
92A6
  8
0
 10
3950.9859507452238176
 20
443.8826913375954746
 30
0.0
 11
3950.9637487280760979
 21
444.1309747633522989
 31
0.0
  0
ARC
  5
92A7
  8
0
 10
3950.5707416826039662
 20
444.0958312609766949
 30
0.0
 40
0.3945752191280925
 50
5.1099158095335957
 51
89.8140229517996858
  0
LINE
  5
92A8
  8
0
 10
3950.5720224367241826
 20
444.490404401495482
 30
0.0
 11
3945.2436453531231564
 21
444.490343780995488
 31
0.0
  0
ARC
  5
92A9
  8
0
 10
3969.7919702082140248
 20
444.2073955236322718
 30
0.0
 40
18.5841530032240385
 50
169.2114198626069026
 51
175.2765889109901991
  0
ARC
  5
92AA
  8
0
 10
3949.8777742226411647
 20
445.6988773788283993
 30
0.0
 40
1.393695633810224
 50
240.1233279815423884
 51
240.1246316801075977
  0
ARC
  5
92AB
  8
0
 10
3949.3519330748190441
 20
445.9935265780026725
 30
0.0
 40
1.935973741697536
 50
309.0663552371623268
 51
352.4071496455205761
  0
LINE
  5
92AC
  8
0
 10
3945.4922697334241093
 20
447.6860737015954896
 30
0.0
 11
3945.3777969018829026
 21
446.3776429743969061
 31
0.0
  0
ARC
  5
92AD
  8
0
 10
3944.7355826624279871
 20
443.7211857432105262
 30
0.0
 40
0.4078985591150305
 50
277.5432971846777264
 51
355.6152504080059202
  0
LINE
  5
92AE
  8
0
 10
3945.1422873584238005
 20
443.6900004135954987
 30
0.0
 11
3945.3777835058172059
 21
446.3774898566301772
 31
0.0
  0
LINE
  5
92AF
  8
0
 10
3941.3637839585239817
 20
445.2505770805955194
 30
0.0
 11
3944.896970276824959
 21
445.2504506695652822
 31
0.0
  0
ARC
  5
92B0
  8
0
 10
3944.8954370691822078
 20
445.4131524046080131
 30
0.0
 40
0.1627089589160449
 50
270.5399065157207019
 51
299.1009872036829051
  0
ARC
  5
92B1
  8
0
 10
3942.9253167239207869
 20
446.5161897085977216
 30
0.0
 40
2.4597551584254651
 50
335.383609227539921
 51
344.6691344755648743
  0
ARC
  5
92B2
  8
0
 10
3943.1557892687078493
 20
446.4530060867709267
 30
0.0
 40
2.2207786659243518
 50
344.6691344755648743
 51
353.5801079384428931
  0
ARC
  5
92B3
  8
0
 10
3944.7980790099750266
 20
445.5772060334185767
 30
0.0
 40
0.3534426691424823
 50
299.9570122762036135
 51
322.4623838087031231
  0
ARC
  5
92B4
  8
0
 10
3944.359039732014935
 20
445.9145509054853278
 30
0.0
 40
0.9071186125437924
 50
322.4623838087031231
 51
332.2084409763915005
  0
ARC
  5
92B5
  8
0
 10
3945.2425990041310797
 20
444.3294183123954895
 30
0.0
 40
0.1609288702822742
 50
89.627463963060805
 51
100.9012177087603988
  0
ARC
  5
92B6
  8
0
 10
3945.2425990041310797
 20
444.3294183123954895
 30
0.0
 40
0.1609288702822742
 50
249.0830714384626106
 51
249.1950476243945047
  0
LINE
  5
92B7
  8
0
 10
3944.4929380209241572
 20
443.2668425131955132
 30
0.0
 11
3944.4772431984038121
 21
443.087449870059686
 31
0.0
  0
ARC
  5
92B8
  8
0
 10
3944.339972275423861
 20
443.0994595195954844
 30
0.0
 40
0.1377952756000047
 50
270.1265444390433004
 51
355.0000000234742856
  0
ARC
  5
92B9
  8
0
 10
3941.9153397881300407
 20
443.0994606011910832
 30
0.0
 40
0.1377960211151623
 50
185.0004243300433018
 51
269.9997440718394159
  0
LINE
  5
92BA
  8
0
 10
3941.7780682114239426
 20
443.0874498699955097
 30
0.0
 11
3941.7623723840688399
 21
443.2668424252880186
 31
0.0
  0
LINE
  5
92BB
  8
0
 10
3927.8082912609761479
 20
447.6860745848297256
 30
0.0
 11
3928.1412189061688878
 21
443.8821789989341937
 31
0.0
  0
ARC
  5
92BC
  8
0
 10
3928.3373090957829845
 20
443.8993413640935159
 30
0.0
 40
0.1968398060361249
 50
185.0019417994332116
 51
270.004765768589607
  0
LINE
  5
92BD
  8
0
 10
3928.3373254685930078
 20
443.7025015587382768
 30
0.0
 11
3935.0739621978891591
 21
443.7030619010902797
 31
0.0
  0
ARC
  5
92BE
  8
0
 10
3935.0739458206458039
 20
443.8999549919529954
 30
0.0
 40
0.196893091543857
 50
270.004765768589607
 51
354.8920259900032761
  0
LINE
  5
92BF
  8
0
 10
3935.2700569875250949
 20
443.8824250255262882
 30
0.0
 11
3935.2922505901369732
 21
444.1307092035846154
 31
0.0
  0
ARC
  5
92C0
  8
0
 10
3935.6852588264259794
 20
444.0955790205504741
 30
0.0
 40
0.3945752191280924
 50
90.1879188477276301
 51
174.8920259900033045
  0
LINE
  5
92C1
  8
0
 10
3935.6839646999078468
 20
444.4901521174368781
 30
0.0
 11
3941.0123417825029719
 21
444.4902720798738756
 31
0.0
  0
ARC
  5
92C2
  8
0
 10
3916.4640265308521521
 20
444.2064918604207833
 30
0.0
 40
18.5841530032240314
 50
4.7253528885438936
 51
10.79139931261032
  0
ARC
  5
92C3
  8
0
 10
3936.3781719574822091
 20
445.6986486226999205
 30
0.0
 40
1.3936956338102231
 50
299.8773101194248056
 51
299.878613817982
  0
ARC
  5
92C4
  8
0
 10
3936.9040031191070739
 20
445.9933156428796792
 30
0.0
 40
1.935973741697536
 50
187.5947921540129926
 51
230.9355865623778925
  0
LINE
  5
92C5
  8
0
 10
3940.7636020066820493
 20
447.6860745781431206
 30
0.0
 11
3940.8781262717498066
 21
446.37756672568878
 31
0.0
  0
ARC
  5
92C6
  8
0
 10
3941.5204305402839964
 20
443.7211312611792096
 30
0.0
 40
0.4078985591150305
 50
184.3866913915265116
 51
260.437684306404492
  0
LINE
  5
92C7
  8
0
 10
3941.1137269014179765
 20
443.6899321480365757
 30
0.0
 11
3940.8781396730059896
 21
446.3774136083761164
 31
0.0
  0
ARC
  5
92C8
  8
0
 10
3941.3605187915259194
 20
445.4130925040121269
 30
0.0
 40
0.1627089589160448
 50
240.9009545958583942
 51
269.4620352838117014
  0
ARC
  5
92C9
  8
0
 10
3943.3306017528448137
 20
446.5161965763136891
 30
0.0
 40
2.4597551584254642
 50
195.3328073239732134
 51
204.6183325719908908
  0
ARC
  5
92CA
  8
0
 10
3943.1001313495330578
 20
446.4530051436253757
 30
0.0
 40
2.2207786659243518
 50
186.4218338610897945
 51
195.3328073239732134
  0
ARC
  5
92CB
  8
0
 10
3941.4578712907700719
 20
445.5771494322705166
 30
0.0
 40
0.3534426691424822
 50
217.5395579908399952
 51
240.0449295233354121
  0
ARC
  5
92CC
  8
0
 10
3941.8968991355918661
 20
445.9145091835337098
 30
0.0
 40
0.9071186125437922
 50
207.7935008231399934
 51
217.5395579908399952
  0
ARC
  5
92CD
  8
0
 10
3941.0134405502440131
 20
444.3292624040381043
 30
0.0
 40
0.1610134249163721
 50
79.1238881429093794
 51
90.3909937504139975
  0
LINE
  5
92CE
  8
0
 10
3944.78912969603698
 20
443.3168171616911764
 30
0.0
 11
3944.0069191955240058
 21
443.1848408243955078
 31
0.0
  0
ARC
  5
92CF
  8
0
 10
3943.9525574170129403
 20
443.5070376283700284
 30
0.0
 40
0.3267506441528084
 50
268.6213964231088198
 51
279.5768784993251188
  0
LINE
  5
92D0
  8
0
 10
3943.9446961723101595
 20
443.1803815641587221
 30
0.0
 11
3942.3075603226989188
 21
443.1804816975767949
 31
0.0
  0
ARC
  5
92D1
  8
0
 10
3942.3086781807778607
 20
443.6482000263753775
 30
0.0
 40
0.4677051918921465
 50
257.1267980756437055
 51
269.8634830920915988
  0
LINE
  5
92D2
  8
0
 10
3942.2044761853608179
 20
443.1922503683276773
 30
0.0
 11
3941.4526703475808063
 21
443.318900244457609
 31
0.0
  0
LINE
  5
92D3
  8
0
 10
3943.1280181490719769
 20
443.0396922992953819
 30
0.0
 11
3943.8276734959240457
 21
443.0382594678953865
 31
0.0
  0
ARC
  5
92D4
  8
0
 10
3943.8475949396538454
 20
443.9290725924536787
 30
0.0
 40
0.89103585046033
 50
268.7188958107086023
 51
289.1707432433719873
  0
ARC
  5
92D5
  8
0
 10
3943.7075091409119523
 20
443.5037573208542767
 30
0.0
 40
0.6004422085528529
 50
316.1053332931306841
 51
332.2232202073809049
  0
LINE
  5
92D6
  8
0
 10
3943.1280168867451721
 20
443.0396922992637769
 30
0.0
 11
3942.4283616125098888
 21
443.0382244370075
 31
0.0
  0
ARC
  5
92D7
  8
0
 10
3942.4083955669179886
 20
443.9290365630076849
 30
0.0
 40
0.89103585046033
 50
250.8321254838498078
 51
271.2839729165061726
  0
ARC
  5
92D8
  8
0
 10
3942.5485026604819723
 20
443.5037283058600224
 30
0.0
 40
0.6004422085528529
 50
207.7796485198367122
 51
223.8975354340728927
  0
LINE
  5
92D9
  8
0
 10
3941.9153391726240443
 20
442.9616645800772972
 30
0.0
 11
3944.3402766121798777
 21
442.9616645800772972
 31
0.0
  0
LINE
  5
92DA
  8
0
 10
3925.5983904576241912
 20
447.6860745848297256
 30
0.0
 11
3960.6569934694548465
 21
447.6860745848297256
 31
0.0
  0
ENDSEC
  0
EOF
