  0
SECTION
  2
HEADER
  9
$ACADVER
  1
AC1009
  9
$INSBASE
 10
3129.8896134390301995
 20
106.4756087496436976
 30
0.0
  9
$EXTMIN
 10
3125.291382698138932
 20
106.4701355270279066
 30
-0.0000000349181948
  9
$EXTMAX
 10
3131.0081140459537892
 20
111.7370189571308998
 30
0.0000000814935746
  9
$LIMMIN
 10
0.0
 20
0.0
  9
$LIMMAX
 10
11.6929133858000007
 20
8.2677165353999982
  9
$ORTHOMODE
 70
     0
  9
$REGENMODE
 70
     1
  9
$FILLMODE
 70
     1
  9
$QTEXTMODE
 70
     0
  9
$MIRRTEXT
 70
     0
  9
$DRAGMODE
 70
     2
  9
$LTSCALE
 40
0.6431102362
  9
$OSMODE
 70
   575
  9
$ATTMODE
 70
     1
  9
$TEXTSIZE
 40
0.2
  9
$TRACEWID
 40
0.05
  9
$TEXTSTYLE
  7
STANDARD
  9
$CLAYER
  8
0
  9
$CELTYPE
  6
BYLAYER
  9
$CECOLOR
 62
   256
  9
$DIMSCALE
 40
1.0
  9
$DIMASZ
 40
0.1875
  9
$DIMEXO
 40
0.0625
  9
$DIMDLI
 40
0.4443307087
  9
$DIMRND
 40
0.0
  9
$DIMDLE
 40
0.0
  9
$DIMEXE
 40
0.125
  9
$DIMTP
 40
0.01
  9
$DIMTM
 40
0.01
  9
$DIMTXT
 40
2.0
  9
$DIMCEN
 40
0.1052362205
  9
$DIMTSZ
 40
0.0
  9
$DIMTOL
 70
     1
  9
$DIMLIM
 70
     0
  9
$DIMTIH
 70
     1
  9
$DIMTOH
 70
     1
  9
$DIMSE1
 70
     0
  9
$DIMSE2
 70
     0
  9
$DIMTAD
 70
     0
  9
$DIMZIN
 70
     0
  9
$DIMBLK
  1

  9
$DIMASO
 70
     1
  9
$DIMSHO
 70
     1
  9
$DIMPOST
  1
\X
  9
$DIMAPOST
  1

  9
$DIMALT
 70
     1
  9
$DIMALTD
 70
     2
  9
$DIMALTF
 40
25.3999999999999986
  9
$DIMLFAC
 40
1.0
  9
$DIMTOFL
 70
     0
  9
$DIMTVP
 40
0.0
  9
$DIMTIX
 70
     0
  9
$DIMSOXD
 70
     0
  9
$DIMSAH
 70
     0
  9
$DIMBLK1
  1

  9
$DIMBLK2
  1

  9
$DIMSTYLE
  2
STANDARD
  9
$DIMCLRD
 70
     0
  9
$DIMCLRE
 70
     0
  9
$DIMCLRT
 70
     0
  9
$DIMTFAC
 40
1.0
  9
$DIMGAP
 40
0.09
  9
$LUNITS
 70
     2
  9
$LUPREC
 70
     4
  9
$SKETCHINC
 40
0.1
  9
$FILLETRAD
 40
0.0
  9
$AUNITS
 70
     0
  9
$AUPREC
 70
     0
  9
$MENU
  1
.
  9
$ELEVATION
 40
0.0
  9
$PELEVATION
 40
0.0
  9
$THICKNESS
 40
0.0
  9
$LIMCHECK
 70
     0
  9
$BLIPMODE
 70
     0
  9
$CHAMFERA
 40
0.0
  9
$CHAMFERB
 40
0.0
  9
$SKPOLY
 70
     0
  9
$TDCREATE
 40
2458060.468368056230247
  9
$TDUPDATE
 40
2459660.4972916659899056
  9
$TDINDWG
 40
0.2953195602
  9
$TDUSRTIMER
 40
0.2953195602
  9
$USRTIMER
 70
     1
  9
$ANGBASE
 50
0.0
  9
$ANGDIR
 70
     0
  9
$PDMODE
 70
     0
  9
$PDSIZE
 40
0.3125
  9
$PLINEWID
 40
0.0
  9
$COORDS
 70
     1
  9
$SPLFRAME
 70
     0
  9
$SPLINETYPE
 70
     6
  9
$SPLINESEGS
 70
     8
  9
$ATTDIA
 70
     1
  9
$ATTREQ
 70
     1
  9
$HANDLING
 70
     1
  9
$HANDSEED
  5
756D
  9
$SURFTAB1
 70
     6
  9
$SURFTAB2
 70
     6
  9
$SURFTYPE
 70
     6
  9
$SURFU
 70
     6
  9
$SURFV
 70
     6
  9
$UCSNAME
  2

  9
$UCSORG
 10
0.0
 20
0.0
 30
0.0
  9
$UCSXDIR
 10
1.0
 20
0.0
 30
0.0
  9
$UCSYDIR
 10
0.0
 20
1.0
 30
0.0
  9
$PUCSNAME
  2

  9
$PUCSORG
 10
0.0
 20
0.0
 30
0.0
  9
$PUCSXDIR
 10
1.0
 20
0.0
 30
0.0
  9
$PUCSYDIR
 10
0.0
 20
1.0
 30
0.0
  9
$USERI1
 70
     0
  9
$USERI2
 70
     0
  9
$USERI3
 70
     0
  9
$USERI4
 70
     0
  9
$USERI5
 70
     0
  9
$USERR1
 40
0.0
  9
$USERR2
 40
0.0
  9
$USERR3
 40
0.0
  9
$USERR4
 40
0.0
  9
$USERR5
 40
0.0
  9
$WORLDVIEW
 70
     1
  9
$SHADEDGE
 70
     3
  9
$SHADEDIF
 70
    70
  9
$TILEMODE
 70
     1
  9
$MAXACTVP
 70
    64
  9
$PLIMCHECK
 70
     0
  9
$PEXTMIN
 10
1.0000000000000000E+20
 20
1.0000000000000000E+20
 30
1.0000000000000000E+20
  9
$PEXTMAX
 10
-1.0000000000000000E+20
 20
-1.0000000000000000E+20
 30
-1.0000000000000000E+20
  9
$PLIMMIN
 10
0.0
 20
0.0
  9
$PLIMMAX
 10
12.0
 20
9.0
  9
$UNITMODE
 70
     0
  9
$VISRETAIN
 70
     1
  9
$PLINEGEN
 70
     0
  9
$PSLTSCALE
 70
     1
  0
ENDSEC
  0
SECTION
  2
TABLES
  0
TABLE
  2
VPORT
 70
     1
  0
VPORT
  2
*ACTIVE
 70
     0
 10
0.0
 20
0.0
 11
1.0
 21
1.0
 12
111.494961655368698
 22
5.234128183245125
 13
0.0
 23
0.0
 14
1.0
 24
1.0
 15
0.0
 25
0.0
 16
0.0
 26
0.0
 36
106.320558520324596
 17
3016.9793701171879547
 27
103.3362045288085938
 37
0.0
 40
8.0218510866717594
 41
2.2268786127167619
 42
50.0
 43
0.0
 44
0.0
 50
0.0
 51
0.0
 71
     0
 72
   100
 73
     1
 74
     1
 75
     0
 76
     0
 77
     0
 78
     0
  0
ENDTAB
  0
TABLE
  2
LTYPE
 70
     2
  0
LTYPE
  2
CONTINUOUS
 70
     0
  3
Solid line
 72
    65
 73
     0
 40
0.0
  0
LTYPE
  2
PHANTOM2
 70
     0
  3
___ _ _ ___ _ _ ___ _ _ ___ _ _
 72
    65
 73
     6
 40
1.25
 49
0.625
 49
-0.125
 49
0.125
 49
-0.125
 49
0.125
 49
-0.125
  0
ENDTAB
  0
TABLE
  2
LAYER
 70
     2
  0
LAYER
  2
0
 70
     0
 62
   255
  6
CONTINUOUS
  0
LAYER
  2
DEFPOINTS
 70
     0
 62
     7
  6
CONTINUOUS
  0
ENDTAB
  0
TABLE
  2
STYLE
 70
     1
  0
STYLE
  2
STANDARD
 70
     0
 40
0.0
 41
0.8
 50
0.0
 71
     0
 42
0.2
  3
txt
  4

  0
ENDTAB
  0
TABLE
  2
VIEW
 70
     0
  0
ENDTAB
  0
TABLE
  2
UCS
 70
     0
  0
ENDTAB
  0
TABLE
  2
APPID
 70
     9
  0
APPID
  2
ACAD
 70
     0
  0
APPID
  2
ACAD_MLEADERVER
 70
     0
  0
APPID
  2
ACAD_EXEMPT_FROM_CAD_STANDARDS
 70
     0
  0
APPID
  2
ACAD_NAV_VCDISPLAY
 70
     0
  0
APPID
  2
ACAECLAYERSTANDARD
 70
     0
  0
APPID
  2
ACCMTRANSPARENCY
 70
     0
  0
APPID
  2
ACAD_DSTYLE_DIMJAG
 70
     0
  0
APPID
  2
ACAD_DSTYLE_DIMTALN
 70
     0
  0
APPID
  2
ACDBATTR
 70
     0
  0
ENDTAB
  0
TABLE
  2
DIMSTYLE
 70
     1
  0
DIMSTYLE
  2
STANDARD
 70
     0
  3

  4

  5

  6

  7

 40
1.0
 41
0.1875
 42
0.0625
 43
0.38
 44
0.125
 45
0.0
 46
0.0
 47
0.01
 48
0.01
140
0.15625
141
0.09
142
0.0
143
25.3999999999999986
144
1.0
145
0.0
146
1.0
147
0.09
 71
     1
 72
     0
 73
     1
 74
     1
 75
     0
 76
     0
 77
     0
 78
     4
170
     0
171
     2
172
     0
173
     0
174
     0
175
     0
176
     0
177
     0
178
     0
  0
ENDTAB
  0
ENDSEC
  0
SECTION
  2
BLOCKS
  0
BLOCK
  8
0
  2
$MODEL_SPACE
 70
     0
 10
0.0
 20
0.0
 30
0.0
  3
$MODEL_SPACE
  1

  0
ENDBLK
  5
21
  8
0
  0
BLOCK
 67
     1
  8
0
  2
$PAPER_SPACE
 70
     0
 10
0.0
 20
0.0
 30
0.0
  3
$PAPER_SPACE
  1

  0
ENDBLK
  5
1D
 67
     1
  8
0
  0
BLOCK
  8
0
  2
_FILLED
 70
     0
 10
0.0
 20
0.0
 30
0.0
  3
_FILLED
  1

  0
SOLID
  5
6923
  8
0
  6
BYBLOCK
 62
     0
 10
0.0
 20
0.0
 30
0.0
 11
-1.0
 21
0.1666666667
 31
0.0
 12
-1.0
 22
-0.1666666667
 32
0.0
 13
-1.0
 23
-0.1666666667
 33
0.0
  0
ENDBLK
  5
6924
  8
0
  6
BYBLOCK
 62
     0
  0
ENDSEC
  0
SECTION
  2
ENTITIES
  0
ATTDEF
  5
3930
  8
DEFPOINTS
 10
3129.8896328443747734
 20
106.4790118021565064
 30
0.0
 40
0.001
  1
K-27484IN-4
  3

  2
MODELNUMBER
 70
     0
1001
ACDBATTR
1070
     0
1070
     1
  0
ATTDEF
  5
3931
  8
DEFPOINTS
 10
3129.8896328443747734
 20
106.4773451354897986
 30
0.0
 40
0.001
  1

  3

  2
TRADENAME
 70
     0
1001
ACDBATTR
1070
     0
1070
     1
  0
ATTDEF
  5
3932
  8
DEFPOINTS
 10
3129.8896328443747734
 20
106.475678468823105
 30
0.0
 40
0.001
  1
BATHROOM SINK FAUCET 
  3

  2
PRODUCT
 70
     0
1001
ACDBATTR
1070
     0
1070
     1
  0
LINE
  5
72CE
  8
0
 10
3125.362058294434064
 20
110.473728418506397
 30
0.0
 11
3125.3622129307291289
 21
110.4347784487436996
 31
0.0
  0
LINE
  5
72CF
  8
0
 10
3129.0017190488288179
 20
106.4756087496436976
 30
0.0
 11
3130.7775078292288526
 21
106.4756087496436976
 31
0.0
  0
LINE
  5
72D0
  8
0
 10
3130.7557581694291002
 20
106.6134040252436961
 30
0.0
 11
3129.0234687086299346
 21
106.6134040252436961
 31
0.0
  0
LINE
  5
72D1
  8
0
 10
3125.7630975404290439
 20
109.8716084147437044
 30
0.0
 11
3125.7681363371289081
 21
109.9143464534436987
 31
0.0
  0
LINE
  5
72D2
  8
0
 10
3125.8366544313298618
 20
109.8243465191437025
 30
0.0
 11
3125.8368955876458131
 21
109.825246527005902
 31
0.0
  0
LINE
  5
72D3
  8
0
 10
3125.8411776772290978
 20
109.8222740604437035
 30
0.0
 11
3125.8405998758298665
 21
109.820117676343699
 31
0.0
  0
LINE
  5
72D4
  8
0
 10
3125.8539127630688199
 20
109.8051709978069965
 30
0.0
 11
3125.8577917107190842
 21
109.819647427702094
 31
0.0
  0
LINE
  5
72D5
  8
0
 10
3125.8545928508938232
 20
109.8052402337723947
 30
0.0
 11
3125.8584089324290289
 21
109.8194820436432053
 31
0.0
  0
LINE
  5
72D6
  8
0
 10
3125.8686769327291586
 20
109.7931716924437069
 30
0.0
 11
3125.8692247544290694
 21
109.7952161909437052
 31
0.0
  0
LINE
  5
72D7
  8
0
 10
3125.8700369698299255
 20
109.7982474203436993
 30
0.0
 11
3125.8711521398290643
 21
109.8024092913436931
 31
0.0
  0
LINE
  5
72D8
  8
0
 10
3125.8725387838298957
 20
109.8075843172437942
 30
0.0
 11
3125.8742640444288554
 21
109.8140230773437054
 31
0.0
  0
LINE
  5
72D9
  8
0
 10
3125.8783535785291861
 20
109.8103319841437013
 30
0.0
 11
3125.876640628729092
 21
109.8039391685437067
 31
0.0
  0
LINE
  5
72DA
  8
0
 10
3125.8752635468290464
 20
109.7987998289437002
 30
0.0
 11
3125.8741558617298324
 21
109.7946658917437048
 31
0.0
  0
LINE
  5
72DB
  8
0
 10
3125.8733489865298907
 20
109.7916545926436953
 30
0.0
 11
3125.8728047152299041
 21
109.7896233444436973
 31
0.0
  0
LINE
  5
72DC
  8
0
 10
3125.8866814721609444
 20
109.7767810562459943
 30
0.0
 11
3125.895462817950829
 21
109.8095534849386041
 31
0.0
  0
LINE
  5
72DD
  8
0
 10
3125.8874206086547929
 20
109.7770706644813998
 30
0.0
 11
3125.8960800396298509
 21
109.8093881008437052
 31
0.0
  0
LINE
  5
72DE
  8
0
 10
3125.9020492465288044
 20
109.7670344343436994
 30
0.0
 11
3125.9025730158291481
 21
109.7689891680437029
 31
0.0
  0
LINE
  5
72DF
  8
0
 10
3125.9033490822289423
 20
109.7718854873437948
 30
0.0
 11
3125.9044136462289316
 21
109.7758584940437032
 31
0.0
  0
LINE
  5
72E0
  8
0
 10
3125.9057357411297744
 20
109.7807926195437034
 30
0.0
 11
3125.9073780683302175
 21
109.786921867943704
 31
0.0
  0
LINE
  5
72E1
  8
0
 10
3125.9092945076290562
 20
109.7940741167437011
 30
0.0
 11
3125.9115786108291104
 21
109.8025985059437062
 31
0.0
  0
LINE
  5
72E2
  8
0
 10
3125.9158139338301226
 20
109.7994515044436952
 30
0.0
 11
3125.9135423608290694
 21
109.7909738787436993
 31
0.0
  0
LINE
  5
72E3
  8
0
 10
3125.9116359643289798
 20
109.7838591099437053
 30
0.0
 11
3125.9100019227298617
 21
109.7777607836436999
 31
0.0
  0
LINE
  5
72E4
  8
0
 10
3125.9086862934291275
 20
109.772850788443705
 30
0.0
 11
3125.9076268087292192
 21
109.7688967377437024
 31
0.0
  0
LINE
  5
72E5
  8
0
 10
3125.9068543760290595
 20
109.7660139794436986
 30
0.0
 11
3125.9063330269291328
 21
109.7640682781436965
 31
0.0
  0
LINE
  5
72E6
  8
0
 10
3125.9209201179291995
 20
109.7538769930437041
 30
0.0
 11
3125.9331339251289137
 21
109.7994595421436941
 31
0.0
  0
LINE
  5
72E7
  8
0
 10
3125.9214875055290577
 20
109.7535256255437019
 30
0.0
 11
3125.933751146827035
 21
109.7992941581343018
 31
0.0
  0
LINE
  5
72E8
  8
0
 10
3126.3447012103288216
 20
111.6960232160436988
 30
0.0
 11
3126.3324343909298477
 21
111.596117988643698
 31
0.0
  0
LINE
  5
72E9
  8
0
 10
3125.9365998356288401
 20
109.745294559343705
 30
0.0
 11
3125.9371074305290676
 21
109.7471889294436949
 31
0.0
  0
LINE
  5
72EA
  8
0
 10
3125.9378592257298806
 20
109.7499946671436959
 30
0.0
 11
3125.9388898881288696
 21
109.7538411515436962
 31
0.0
  0
LINE
  5
72EB
  8
0
 10
3125.9401688712291616
 20
109.7586143814437065
 30
0.0
 11
3125.9417560243291518
 21
109.7645377174437016
 31
0.0
  0
LINE
  5
72EC
  8
0
 10
3125.9436056984291099
 20
109.7714407951437039
 30
0.0
 11
3125.9458066715292262
 21
109.779654938743704
 31
0.0
  0
LINE
  5
72ED
  8
0
 10
3125.9482989361290493
 20
109.7889561966436958
 30
0.0
 11
3125.9499089093228577
 21
109.7949646987208041
 31
0.0
  0
LINE
  5
72EE
  8
0
 10
3125.9546472699298647
 20
109.7936950588436957
 30
0.0
 11
3125.9526814843297871
 21
109.7863586472437021
 31
0.0
  0
LINE
  5
72EF
  8
0
 10
3125.9501987848298086
 20
109.7770930864436991
 30
0.0
 11
3125.9480058418289445
 21
109.768908911643706
 31
0.0
  0
LINE
  5
72F0
  8
0
 10
3125.9461626340298608
 20
109.7620299668436985
 30
0.0
 11
3125.9445808359291732
 21
109.7561266159436997
 31
0.0
  0
LINE
  5
72F1
  8
0
 10
3125.9433060441288035
 20
109.7513690281436993
 30
0.0
 11
3125.9422786819291105
 21
109.7475348600437002
 31
0.0
  0
LINE
  5
72F2
  8
0
 10
3125.9415292517301168
 20
109.7447379484436993
 30
0.0
 11
3125.9410232338300375
 21
109.7428494640437009
 31
0.0
  0
LINE
  5
72F3
  8
0
 10
3125.9532003897297727
 20
109.7359374852436957
 30
0.0
 11
3125.9541023114297786
 21
109.7393035029436987
 31
0.0
  0
LINE
  5
72F4
  8
0
 10
3125.9542434799300281
 20
109.7398303508437039
 30
0.0
 11
3125.9560742917301468
 21
109.746663033743701
 31
0.0
  0
LINE
  5
72F5
  8
0
 10
3125.9563143381287773
 20
109.7475588988437067
 30
0.0
 11
3125.9591322189289713
 21
109.7580753732436989
 31
0.0
  0
LINE
  5
72F6
  8
0
 10
3125.9594790980290782
 20
109.7593699438436943
 30
0.0
 11
3125.9633836020298077
 21
109.7739417510436937
 31
0.0
  0
LINE
  5
72F7
  8
0
 10
3125.9638504043291505
 20
109.7756838807436992
 30
0.0
 11
3125.9677367057288393
 21
109.7901877550437035
 31
0.0
  0
LINE
  5
72F8
  8
0
 10
3125.9977608134290676
 20
109.7805478077437016
 30
0.0
 11
3125.9821359660300004
 21
109.7222350833437048
 31
0.0
  0
LINE
  5
72F9
  8
0
 10
3126.008097932929104
 20
109.7778601702436987
 30
0.0
 11
3126.0084761396301474
 21
109.7792716566437008
 31
0.0
  0
LINE
  5
72FA
  8
0
 10
3126.0086963224298415
 20
109.7776245035437057
 30
0.0
 11
3126.0090933613428206
 21
109.7791062725936939
 31
0.0
  0
LINE
  5
72FB
  8
0
 10
3126.0454683276288961
 20
109.7666439527437063
 30
0.0
 11
3126.0461472468291504
 21
109.7691777138437033
 31
0.0
  0
LINE
  5
72FC
  8
0
 10
3126.343108055229095
 20
109.7161950656437028
 30
0.0
 11
3126.3601133486290564
 21
109.7557266912436944
 31
0.0
  0
LINE
  5
72FD
  8
0
 10
3125.9063330269291328
 20
109.7640682781436965
 30
0.0
 11
3125.9209201179291995
 21
109.7538769930437041
 31
0.0
  0
LINE
  5
72FE
  8
0
 10
3125.785126613428929
 20
109.8391179818436996
 30
0.0
 11
3126.3077851021298557
 21
109.6990720618436939
 31
0.0
  0
LINE
  5
72FF
  8
0
 10
3125.6039032342291648
 20
109.958352580743707
 30
0.0
 11
3126.5192396707288935
 21
109.7130889217437044
 31
0.0
  0
LINE
  5
7300
  8
0
 10
3126.0436834445290515
 20
109.7666456179436949
 30
0.0
 11
3126.0454683276288961
 21
109.7666439527437063
 31
0.0
  0
LINE
  5
7301
  8
0
 10
3126.008097932929104
 20
109.7778601702436987
 30
0.0
 11
3126.0057424244591857
 21
109.7779172260055986
 31
0.0
  0
LINE
  5
7302
  8
0
 10
3129.0037866673292228
 20
106.5940625371436994
 30
0.0
 11
3129.0017190488288179
 21
106.4756087496436976
 31
0.0
  0
LINE
  5
7303
  8
0
 10
3128.3541803723292105
 20
109.9598607182437036
 30
0.0
 11
3127.1402051930290327
 21
109.9598607181437018
 31
0.0
  0
LINE
  5
7304
  8
0
 10
3129.2203221004288025
 20
106.6134040252436961
 30
0.0
 11
3129.220318988229792
 21
109.0960218767437055
 31
0.0
  0
LINE
  5
7305
  8
0
 10
3129.2203221004288025
 20
110.5602544155437954
 30
0.0
 11
3129.2203221004288025
 21
111.0228529508436992
 31
0.0
  0
LINE
  5
7306
  8
0
 10
3129.5392197382298036
 20
110.5504118992436986
 30
0.0
 11
3129.5392197382298036
 21
110.5041513868437022
 31
0.0
  0
LINE
  5
7307
  8
0
 10
3129.3875227000298764
 20
110.5109892340437057
 30
0.0
 11
3126.8759109390298363
 21
110.5107055497437045
 31
0.0
  0
LINE
  5
7308
  8
0
 10
3129.2301646201299263
 20
110.5504118992436986
 30
0.0
 11
3130.5487336618298286
 21
110.5504118992436986
 31
0.0
  0
LINE
  5
7309
  8
0
 10
3126.8759109390298363
 20
110.5107055497437045
 30
0.0
 11
3125.8684183616292103
 21
110.5110418206436975
 31
0.0
  0
LINE
  5
730A
  8
0
 10
3130.4982018618297843
 20
110.4954201286437012
 30
0.0
 11
3130.4623602003298402
 21
110.4975751743436945
 31
0.0
  0
LINE
  5
730B
  8
0
 10
3130.5405763503290473
 20
110.4926179793437058
 30
0.0
 11
3130.4982018618297843
 21
110.4954201286437012
 31
0.0
  0
LINE
  5
730C
  8
0
 10
3130.2400071398287764
 20
110.5504118992436986
 30
0.0
 11
3130.2400071398287764
 21
110.5020506275436958
 31
0.0
  0
LINE
  5
730D
  8
0
 10
3130.5585431419299312
 20
110.5606034503437058
 30
0.0
 11
3130.5183151422302217
 21
111.6943016229436978
 31
0.0
  0
LINE
  5
730E
  8
0
 10
3130.5589077440290566
 20
110.4729513976436976
 30
0.0
 11
3130.558904777628868
 21
106.6134040252436961
 31
0.0
  0
LINE
  5
730F
  8
0
 10
3126.3519727009288545
 20
111.5740339464437056
 30
0.0
 11
3128.6690958178301116
 21
111.5740339464437056
 31
0.0
  0
LINE
  5
7310
  8
0
 10
3130.7754402106302223
 20
106.5940625371436994
 30
0.0
 11
3130.7775078292288526
 21
106.4756087496436976
 31
0.0
  0
LINE
  5
7311
  8
0
 10
3126.8974875649291789
 20
111.7315142614437065
 30
0.0
 11
3129.8896134624301339
 21
111.7315142614437065
 31
0.0
  0
ARC
  5
7312
  8
0
 10
3125.7928911845287985
 20
109.8680957566436973
 30
0.0
 40
0.03
 50
173.2758928270991134
 51
255.0000000000050875
  0
ARC
  5
7313
  8
0
 10
3125.3817397357379377
 20
110.4733362961588057
 30
0.0
 40
0.0196853471321259
 50
95.0447156583999657
 51
178.858621011213387
  0
ARC
  5
7314
  8
0
 10
3126.068664284328861
 20
110.0255690122423999
 30
0.0
 40
0.3075722659984161
 50
233.8946471015376005
 51
237.1998634701047877
  0
ARC
  5
7315
  8
0
 10
3126.0593584099760847
 20
110.0242566680984027
 30
0.0
 40
0.299911264527244
 50
239.4362202072908872
 51
242.729034751649607
  0
ARC
  5
7316
  8
0
 10
3126.0665182261118389
 20
110.0166491009486975
 30
0.0
 40
0.2992622906527156
 50
245.3132511639001052
 51
247.9359134031107885
  0
ARC
  5
7317
  8
0
 10
3126.058133441085829
 20
110.0215483950337045
 30
0.0
 40
0.2969971616202356
 50
242.8281093771408905
 51
246.1109058082664092
  0
ARC
  5
7318
  8
0
 10
3126.0502606977288451
 20
110.0218827832436972
 30
0.0
 40
0.2908899957
 50
248.4273455759978901
 51
251.1078966184030037
  0
ARC
  5
7319
  8
0
 10
3126.0417622556688002
 20
110.0268350565921054
 30
0.0
 40
0.2868162239717393
 50
245.8845224976421093
 51
249.2549203066843972
  0
ARC
  5
731A
  8
0
 10
3126.0626236485290974
 20
110.047659572843699
 30
0.0
 40
0.3176960923
 50
224.3302229725740915
 51
224.6612704290079989
  0
ARC
  5
731B
  8
0
 10
3126.06468749772921
 20
110.0361699367437041
 30
0.0
 40
0.3121991165
 50
227.7047800731648977
 51
231.1091837249927892
  0
ARC
  5
731C
  8
0
 10
3126.0507194195288321
 20
110.0453056277437014
 30
0.0
 40
0.3060242176
 50
226.7861934872086067
 51
230.2852082047284057
  0
ARC
  5
731D
  8
0
 10
3126.0540350682440476
 20
110.0340432932335943
 30
0.0
 40
0.3023239029009153
 50
233.2977036533849002
 51
236.6721778136167131
  0
ARC
  5
731E
  8
0
 10
3126.0463053771291015
 20
110.0396351950437008
 30
0.0
 40
0.2988956493
 50
230.3810910635168909
 51
233.8619890388023919
  0
ARC
  5
731F
  8
0
 10
3126.0518290835780135
 20
110.0304487164387979
 30
0.0
 40
0.2981631336038819
 50
236.7796555799978933
 51
240.1333919302940956
  0
ARC
  5
7320
  8
0
 10
3126.0423985240290676
 20
110.0286603095436959
 30
0.0
 40
0.2886476601
 50
242.403826932697001
 51
245.7857944430010093
  0
ARC
  5
7321
  8
0
 10
3126.0361264694302008
 20
110.0378326530436937
 30
0.0
 40
0.2881207574
 50
236.0604638971001918
 51
239.5431807896920873
  0
ARC
  5
7322
  8
0
 10
3126.0310351452299074
 20
110.0478607751437039
 30
0.0
 40
0.2877401636
 50
232.2096686339496046
 51
232.8958057115038116
  0
ARC
  5
7323
  8
0
 10
3126.0296532388288142
 20
110.0457401736436935
 30
0.0
 40
0.285312397
 50
233.0066101571042907
 51
236.5866546799915966
  0
ARC
  5
7324
  8
0
 10
3126.0347875323291191
 20
110.0352317701436959
 30
0.0
 40
0.2852957171
 50
239.6486377771896059
 51
243.1058309890015892
  0
ARC
  5
7325
  8
0
 10
3126.0345377033299883
 20
110.0286220863437023
 30
0.0
 40
0.2808585249
 50
251.6596834230932984
 51
254.4260375438894073
  0
ARC
  5
7326
  8
0
 10
3126.0262492710298829
 20
110.0347891785437042
 30
0.0
 40
0.2758661077
 50
245.4512611524885983
 51
248.9584677475951082
  0
ARC
  5
7327
  8
0
 10
3126.025950899072086
 20
110.0335515525908932
 30
0.0
 40
0.2747412987011916
 50
249.0608997086862928
 51
252.5592706701071961
  0
ARC
  5
7328
  8
0
 10
3126.0193469963301141
 20
110.0435455513436978
 30
0.0
 40
0.27252103
 50
238.8441923931964936
 51
242.4748078426003133
  0
ARC
  5
7329
  8
0
 10
3126.0183961571287909
 20
110.0413618024437028
 30
0.0
 40
0.2702857181
 50
242.5849815768985138
 51
246.1932533233101026
  0
ARC
  5
732A
  8
0
 10
3126.0135704768290452
 20
110.046655050343702
 30
0.0
 40
0.2690746969
 50
268.9620586689927109
 51
270.2571383826934266
  0
ARC
  5
732B
  8
0
 10
3126.0192530930289649
 20
110.0368506731437037
 30
0.0
 40
0.268779652
 50
255.1127395041980037
 51
258.0028202300035787
  0
ARC
  5
732C
  8
0
 10
3126.0106829364299301
 20
110.042435533843701
 30
0.0
 40
0.2608474001999999
 50
248.6726818620039126
 51
252.3588905450031916
  0
ARC
  5
732D
  8
0
 10
3126.0106733662892111
 20
110.0418747118958009
 30
0.0
 40
0.2604963433446021
 50
252.4660951791312868
 51
256.1462402931007887
  0
ARC
  5
732E
  8
0
 10
3126.0752473790030308
 20
110.017841748425198
 30
0.0
 40
0.3057860552079663
 50
239.8122724754061892
 51
243.0370938473635078
  0
ARC
  5
732F
  8
0
 10
3126.1300817232290683
 20
110.0127219535437035
 30
0.0
 40
0.3218285063
 50
230.3156641637062876
 51
233.5529345782063046
  0
ARC
  5
7330
  8
0
 10
3126.1110263836599188
 20
110.0132386806883034
 30
0.0
 40
0.317852595388561
 50
233.6223057746574909
 51
236.8270182937473862
  0
ARC
  5
7331
  8
0
 10
3126.1191393230578797
 20
110.0090497557776956
 30
0.0
 40
0.3157051267785678
 50
235.9297937792397022
 51
238.5126919588252008
  0
ARC
  5
7332
  8
0
 10
3126.1270658574298977
 20
110.0225672216436976
 30
0.0
 40
0.3323239436
 50
224.6453220679028959
 51
227.9340571431044964
  0
ARC
  5
7333
  8
0
 10
3126.1142996448288613
 20
110.017886313743702
 30
0.0
 40
0.323588427
 50
230.3057616419953035
 51
233.5258633683498033
  0
ARC
  5
7334
  8
0
 10
3126.1076302429469251
 20
110.0236253874319061
 30
0.0
 40
0.3269374108753011
 50
227.908180831505689
 51
231.1556869033528869
  0
ARC
  5
7335
  8
0
 10
3126.1304150203291101
 20
110.0369292552437059
 30
0.0
 40
0.3496777691
 50
218.3205994891434045
 51
218.6830476579004028
  0
ARC
  5
7336
  8
0
 10
3126.1265330870292019
 20
110.0335720220436997
 30
0.0
 40
0.3444642743
 50
218.7721830638045049
 51
222.1503950100025122
  0
ARC
  5
7337
  8
0
 10
3126.1112059196229893
 20
110.039347628556996
 30
0.0
 40
0.3437947372048269
 50
218.9095993244812064
 51
221.8662226605962928
  0
ARC
  5
7338
  8
0
 10
3126.1326908284290766
 20
110.028299007243703
 30
0.0
 40
0.3404394836
 50
221.2259382848928055
 51
224.5501750478076133
  0
ARC
  5
7339
  8
0
 10
3126.0911180993298331
 20
110.0412668878437046
 30
0.0
 40
0.3341651598
 50
221.4370005893021869
 51
224.8148962705228087
  0
ARC
  5
733A
  8
0
 10
3126.103758855561864
 20
110.0323372191623008
 30
0.0
 40
0.33351555678456
 50
221.9513147840173986
 51
225.3142518939598062
  0
ARC
  5
733B
  8
0
 10
3126.1118479383299018
 20
110.0284081480436953
 30
0.0
 40
0.3333661136
 50
224.5199697583028922
 51
227.8024614991122121
  0
ARC
  5
733C
  8
0
 10
3126.091997301929041
 20
110.0295513011436981
 30
0.0
 40
0.3249781754
 50
227.5859056722082983
 51
230.8614389843949937
  0
ARC
  5
733D
  8
0
 10
3126.13817110912305
 20
110.0089304181607019
 30
0.0
 40
0.3184131848084056
 50
232.5560903350722981
 51
235.1706206809022035
  0
ARC
  5
733E
  8
0
 10
3126.146779022129067
 20
110.0324869669436936
 30
0.0
 40
0.3492719343
 50
218.3947769415831033
 51
218.717695992597811
  0
ARC
  5
733F
  8
0
 10
3126.1484598490292228
 20
110.0235533890436983
 30
0.0
 40
0.3378089722999999
 50
221.1125012965966903
 51
224.4662620436023133
  0
ARC
  5
7340
  8
0
 10
3126.1341247574300723
 20
110.0178026960437023
 30
0.0
 40
0.3284070107999999
 50
226.9642564666071962
 51
230.2230866874099888
  0
ARC
  5
7341
  8
0
 10
3126.1502732457302045
 20
110.0135909253437063
 30
0.0
 40
0.3248183061
 50
226.7625525675036897
 51
230.0625944953962119
  0
ARC
  5
7342
  8
0
 10
3126.1582359535200339
 20
110.0100995969114024
 30
0.0
 40
0.3199525691428169
 50
228.923471451202289
 51
231.5956520851910057
  0
ARC
  5
7343
  8
0
 10
3126.1539731339289574
 20
110.0285651641436999
 30
0.0
 40
0.3453778906
 50
218.7298875701912095
 51
221.023102478502409
  0
ARC
  5
7344
  8
0
 10
3126.1692919984297987
 20
110.0239543446436983
 30
0.0
 40
0.3397272399
 50
219.9102041713969982
 51
220.6600248712913128
  0
ARC
  5
7345
  8
0
 10
3126.1552821903301265
 20
110.0190994510437008
 30
0.0
 40
0.3323844489
 50
223.340330454392614
 51
226.6701970522017007
  0
ARC
  5
7346
  8
0
 10
3126.1717243210291599
 20
110.0157016615437016
 30
0.0
 40
0.3267366519
 50
222.8530686385047943
 51
226.2560712657021043
  0
ARC
  5
7347
  8
0
 10
3126.1353781469360911
 20
110.0999266056251003
 30
0.0
 40
0.4075954514126447
 50
243.4280512125424139
 51
247.9159472125182049
  0
ARC
  5
7348
  8
0
 10
3126.1763013874301578
 20
110.0201642689437023
 30
0.0
 40
0.3332851177
 50
220.9431308541878991
 51
222.7676079870057038
  0
ARC
  5
7349
  8
0
 10
3126.1794427752852243
 20
110.0124367560207048
 30
0.0
 40
0.3202061747783322
 50
224.9135600393798029
 51
227.678317896641488
  0
ARC
  5
734A
  8
0
 10
3126.2020681319299911
 20
110.0051705976436978
 30
0.0
 40
0.2988218005999999
 50
228.8878551859986885
 51
229.5249676693032086
  0
ARC
  5
734B
  8
0
 10
3126.206074964005893
 20
110.0096977878502997
 30
0.0
 40
0.3046577381852933
 50
229.6187910827590883
 51
229.926128986923004
  0
ARC
  5
734C
  8
0
 10
3126.2076863127299475
 20
109.9992941644436968
 30
0.0
 40
0.284644141
 50
233.0964840166950012
 51
234.8185253354990891
  0
ARC
  5
734D
  8
0
 10
3126.2563025594299688
 20
110.5515814312437044
 30
0.0
 40
0.8132260963
 50
251.462750861110095
 51
252.0548518599088936
  0
ARC
  5
734E
  8
0
 10
3126.2551052629328296
 20
110.5477895029495983
 30
0.0
 40
0.809249624332596
 50
252.3651950348759954
 51
254.855361636624508
  0
ARC
  5
734F
  8
0
 10
3126.7526818268929674
 20
107.2483789069830067
 30
0.0
 40
4.4818763392898031
 50
92.5673270891668238
 51
94.5133759539437648
  0
ARC
  5
7350
  8
0
 10
3126.8973744227291718
 20
111.1342709153437056
 30
0.0
 40
1.7512567326999999
 50
218.6329795385026102
 51
221.9224220604926074
  0
ARC
  5
7351
  8
0
 10
3127.1401502192297812
 20
109.0907889210437958
 30
0.0
 40
0.8690717987999999
 50
89.9963757079928541
 51
94.2882656532011936
  0
ARC
  5
7352
  8
0
 10
3126.3155496735298584
 20
109.7280498366437058
 30
0.0
 40
0.03
 50
255.0000000000050875
 51
336.7241071729004034
  0
ARC
  5
7353
  8
0
 10
3126.3642408845030332
 20
111.6936061863391956
 30
0.0
 40
0.0196885982081824
 50
95.0232775697991912
 51
172.9484147844611925
  0
ARC
  5
7354
  8
0
 10
3126.5243348654480542
 20
109.7321073657207933
 30
0.0
 40
0.0196891396593094
 50
255.0021980577087106
 51
313.8715929657863057
  0
ARC
  5
7355
  8
0
 10
3126.3519727009288545
 20
111.5937189858436938
 30
0.0
 40
0.0196850394
 50
173.0000000002989964
 51
270.0
  0
ARC
  5
7356
  8
0
 10
3130.0355152441861719
 20
103.063741257657199
 30
0.0
 40
7.4460783851275449
 50
86.7137293514990262
 51
87.2509182216851116
  0
ARC
  5
7357
  8
0
 10
3130.7557581694291002
 20
106.5937189858436938
 30
0.0
 40
0.0196850394
 50
1.000000000000133
 51
90.0
  0
ARC
  5
7358
  8
0
 10
3129.0234687086299346
 20
106.5937189858436938
 30
0.0
 40
0.0196850394
 50
90.0
 51
178.9999999999998863
  0
ARC
  5
7359
  8
0
 10
3130.4986419471160843
 20
111.6936030535110973
 30
0.0
 40
0.0196855938500365
 50
2.0336437759863331
 51
85.4368296473638935
  0
ARC
  5
735A
  8
0
 10
3130.5392171525368212
 20
110.4729743416688024
 30
0.0
 40
0.0196906048597071
 50
359.9332373936844078
 51
86.0418547282438482
  0
ARC
  5
735B
  8
0
 10
3129.2301673815491085
 20
110.560257180364502
 30
0.0
 40
0.0098452815080286
 50
180.016090201464209
 51
269.9839295908004146
  0
ARC
  5
735C
  8
0
 10
3125.6092154944708454
 20
109.9777210950581008
 30
0.0
 40
0.0200838107842321
 50
222.2606534950531909
 51
254.6624821505357943
  0
ARC
  5
735D
  8
0
 10
3126.6132736726358416
 20
110.9105840287608942
 30
0.0
 40
1.389676455357246
 50
213.6404230448981139
 51
218.7416982245566999
  0
ARC
  5
735E
  8
0
 10
3126.0989071221338236
 20
110.5715307838155042
 30
0.0
 40
0.7736267926440045
 50
205.5662819659349054
 51
213.8386179883476075
  0
ARC
  5
735F
  8
0
 10
3125.7555539431350553
 20
110.4042232123081959
 30
0.0
 40
0.3916997174626864
 50
192.208511530747387
 51
205.163999520197109
  0
ARC
  5
7360
  8
0
 10
3125.9272134643501886
 20
110.4299176549376966
 30
0.0
 40
0.5650214423438858
 50
179.5070870152862881
 51
191.0739745128101958
  0
ARC
  5
7361
  8
0
 10
3125.8207169112288284
 20
105.1985096377508029
 30
0.0
 40
5.3127463352435607
 50
89.4855526058267685
 51
94.7583238165233581
  0
ARC
  5
7362
  8
0
 10
3127.1402349427889931
 20
109.0893294082147946
 30
0.0
 40
0.870533561187495
 50
94.2866434016305845
 51
133.7745422038289007
  0
ARC
  5
7363
  8
0
 10
3128.3539397528211339
 20
109.0934777809278984
 30
0.0
 40
0.8663829707293004
 50
0.1682468000096331
 51
89.9840873113658262
  0
ARC
  5
7364
  8
0
 10
3129.7924071821648795
 20
117.8072041855292014
 30
0.0
 40
7.3074403221753652
 50
266.8237772776544716
 51
269.5945668555751809
  0
ARC
  5
7365
  8
0
 10
3129.558104250184897
 20
212.9996075664375041
 30
0.0
 40
102.4998233943671977
 50
270.1020676966558085
 51
270.3809774667718102
  0
ARC
  5
7366
  8
0
 10
3130.1900997792931776
 20
86.3878615232842577
 30
0.0
 40
24.1142394834307083
 50
89.5187440891731541
 51
89.8822620627556574
  0
ARC
  5
7367
  8
0
 10
3130.5486975586818517
 20
110.5602632907495035
 30
0.0
 40
0.0098514576605793
 50
270.209975284421887
 51
1.9787512265059739
  0
ARC
  5
7368
  8
0
 10
3128.7124334026498218
 20
92.117623919653937
 30
0.0
 40
19.4564582922181799
 50
88.1577881989144032
 51
90.127621518809633
  0
ARC
  5
7369
  8
0
 10
3129.3482038658330566
 20
111.0263365998241056
 30
0.0
 40
0.5377881669872644
 50
359.6290776595712941
 51
91.0975672565224954
  0
LINE
  5
736A
  8
0
 10
3129.8859807634289609
 20
111.0228550824436979
 30
0.0
 11
3129.8884678323288426
 21
110.5605359826436995
 31
0.0
  0
ARC
  5
736B
  8
0
 10
3129.9144770603688812
 20
110.5600229897259936
 30
0.0
 40
0.0260142865549934
 50
178.8700733992181995
 51
194.3643410133983878
  0
ARC
  5
736C
  8
0
 10
3129.8966216577641717
 20
110.5553981035616005
 30
0.0
 40
0.0075698789341207
 50
193.9812896768773101
 51
214.504970940616488
  0
ARC
  5
736D
  8
0
 10
3129.8922798779790355
 20
110.5525535468948988
 30
0.0
 40
0.0023833347145266
 50
217.2799967681937972
 51
243.9737222937829983
  0
ARC
  5
736E
  8
0
 10
3129.9311203408210531
 20
99.618475522223207
 30
0.0
 40
12.1131098533288206
 50
89.1058656670690254
 51
90.1963305571717058
  0
ARC
  5
736F
  8
0
 10
3130.0440614395970442
 20
105.7314126000490973
 30
0.0
 40
5.999180302116133
 50
85.6393164787868244
 51
89.2733379978076869
  0
ARC
  5
7370
  8
0
 10
3126.6801588134248959
 20
108.1446245639966008
 30
0.0
 40
3.5827034182193049
 50
94.4850549822076431
 51
95.0865127140151145
  0
ARC
  5
7371
  8
0
 10
3126.7833515368379267
 20
106.564998070923707
 30
0.0
 40
5.1659450474760318
 50
91.2479943723623137
 51
92.5676379818721955
  0
ARC
  5
7372
  8
0
 10
3126.8645927697320985
 20
101.5837289768191027
 30
0.0
 40
10.1478385999381597
 50
89.8142721511597557
 51
91.0940275447919845
  0
ARC
  5
7373
  8
0
 10
3128.5897182894391335
 20
111.0161005014219029
 30
0.0
 40
0.6306399622673999
 50
0.613494655102432
 51
16.2484975505653111
  0
ARC
  5
7374
  8
0
 10
3128.7446072329780691
 20
111.0611461682509997
 30
0.0
 40
0.4693337766089304
 50
16.2597415835411283
 51
41.4972367998197811
  0
ARC
  5
7375
  8
0
 10
3128.6343500480948023
 20
110.9772798869085051
 30
0.0
 40
0.607569795225281
 50
40.531542522719981
 51
57.2759663899002476
  0
ARC
  5
7376
  8
0
 10
3128.6695725257018239
 20
111.0294859891685064
 30
0.0
 40
0.5446104226274596
 50
57.42428922592741
 51
89.2466845759678762
  0
ARC
  5
7377
  8
0
 10
3126.1249923412469798
 20
110.0849545712361959
 30
0.0
 40
0.3895676907369201
 50
221.6559453194873868
 51
243.8091964501761026
  0
LINE
  5
7378
  8
0
 10
3125.9410232338300375
 20
109.7428494640437009
 30
0.0
 11
3125.9532003897297727
 21
109.7359374852436957
 31
0.0
  0
LINE
  5
7379
  8
0
 10
3126.2557749731900003
 20
109.7120435151302047
 30
0.0
 11
3126.256016129596901
 21
109.7129435229680041
 31
0.0
  0
LINE
  5
737A
  8
0
 10
3126.2508214979689001
 20
109.7125103360498031
 30
0.0
 11
3126.250243696673806
 21
109.7103539519216042
 31
0.0
  0
LINE
  5
737B
  8
0
 10
3126.2312410590461695
 20
109.7040661916587965
 30
0.0
 11
3126.2351200063558281
 21
109.7185426216449002
 31
0.0
  0
LINE
  5
737C
  8
0
 10
3126.230686703684114
 20
109.7044661956595064
 30
0.0
 11
3126.2345027846408811
 21
109.7187080056853006
 31
0.0
  0
LINE
  5
737D
  8
0
 10
3126.2124552604627752
 20
109.7010565726555029
 30
0.0
 11
3126.2130030821422224
 21
109.7031010711608019
 31
0.0
  0
LINE
  5
737E
  8
0
 10
3126.2138152975821868
 20
109.7061323005501947
 30
0.0
 11
3126.2149304674080668
 21
109.7102941715968001
 31
0.0
  0
LINE
  5
737F
  8
0
 10
3126.2163171112738382
 20
109.7154691975327978
 30
0.0
 11
3126.2180423716240512
 21
109.7219079576997984
 31
0.0
  0
LINE
  5
7380
  8
0
 10
3126.2126551846381517
 20
109.7207561441099983
 30
0.0
 11
3126.2109422350708883
 21
109.7143633284475044
 31
0.0
  0
LINE
  5
7381
  8
0
 10
3126.2095651533331875
 20
109.7092239888040979
 30
0.0
 11
3126.2084574682930906
 21
109.7050900515882006
 31
0.0
  0
LINE
  5
7382
  8
0
 10
3126.20765059325322
 20
109.7020787524451038
 30
0.0
 11
3126.2071063219868847
 21
109.7000475042361956
 31
0.0
  0
LINE
  5
7383
  8
0
 10
3126.1886675539881253
 20
109.6958641343291987
 30
0.0
 11
3126.1974488988212215
 21
109.7286365632783998
 31
0.0
  0
LINE
  5
7384
  8
0
 10
3126.1881722471048306
 20
109.6964845106507056
 30
0.0
 11
3126.1968316771158243
 21
109.7288019472712932
 31
0.0
  0
LINE
  5
7385
  8
0
 10
3126.1704853600558636
 20
109.6951071988019066
 30
0.0
 11
3126.1710091293289224
 21
109.6970619325093992
 31
0.0
  0
LINE
  5
7386
  8
0
 10
3126.1717851956750565
 20
109.6999582518238014
 30
0.0
 11
3126.1728497594381224
 21
109.703931258587204
 31
0.0
  0
LINE
  5
7387
  8
0
 10
3126.1741718542712078
 20
109.7088653841051951
 30
0.0
 11
3126.1758141812110807
 21
109.7149946325748004
 31
0.0
  0
LINE
  5
7388
  8
0
 10
3126.1777306202789077
 20
109.7221468814369985
 30
0.0
 11
3126.1800147232288509
 21
109.7306712707042067
 31
0.0
  0
LINE
  5
7389
  8
0
 10
3126.174773325185015
 20
109.730063548802903
 30
0.0
 11
3126.1725017525131989
 21
109.7215859230149988
 31
0.0
  0
LINE
  5
738A
  8
0
 10
3126.1705953561240676
 20
109.7144711541852047
 30
0.0
 11
3126.1689613146932061
 21
109.7083728278399946
 31
0.0
  0
LINE
  5
738B
  8
0
 10
3126.1676456856348523
 20
109.7034628325750987
 30
0.0
 11
3126.1665862010690944
 21
109.6995087818393984
 31
0.0
  0
LINE
  5
738C
  8
0
 10
3126.1658137683448331
 20
109.6966260235455053
 30
0.0
 11
3126.1652924193190302
 21
109.6946803222260058
 31
0.0
  0
LINE
  5
738D
  8
0
 10
3126.1475639854411384
 20
109.6931479554025941
 30
0.0
 11
3126.159777791317083
 21
109.7387305048573012
 31
0.0
  0
LINE
  5
738E
  8
0
 10
3126.1468969296161049
 20
109.6931273560015967
 30
0.0
 11
3126.1591605696380611
 21
109.7388958889340955
 31
0.0
  0
LINE
  5
738F
  8
0
 10
3126.1296937347269704
 20
109.6935552081082932
 30
0.0
 11
3126.1302013296422047
 21
109.6954495782042045
 31
0.0
  0
LINE
  5
7390
  8
0
 10
3126.1309531246670304
 20
109.6982553159513003
 30
0.0
 11
3126.13198378693005
 21
109.7021018003876947
 31
0.0
  0
LINE
  5
7391
  8
0
 10
3126.1332627698820943
 20
109.7068750303273958
 30
0.0
 11
3126.1348499228010951
 21
109.7127983663760062
 31
0.0
  0
LINE
  5
7392
  8
0
 10
3126.1366995966850482
 20
109.7197014441337046
 30
0.0
 11
3126.1389005696219101
 21
109.7279155877774031
 31
0.0
  0
LINE
  5
7393
  8
0
 10
3126.141392833837017
 20
109.7372168457803951
 30
0.0
 11
3126.1430028070108165
 21
109.7432253478629036
 31
0.0
  0
LINE
  5
7394
  8
0
 10
3126.1382644463778888
 20
109.7444949876371965
 30
0.0
 11
3126.1362986610652115
 21
109.7371585759602937
 31
0.0
  0
LINE
  5
7395
  8
0
 10
3126.1338159617789643
 20
109.7278930151030067
 30
0.0
 11
3126.1316230189700036
 21
109.7197088402516982
 31
0.0
  0
LINE
  5
7396
  8
0
 10
3126.1297798115551814
 20
109.7128298953486052
 30
0.0
 11
3126.1281980136200218
 21
109.7069265444044959
 31
0.0
  0
LINE
  5
7397
  8
0
 10
3126.1269232219451624
 20
109.7021689565709011
 30
0.0
 11
3126.1258958597741184
 21
109.6983347884631996
 31
0.0
  0
LINE
  5
7398
  8
0
 10
3126.1251464296487939
 20
109.6955378768431046
 30
0.0
 11
3126.1246404118610371
 21
109.6936493924128939
 31
0.0
  0
LINE
  5
7399
  8
0
 10
3126.1106386961027965
 20
109.6937520207134042
 30
0.0
 11
3126.111540617747778
 21
109.6971180384282007
 31
0.0
  0
LINE
  5
739A
  8
0
 10
3126.1116817861748132
 20
109.6976448863477032
 30
0.0
 11
3126.1135125978930773
 21
109.7044775692697982
 31
0.0
  0
LINE
  5
739B
  8
0
 10
3126.1137526441361842
 20
109.705373434411996
 30
0.0
 11
3126.1165705246639845
 21
109.7158899088848045
 31
0.0
  0
LINE
  5
739C
  8
0
 10
3126.1169174038132041
 20
109.7171844794716975
 30
0.0
 11
3126.1208219073241708
 21
109.7317562868025931
 31
0.0
  0
LINE
  5
739D
  8
0
 10
3126.1212887094711732
 20
109.733498416543398
 30
0.0
 11
3126.1251750104488565
 21
109.748002290956606
 31
0.0
  0
LINE
  5
739E
  8
0
 10
3126.0943533966060386
 20
109.7546659046330007
 30
0.0
 11
3126.0787285509259164
 21
109.6963531797720037
 31
0.0
  0
LINE
  5
739F
  8
0
 10
3126.0840573696818865
 20
109.7575069017242981
 30
0.0
 11
3126.0844355762301348
 21
109.7589183881650996
 31
0.0
  0
LINE
  5
73A0
  8
0
 10
3126.0834213158209423
 20
109.7576020031062001
 30
0.0
 11
3126.0838183545160973
 21
109.7590837722145949
 31
0.0
  0
LINE
  5
73A1
  8
0
 10
3126.0460855495039141
 20
109.7664785686505979
 30
0.0
 11
3126.0467644687041684
 21
109.7690123297506943
 31
0.0
  0
LINE
  5
73A2
  8
0
 10
3126.1652924193190302
 20
109.6946803222260058
 30
0.0
 11
3126.1475639854411384
 21
109.6931479554025941
 31
0.0
  0
LINE
  5
73A3
  8
0
 10
3126.0476321362389172
 20
109.7655875692524035
 30
0.0
 11
3126.0460855495039141
 21
109.7664785686505979
 31
0.0
  0
LINE
  5
73A4
  8
0
 10
3126.0840573696818865
 20
109.7575069017242981
 30
0.0
 11
3126.0861258277709567
 21
109.7563785592898995
 31
0.0
  0
ARC
  5
73A5
  8
0
 10
3126.1554597844428827
 20
110.0023122294695952
 30
0.0
 40
0.3075722659984161
 50
272.8001382413651754
 51
276.1053546099573168
  0
ARC
  5
73A6
  8
0
 10
3126.1628627361369581
 20
109.9965227691474041
 30
0.0
 40
0.299911264527244
 50
267.270966959833288
 51
270.563781504187773
  0
ARC
  5
73A7
  8
0
 10
3126.1528583699919182
 20
109.9935143305038991
 30
0.0
 40
0.2992622906527156
 50
262.0640883083607946
 51
264.6867505475836992
  0
ARC
  5
73A8
  8
0
 10
3126.1625694538711286
 20
109.993564851418796
 30
0.0
 40
0.2969971616202356
 50
263.8890959032124215
 51
267.1718923343445908
  0
ARC
  5
73A9
  8
0
 10
3126.1695546438290876
 20
109.9899180686339974
 30
0.0
 40
0.2908899957
 50
258.892105093085604
 51
261.5726561354874207
  0
ARC
  5
73AA
  8
0
 10
3126.1793906472189519
 20
109.9899576424238035
 30
0.0
 40
0.2868162239717393
 50
260.745081404809298
 51
264.1154792138223115
  0
ARC
  5
73AB
  8
0
 10
3126.1717364083187931
 20
110.0184228987208002
 30
0.0
 40
0.3176960923
 50
285.3387312824712012
 51
285.66977873889482
  0
ARC
  5
73AC
  8
0
 10
3126.1642042446987944
 20
110.0095045063529966
 30
0.0
 40
0.3121991165
 50
278.8908179864723138
 51
282.295221638321209
  0
ARC
  5
73AD
  8
0
 10
3126.1808688007340606
 20
110.0104322082379014
 30
0.0
 40
0.3060242176
 50
279.7147935067503113
 51
283.2138082242894939
  0
ARC
  5
73AE
  8
0
 10
3126.1723661977039228
 20
110.0023365645495943
 30
0.0
 40
0.3023239029009153
 50
273.3278238978670061
 51
276.7022980581032243
  0
ARC
  5
73AF
  8
0
 10
3126.1818562574489988
 20
110.0033144482986955
 30
0.0
 40
0.2988956493
 50
276.1380126726774051
 51
279.6189106479752127
  0
ARC
  5
73B0
  8
0
 10
3126.1724793481939741
 20
109.9981205773996038
 30
0.0
 40
0.2981631336038819
 50
269.8666097811909026
 51
273.2203461314966262
  0
ARC
  5
73B1
  8
0
 10
3126.1797522490742267
 20
109.9918564920393038
 30
0.0
 40
0.2886476601
 50
264.2142072684724212
 51
267.5961747787955005
  0
ARC
  5
73B2
  8
0
 10
3126.1897701792981934
 20
109.9966639475216965
 30
0.0
 40
0.2881207574
 50
270.4568209217889034
 51
273.9395378143755124
  0
ARC
  5
73B3
  8
0
 10
3126.1991934562611277
 20
110.0028028941941045
 30
0.0
 40
0.2877401636
 50
277.1041959999778896
 51
277.7903330775465065
  0
ARC
  5
73B4
  8
0
 10
3126.1993299216351261
 20
110.0002754462279029
 30
0.0
 40
0.285312397
 50
273.4133470314758938
 51
276.9933915543829244
  0
ARC
  5
73B5
  8
0
 10
3126.1896292914780133
 20
109.9937420483039006
 30
0.0
 40
0.2852957171
 50
266.8941707224760762
 51
270.3513639342805845
  0
ARC
  5
73B6
  8
0
 10
3126.1865408080138877
 20
109.9878929796298053
 30
0.0
 40
0.2808585249
 50
255.5739641675855012
 51
258.3403182883932914
  0
ARC
  5
73B7
  8
0
 10
3126.1968023470071785
 20
109.9890896222990051
 30
0.0
 40
0.2758661077
 50
261.0415339638897194
 51
264.5487405589720993
  0
ARC
  5
73B8
  8
0
 10
3126.1964419317619104
 20
109.9878686207938046
 30
0.0
 40
0.2747412987011916
 50
257.4407310413596974
 51
260.9391020027798049
  0
ARC
  5
73B9
  8
0
 10
3126.207158078518205
 20
109.9932217265481995
 30
0.0
 40
0.27252103
 50
267.5251938688870155
 51
271.1558093182828202
  0
ARC
  5
73BA
  8
0
 10
3126.2068896550408681
 20
109.990855124917303
 30
0.0
 40
0.2702857181
 50
263.8067483881782209
 51
267.4150201345739788
  0
ARC
  5
73BB
  8
0
 10
3126.2137154406559603
 20
109.9930263721210935
 30
0.0
 40
0.2690746969
 50
239.7428633287854893
 51
241.0379430424887914
  0
ARC
  5
73BC
  8
0
 10
3126.2038919622359572
 20
109.987376840204206
 30
0.0
 40
0.268779652
 50
251.9971814814788047
 51
254.8872622072730962
  0
ARC
  5
73BD
  8
0
 10
3126.2141063658991698
 20
109.9879283934520942
 30
0.0
 40
0.2608474001999999
 50
257.6411111664698979
 51
261.3273198494832172
  0
ARC
  5
73BE
  8
0
 10
3126.2138342429248041
 20
109.9874379223196996
 30
0.0
 40
0.2604963433446021
 50
253.8537614183784115
 51
257.5339065323473733
  0
ARC
  5
73BF
  8
0
 10
3126.1458950254132105
 20
109.998911769753505
 30
0.0
 40
0.3057860552079663
 50
266.9629078641181081
 51
270.1877292360832143
  0
ARC
  5
73C0
  8
0
 10
3126.0958471921849195
 20
110.0218950679423955
 30
0.0
 40
0.3218285063
 50
276.4470671332890106
 51
279.6843375477930067
  0
ARC
  5
73C1
  8
0
 10
3126.1126079641730939
 20
110.0128148974922055
 30
0.0
 40
0.317852595388561
 50
273.1729834177376119
 51
276.3776959368315147
  0
ARC
  5
73C2
  8
0
 10
3126.1034874900869909
 20
110.0132436515320933
 30
0.0
 40
0.3157051267785678
 50
271.4873097526649985
 51
274.0702079322381906
  0
ARC
  5
73C3
  8
0
 10
3126.1033816424228462
 20
110.0289133875490961
 30
0.0
 40
0.3323239436
 50
282.0659445683892272
 51
285.3546796435837791
  0
ARC
  5
73C4
  8
0
 10
3126.112097053206071
 20
110.0184764963552055
 30
0.0
 40
0.323588427
 50
276.4741383431323243
 51
279.6942400694811113
  0
ARC
  5
73C5
  8
0
 10
3126.1207424614590309
 20
110.0201119792803013
 30
0.0
 40
0.3269374108753011
 50
278.8443148081346976
 51
282.0918208799755007
  0
ARC
  5
73C6
  8
0
 10
3126.1076621986480859
 20
110.0430258550746032
 30
0.0
 40
0.3496777691
 50
291.3169540535733972
 51
291.6794022223364777
  0
ARC
  5
73C7
  8
0
 10
3126.1093454350461798
 20
110.0381774392372023
 30
0.0
 40
0.3444642743
 50
287.8496067014705204
 51
291.2278186476892756
  0
ARC
  5
73C8
  8
0
 10
3126.1255069547250969
 20
110.0355156779795038
 30
0.0
 40
0.3437947372048269
 50
288.1337790508823105
 51
291.0904023869991875
  0
ARC
  5
73C9
  8
0
 10
3126.1013761672088549
 20
110.0366897449277985
 30
0.0
 40
0.3404394836
 50
285.4498266636904873
 51
288.7740634265920221
  0
ARC
  5
73CA
  8
0
 10
3126.1438631473001806
 20
110.0271338956797962
 30
0.0
 40
0.3341651598
 50
285.185105440963298
 51
288.5630011221778091
  0
ARC
  5
73CB
  8
0
 10
3126.1284510969808252
 20
110.0257209534100014
 30
0.0
 40
0.33351555678456
 50
284.6857498175285741
 51
288.0486869274562878
  0
ARC
  5
73CC
  8
0
 10
3126.1194812102321521
 20
110.0263628191240031
 30
0.0
 40
0.3333661136
 50
282.1975402123720187
 51
285.4800319531889841
  0
ARC
  5
73CD
  8
0
 10
3126.1372439424521872
 20
110.0174275010796947
 30
0.0
 40
0.3249781754
 50
279.1385627271092744
 51
282.414096039288097
  0
ARC
  5
73CE
  8
0
 10
3126.0869458107858918
 20
110.0226561946623036
 30
0.0
 40
0.3184131848084056
 50
274.829381030592117
 51
277.4439113764286162
  0
ARC
  5
73CF
  8
0
 10
3126.0912694131020544
 20
110.0473607209661964
 30
0.0
 40
0.3492719343
 50
291.2823057188869029
 51
291.605224769888423
  0
ARC
  5
73D0
  8
0
 10
3126.0853469855637741
 20
110.0404644288311999
 30
0.0
 40
0.3378089722999999
 50
285.5337396678723962
 51
288.8875004148914059
  0
ARC
  5
73D1
  8
0
 10
3126.0948861929168743
 20
110.0283166370888068
 30
0.0
 40
0.3284070107999999
 50
279.7769150240700924
 51
283.0357452448894264
  0
ARC
  5
73D2
  8
0
 10
3126.078795306334996
 20
110.0327433803369956
 30
0.0
 40
0.3248183061
 50
279.937407216072188
 51
283.237449143990716
  0
ARC
  5
73D3
  8
0
 10
3126.0701537348609236
 20
110.0337011548587043
 30
0.0
 40
0.3199525691428169
 50
278.4043496262889903
 51
281.0765302602803786
  0
ARC
  5
73D4
  8
0
 10
3126.08307822812003
 20
110.0475613957680991
 30
0.0
 40
0.3453778906
 50
288.9768992329841808
 51
291.2701141412816241
  0
ARC
  5
73D5
  8
0
 10
3126.0675062924469785
 20
110.0512277407335944
 30
0.0
 40
0.3397272399
 50
289.3399768401848746
 51
290.0897975400935138
  0
ARC
  5
73D6
  8
0
 10
3126.0772116956982245
 20
110.0400183757833048
 30
0.0
 40
0.3323844489
 50
283.3298046592893797
 51
286.6596712570815839
  0
ARC
  5
73D7
  8
0
 10
3126.0612734979108609
 20
110.0452968686334998
 30
0.0
 40
0.3267366519
 50
283.7439304457922731
 51
287.1469330729757985
  0
ARC
  5
73D8
  8
0
 10
3126.134862678411082
 20
110.1000647249917961
 30
0.0
 40
0.4075954514126447
 50
262.0840544989599721
 51
266.5719504989435222
  0
ARC
  5
73D9
  8
0
 10
3126.0595409456509515
 20
110.0514501331572035
 30
0.0
 40
0.3332851177
 50
287.2323937244821082
 51
289.0568708572853893
  0
ARC
  5
73DA
  8
0
 10
3126.0529566676559625
 20
110.0463286043889042
 30
0.0
 40
0.3202061747783322
 50
282.3216838148445049
 51
285.0864416720967824
  0
ARC
  5
73DB
  8
0
 10
3126.0297294546940066
 20
110.051348604275006
 30
0.0
 40
0.2988218005999999
 50
280.4750340421759915
 51
281.1121465254859118
  0
ARC
  5
73DC
  8
0
 10
3126.0285230312529166
 20
110.0572726820037985
 30
0.0
 40
0.3046577381852933
 50
280.0738727245562814
 51
280.381210628713518
  0
ARC
  5
73DD
  8
0
 10
3126.021925750866103
 20
110.0490685540069933
 30
0.0
 40
0.284644141
 50
275.1814763759775815
 51
276.9035176947908781
  0
ARC
  5
73DE
  8
0
 10
3126.2559664645741577
 20
110.5516714875835049
 30
0.0
 40
0.8132260963
 50
257.9451498515812204
 51
258.5372508503817244
  0
ARC
  5
73DF
  8
0
 10
3126.2551073897238894
 20
110.547788933077797
 30
0.0
 40
0.809249624332596
 50
255.1446400748554879
 51
257.6348066766046259
  0
ARC
  5
73E0
  8
0
 10
3126.1363710333248491
 20
110.0819056600653028
 30
0.0
 40
0.3895676907369201
 50
266.1908052613150062
 51
288.3440563919969009
  0
LINE
  5
73E1
  8
0
 10
3126.1246404118610371
 20
109.6936493924128939
 30
0.0
 11
3126.1106386961027965
 21
109.6937520207134042
 31
0.0
  0
ENDSEC
  0
EOF
