  0
SECTION
  2
HEADER
  9
$ACADVER
  1
AC1009
  9
$INSBASE
 10
3580.5296047795491177
 20
197.6615506098112007
 30
0.0
  9
$EXTMIN
 10
3571.7152670961399963
 20
191.8447636741931888
 30
0.0
  9
$EXTMAX
 10
3589.1763670961399839
 20
199.6237562767356053
 30
0.0
  9
$LIMMIN
 10
0.0
 20
0.0
  9
$LIMMAX
 10
11.6929133858000007
 20
8.2677165353999982
  9
$ORTHOMODE
 70
     0
  9
$REGENMODE
 70
     1
  9
$FILLMODE
 70
     1
  9
$QTEXTMODE
 70
     0
  9
$MIRRTEXT
 70
     0
  9
$DRAGMODE
 70
     2
  9
$LTSCALE
 40
0.6431102362
  9
$OSMODE
 70
  3839
  9
$ATTMODE
 70
     1
  9
$TEXTSIZE
 40
0.2
  9
$TRACEWID
 40
0.05
  9
$TEXTSTYLE
  7
STANDARD
  9
$CLAYER
  8
0
  9
$CELTYPE
  6
BYLAYER
  9
$CECOLOR
 62
   256
  9
$DIMSCALE
 40
1.0
  9
$DIMASZ
 40
0.1875
  9
$DIMEXO
 40
0.0625
  9
$DIMDLI
 40
0.4443307087
  9
$DIMRND
 40
0.0
  9
$DIMDLE
 40
0.0
  9
$DIMEXE
 40
0.125
  9
$DIMTP
 40
0.01
  9
$DIMTM
 40
0.01
  9
$DIMTXT
 40
2.0
  9
$DIMCEN
 40
0.1052362205
  9
$DIMTSZ
 40
0.0
  9
$DIMTOL
 70
     1
  9
$DIMLIM
 70
     0
  9
$DIMTIH
 70
     1
  9
$DIMTOH
 70
     1
  9
$DIMSE1
 70
     0
  9
$DIMSE2
 70
     0
  9
$DIMTAD
 70
     0
  9
$DIMZIN
 70
     0
  9
$DIMBLK
  1

  9
$DIMASO
 70
     1
  9
$DIMSHO
 70
     1
  9
$DIMPOST
  1
\X
  9
$DIMAPOST
  1

  9
$DIMALT
 70
     1
  9
$DIMALTD
 70
     2
  9
$DIMALTF
 40
25.3999999999999986
  9
$DIMLFAC
 40
1.0
  9
$DIMTOFL
 70
     0
  9
$DIMTVP
 40
0.0
  9
$DIMTIX
 70
     0
  9
$DIMSOXD
 70
     0
  9
$DIMSAH
 70
     0
  9
$DIMBLK1
  1

  9
$DIMBLK2
  1

  9
$DIMSTYLE
  2
STANDARD
  9
$DIMCLRD
 70
     0
  9
$DIMCLRE
 70
     0
  9
$DIMCLRT
 70
     0
  9
$DIMTFAC
 40
1.0
  9
$DIMGAP
 40
0.09
  9
$LUNITS
 70
     2
  9
$LUPREC
 70
     4
  9
$SKETCHINC
 40
0.1
  9
$FILLETRAD
 40
0.0
  9
$AUNITS
 70
     0
  9
$AUPREC
 70
     0
  9
$MENU
  1
.
  9
$ELEVATION
 40
0.0
  9
$PELEVATION
 40
0.0
  9
$THICKNESS
 40
0.0
  9
$LIMCHECK
 70
     0
  9
$BLIPMODE
 70
     0
  9
$CHAMFERA
 40
0.0
  9
$CHAMFERB
 40
0.0
  9
$SKPOLY
 70
     0
  9
$TDCREATE
 40
2458060.468368056230247
  9
$TDUPDATE
 40
2459024.7277777781710029
  9
$TDINDWG
 40
0.513421412
  9
$TDUSRTIMER
 40
0.513421412
  9
$USRTIMER
 70
     1
  9
$ANGBASE
 50
0.0
  9
$ANGDIR
 70
     0
  9
$PDMODE
 70
     0
  9
$PDSIZE
 40
0.3125
  9
$PLINEWID
 40
0.0
  9
$COORDS
 70
     1
  9
$SPLFRAME
 70
     0
  9
$SPLINETYPE
 70
     6
  9
$SPLINESEGS
 70
     8
  9
$ATTDIA
 70
     1
  9
$ATTREQ
 70
     1
  9
$HANDLING
 70
     1
  9
$HANDSEED
  5
8F3D
  9
$SURFTAB1
 70
     6
  9
$SURFTAB2
 70
     6
  9
$SURFTYPE
 70
     6
  9
$SURFU
 70
     6
  9
$SURFV
 70
     6
  9
$UCSNAME
  2

  9
$UCSORG
 10
0.0
 20
0.0
 30
0.0
  9
$UCSXDIR
 10
1.0
 20
0.0
 30
0.0
  9
$UCSYDIR
 10
0.0
 20
1.0
 30
0.0
  9
$PUCSNAME
  2

  9
$PUCSORG
 10
0.0
 20
0.0
 30
0.0
  9
$PUCSXDIR
 10
1.0
 20
0.0
 30
0.0
  9
$PUCSYDIR
 10
0.0
 20
1.0
 30
0.0
  9
$USERI1
 70
     0
  9
$USERI2
 70
     0
  9
$USERI3
 70
     0
  9
$USERI4
 70
     0
  9
$USERI5
 70
     0
  9
$USERR1
 40
0.0
  9
$USERR2
 40
0.0
  9
$USERR3
 40
0.0
  9
$USERR4
 40
0.0
  9
$USERR5
 40
0.0
  9
$WORLDVIEW
 70
     1
  9
$SHADEDGE
 70
     3
  9
$SHADEDIF
 70
    70
  9
$TILEMODE
 70
     1
  9
$MAXACTVP
 70
    64
  9
$PLIMCHECK
 70
     0
  9
$PEXTMIN
 10
1.0000000000000000E+20
 20
1.0000000000000000E+20
 30
1.0000000000000000E+20
  9
$PEXTMAX
 10
-1.0000000000000000E+20
 20
-1.0000000000000000E+20
 30
-1.0000000000000000E+20
  9
$PLIMMIN
 10
0.0
 20
0.0
  9
$PLIMMAX
 10
12.0
 20
9.0
  9
$UNITMODE
 70
     0
  9
$VISRETAIN
 70
     1
  9
$PLINEGEN
 70
     0
  9
$PSLTSCALE
 70
     1
  0
ENDSEC
  0
SECTION
  2
TABLES
  0
TABLE
  2
VPORT
 70
     1
  0
VPORT
  2
*ACTIVE
 70
     0
 10
0.0
 20
0.0
 11
1.0
 21
1.0
 12
0.0
 22
0.0
 13
0.0
 23
0.0
 14
1.0
 24
1.0
 15
0.0
 25
0.0
 16
0.0
 26
0.0
 36
79.3583359769480694
 17
3580.44580078125
 27
195.7342529296875
 37
0.0
 40
19.1153616297317406
 41
3.314341846758349
 42
50.0
 43
0.0
 44
0.0
 50
0.0
 51
0.0
 71
     0
 72
   100
 73
     1
 74
     1
 75
     0
 76
     0
 77
     0
 78
     0
  0
ENDTAB
  0
TABLE
  2
LTYPE
 70
     2
  0
LTYPE
  2
CONTINUOUS
 70
     0
  3
Solid line
 72
    65
 73
     0
 40
0.0
  0
LTYPE
  2
PHANTOM2
 70
     0
  3
___ _ _ ___ _ _ ___ _ _ ___ _ _
 72
    65
 73
     6
 40
1.25
 49
0.625
 49
-0.125
 49
0.125
 49
-0.125
 49
0.125
 49
-0.125
  0
ENDTAB
  0
TABLE
  2
LAYER
 70
     2
  0
LAYER
  2
0
 70
     0
 62
   255
  6
CONTINUOUS
  0
LAYER
  2
DEFPOINTS
 70
     0
 62
     7
  6
CONTINUOUS
  0
ENDTAB
  0
TABLE
  2
STYLE
 70
     1
  0
STYLE
  2
STANDARD
 70
     0
 40
0.0
 41
0.8
 50
0.0
 71
     0
 42
0.2
  3
txt
  4

  0
ENDTAB
  0
TABLE
  2
VIEW
 70
     0
  0
ENDTAB
  0
TABLE
  2
UCS
 70
     0
  0
ENDTAB
  0
TABLE
  2
APPID
 70
     9
  0
APPID
  2
ACAD
 70
     0
  0
APPID
  2
ACAD_MLEADERVER
 70
     0
  0
APPID
  2
ACAD_EXEMPT_FROM_CAD_STANDARDS
 70
     0
  0
APPID
  2
ACAD_NAV_VCDISPLAY
 70
     0
  0
APPID
  2
ACAECLAYERSTANDARD
 70
     0
  0
APPID
  2
ACCMTRANSPARENCY
 70
     0
  0
APPID
  2
ACAD_DSTYLE_DIMJAG
 70
     0
  0
APPID
  2
ACAD_DSTYLE_DIMTALN
 70
     0
  0
APPID
  2
ACDBATTR
 70
     0
  0
ENDTAB
  0
TABLE
  2
DIMSTYLE
 70
     1
  0
DIMSTYLE
  2
STANDARD
 70
     0
  3

  4

  5

  6

  7

 40
1.0
 41
0.1875
 42
0.0625
 43
0.38
 44
0.125
 45
0.0
 46
0.0
 47
0.01
 48
0.01
140
0.15625
141
0.09
142
0.0
143
25.3999999999999986
144
1.0
145
0.0
146
1.0
147
0.09
 71
     1
 72
     0
 73
     1
 74
     1
 75
     0
 76
     0
 77
     0
 78
     4
170
     0
171
     2
172
     0
173
     0
174
     0
175
     0
176
     0
177
     0
178
     0
  0
ENDTAB
  0
ENDSEC
  0
SECTION
  2
BLOCKS
  0
BLOCK
  8
0
  2
$MODEL_SPACE
 70
     0
 10
0.0
 20
0.0
 30
0.0
  3
$MODEL_SPACE
  1

  0
ENDBLK
  5
21
  8
0
  0
BLOCK
 67
     1
  8
0
  2
$PAPER_SPACE
 70
     0
 10
0.0
 20
0.0
 30
0.0
  3
$PAPER_SPACE
  1

  0
ENDBLK
  5
1D
 67
     1
  8
0
  0
BLOCK
  8
0
  2
_FILLED
 70
     0
 10
0.0
 20
0.0
 30
0.0
  3
_FILLED
  1

  0
SOLID
  5
6F59
  8
0
  6
BYBLOCK
 62
     0
 10
0.0
 20
0.0
 30
0.0
 11
-1.0
 21
0.1666666667
 31
0.0
 12
-1.0
 22
-0.1666666667
 32
0.0
 13
-1.0
 23
-0.1666666667
 33
0.0
  0
ENDBLK
  5
6F5A
  8
0
  6
BYBLOCK
 62
     0
  0
ENDSEC
  0
SECTION
  2
ENTITIES
  0
ATTDEF
  5
3930
  8
DEFPOINTS
 10
3580.5186540959730337
 20
197.6601131654851997
 30
0.0
 40
0.001
  1
K-2759X-1
  3

  2
MODELNUMBER
 70
     0
1001
ACDBATTR
1070
     0
1070
     1
  0
ATTDEF
  5
3931
  8
DEFPOINTS
 10
3580.5186540959730337
 20
197.6584464988185061
 30
0.0
 40
0.001
  1
KARESS
  3

  2
TRADENAME
 70
     0
1001
ACDBATTR
1070
     0
1070
     1
  0
ATTDEF
  5
3932
  8
DEFPOINTS
 10
3580.5186540959730337
 20
197.6567798321518126
 30
0.0
 40
0.001
  1
BATHROOM SINK
  3

  2
PRODUCT
 70
     0
1001
ACDBATTR
1070
     0
1070
     1
  0
LINE
  5
8C74
  8
0
 10
3571.9628131099998427
 20
197.6615506098112007
 30
0.0
 11
3589.0963964491002116
 21
197.6615506098112007
 31
0.0
  0
ARC
  5
8C75
  8
0
 10
3577.6095053498002017
 20
192.0022440463110911
 30
0.0
 40
0.1574803149999425
 50
185.198738190617803
 51
269.9979581459214728
  0
LINE
  5
8C76
  8
0
 10
3577.4526728467130852
 20
191.9879746529084059
 30
0.0
 11
3577.3474824046988942
 21
193.1903791146112042
 31
0.0
  0
ARC
  5
8C77
  8
0
 10
3577.1121388012888929
 20
193.169777455671607
 30
0.0
 40
0.2362436031252824
 50
5.0028416690068376
 51
77.6927237957160344
  0
ARC
  5
8C78
  8
0
 10
3578.3257651734811589
 20
199.2017292544263114
 30
0.0
 40
6.9341593985288599
 50
323.4015821440294189
 51
347.1667308344132721
  0
ARC
  5
8C79
  8
0
 10
3565.7763163950730814
 20
199.6069395937988133
 30
0.0
 40
23.4010827105331707
 50
355.2313588672482183
 51
359.4618998773008229
  0
ARC
  5
8C7C
  8
0
 10
3582.6745493742769213
 20
120.7125411139553961
 30
0.0
 40
78.7242943375681676
 50
91.4994443290555353
 51
96.6528380188196223
  0
ARC
  5
8C7D
  8
0
 10
3586.0866626420229295
 20
91.4588160685201075
 30
0.0
 40
108.1763391899355042
 50
96.6528380188196223
 51
97.5224928999751342
  0
ARC
  5
8C7E
  8
0
 10
3571.9688271048289607
 20
198.453468352265503
 30
0.0
 40
0.254523857511304
 50
99.9806721982716766
 51
175.0121315686199921
  0
ARC
  5
8C7F
  8
0
 10
3578.455724679272862
 20
200.0806611965913078
 30
0.0
 40
6.9289246407703384
 50
193.3940459622791934
 51
200.4342447512397882
  0
ARC
  5
8C80
  8
0
 10
3579.8936457792488
 20
192.0022510252813959
 30
0.0
 40
0.1574873510881965
 50
269.9511594154103022
 51
339.8659442326961084
  0
ARC
  5
8C81
  8
0
 10
3580.2631251861539567
 20
191.8669580329990083
 30
0.0
 40
0.2359834129681541
 50
94.6601512603403563
 51
159.9038645533715055
  0
ARC
  5
8C82
  8
0
 10
3579.9872292258519337
 20
197.9540751848128082
 30
0.0
 40
5.8575423885312219
 50
272.511954674355195
 51
357.1374687578813223
  0
ARC
  5
8C83
  8
0
 10
3581.0900823074230175
 20
197.1188164365136117
 30
0.0
 40
3.473117419394923
 50
291.1156986677505074
 51
323.7998170854860973
  0
ARC
  5
8C84
  8
0
 10
3578.5848819559400908
 20
199.0639368095561963
 30
0.0
 40
5.8392345820514802
 50
220.1919782870199072
 51
255.9014004460462104
  0
ARC
  5
8C85
  8
0
 10
3579.2772986446989307
 20
202.9600898422251021
 30
0.0
 40
9.5841516449382773
 50
269.878466533622202
 51
288.6443372500256146
  0
LINE
  5
8C8C
  8
0
 10
3577.6094997376621905
 20
191.8447637314110921
 30
0.0
 11
3579.8935115324770777
 21
191.8447637314110921
 31
0.0
  0
ARC
  5
8C8D
  8
0
 10
3586.0861562969521401
 20
205.3396267074774073
 30
0.0
 40
15.6194479357323797
 50
209.8390023898265042
 51
220.0194283697892104
  0
ARC
  5
8C8E
  8
0
 10
3572.3698053807079305
 20
197.4646695110943995
 30
0.0
 40
0.1968810994635689
 50
31.6378220937581887
 51
89.9950094154402649
  0
LINE
  5
8C8F
  8
0
 10
3577.2274639853681037
 20
193.3759597583425887
 30
0.0
 11
3579.2569691490862169
 21
193.3759597583425887
 31
0.0
  0
ARC
  5
8CDB
  8
0
 10
3588.9392079324347833
 20
199.3871687751970967
 30
0.0
 40
0.2371591637046748
 50
359.9999999867720817
 51
86.0209932452225559
  0
LINE
  5
8CDC
  8
0
 10
3588.9556646345617992
 20
199.6237562767356053
 30
0.0
 11
3580.6145508201229859
 21
199.4098785841954964
 31
0.0
  0
ENDSEC
  0
EOF
