  0
SECTION
  2
HEADER
  9
$ACADVER
  1
AC1009
  9
$INSBASE
 10
3446.4552947409752051
 20
173.8643778794148886
 30
0.0
  9
$EXTMIN
 10
3433.9573761970200394
 20
166.8673173205150135
 30
-0.0015258207003583
  9
$EXTMAX
 10
3459.027377393982988
 20
174.4675626351840094
 30
0.0000000349246037
  9
$LIMMIN
 10
0.0
 20
0.0
  9
$LIMMAX
 10
11.6929133858000007
 20
8.2677165353999982
  9
$ORTHOMODE
 70
     0
  9
$REGENMODE
 70
     1
  9
$FILLMODE
 70
     1
  9
$QTEXTMODE
 70
     0
  9
$MIRRTEXT
 70
     0
  9
$DRAGMODE
 70
     2
  9
$LTSCALE
 40
0.6431102362
  9
$OSMODE
 70
  4095
  9
$ATTMODE
 70
     1
  9
$TEXTSIZE
 40
0.2
  9
$TRACEWID
 40
0.05
  9
$TEXTSTYLE
  7
STANDARD
  9
$CLAYER
  8
0
  9
$CELTYPE
  6
BYLAYER
  9
$CECOLOR
 62
   256
  9
$DIMSCALE
 40
1.0
  9
$DIMASZ
 40
0.1875
  9
$DIMEXO
 40
0.0625
  9
$DIMDLI
 40
0.4443307087
  9
$DIMRND
 40
0.0
  9
$DIMDLE
 40
0.0
  9
$DIMEXE
 40
0.125
  9
$DIMTP
 40
0.01
  9
$DIMTM
 40
0.01
  9
$DIMTXT
 40
2.0
  9
$DIMCEN
 40
0.1052362205
  9
$DIMTSZ
 40
0.0
  9
$DIMTOL
 70
     1
  9
$DIMLIM
 70
     0
  9
$DIMTIH
 70
     1
  9
$DIMTOH
 70
     1
  9
$DIMSE1
 70
     0
  9
$DIMSE2
 70
     0
  9
$DIMTAD
 70
     0
  9
$DIMZIN
 70
     0
  9
$DIMBLK
  1

  9
$DIMASO
 70
     1
  9
$DIMSHO
 70
     1
  9
$DIMPOST
  1
\X
  9
$DIMAPOST
  1

  9
$DIMALT
 70
     1
  9
$DIMALTD
 70
     2
  9
$DIMALTF
 40
25.3999999999999986
  9
$DIMLFAC
 40
1.0
  9
$DIMTOFL
 70
     0
  9
$DIMTVP
 40
0.0
  9
$DIMTIX
 70
     0
  9
$DIMSOXD
 70
     0
  9
$DIMSAH
 70
     0
  9
$DIMBLK1
  1

  9
$DIMBLK2
  1

  9
$DIMSTYLE
  2
STANDARD
  9
$DIMCLRD
 70
     0
  9
$DIMCLRE
 70
     0
  9
$DIMCLRT
 70
     0
  9
$DIMTFAC
 40
1.0
  9
$DIMGAP
 40
0.09
  9
$LUNITS
 70
     2
  9
$LUPREC
 70
     4
  9
$SKETCHINC
 40
0.1
  9
$FILLETRAD
 40
0.0
  9
$AUNITS
 70
     0
  9
$AUPREC
 70
     0
  9
$MENU
  1
.
  9
$ELEVATION
 40
0.0
  9
$PELEVATION
 40
0.0
  9
$THICKNESS
 40
0.0
  9
$LIMCHECK
 70
     0
  9
$BLIPMODE
 70
     0
  9
$CHAMFERA
 40
0.0
  9
$CHAMFERB
 40
0.0
  9
$SKPOLY
 70
     0
  9
$TDCREATE
 40
2458060.468368056230247
  9
$TDUPDATE
 40
2459005.8998842588625848
  9
$TDINDWG
 40
0.5491737269
  9
$TDUSRTIMER
 40
0.5491737269
  9
$USRTIMER
 70
     1
  9
$ANGBASE
 50
0.0
  9
$ANGDIR
 70
     0
  9
$PDMODE
 70
     0
  9
$PDSIZE
 40
0.3125
  9
$PLINEWID
 40
0.0
  9
$COORDS
 70
     1
  9
$SPLFRAME
 70
     0
  9
$SPLINETYPE
 70
     6
  9
$SPLINESEGS
 70
     8
  9
$ATTDIA
 70
     1
  9
$ATTREQ
 70
     1
  9
$HANDLING
 70
     1
  9
$HANDSEED
  5
9025
  9
$SURFTAB1
 70
     6
  9
$SURFTAB2
 70
     6
  9
$SURFTYPE
 70
     6
  9
$SURFU
 70
     6
  9
$SURFV
 70
     6
  9
$UCSNAME
  2

  9
$UCSORG
 10
0.0
 20
0.0
 30
0.0
  9
$UCSXDIR
 10
1.0
 20
0.0
 30
0.0
  9
$UCSYDIR
 10
0.0
 20
1.0
 30
0.0
  9
$PUCSNAME
  2

  9
$PUCSORG
 10
0.0
 20
0.0
 30
0.0
  9
$PUCSXDIR
 10
1.0
 20
0.0
 30
0.0
  9
$PUCSYDIR
 10
0.0
 20
1.0
 30
0.0
  9
$USERI1
 70
     0
  9
$USERI2
 70
     0
  9
$USERI3
 70
     0
  9
$USERI4
 70
     0
  9
$USERI5
 70
     0
  9
$USERR1
 40
0.0
  9
$USERR2
 40
0.0
  9
$USERR3
 40
0.0
  9
$USERR4
 40
0.0
  9
$USERR5
 40
0.0
  9
$WORLDVIEW
 70
     1
  9
$SHADEDGE
 70
     3
  9
$SHADEDIF
 70
    70
  9
$TILEMODE
 70
     1
  9
$MAXACTVP
 70
    64
  9
$PLIMCHECK
 70
     0
  9
$PEXTMIN
 10
1.0000000000000000E+20
 20
1.0000000000000000E+20
 30
1.0000000000000000E+20
  9
$PEXTMAX
 10
-1.0000000000000000E+20
 20
-1.0000000000000000E+20
 30
-1.0000000000000000E+20
  9
$PLIMMIN
 10
0.0
 20
0.0
  9
$PLIMMAX
 10
12.0
 20
9.0
  9
$UNITMODE
 70
     0
  9
$VISRETAIN
 70
     1
  9
$PLINEGEN
 70
     0
  9
$PSLTSCALE
 70
     1
  0
ENDSEC
  0
SECTION
  2
TABLES
  0
TABLE
  2
VPORT
 70
     1
  0
VPORT
  2
*ACTIVE
 70
     0
 10
0.0
 20
0.0
 11
1.0
 21
1.0
 12
143.9004262408737986
 22
-22.3851667978885196
 13
0.0
 23
0.0
 14
1.0
 24
1.0
 15
0.0
 25
0.0
 16
0.0
 26
0.0
 36
96.5995694866707311
 17
3303.693115234375
 27
195.2615115758877096
 37
0.0
 40
22.6681263452032908
 41
2.8398203592814362
 42
50.0
 43
0.0
 44
0.0
 50
0.0
 51
0.0
 71
     0
 72
   100
 73
     1
 74
     1
 75
     0
 76
     0
 77
     0
 78
     0
  0
ENDTAB
  0
TABLE
  2
LTYPE
 70
     2
  0
LTYPE
  2
CONTINUOUS
 70
     0
  3
Solid line
 72
    65
 73
     0
 40
0.0
  0
LTYPE
  2
PHANTOM2
 70
     0
  3
___ _ _ ___ _ _ ___ _ _ ___ _ _
 72
    65
 73
     6
 40
1.25
 49
0.625
 49
-0.125
 49
0.125
 49
-0.125
 49
0.125
 49
-0.125
  0
ENDTAB
  0
TABLE
  2
LAYER
 70
     2
  0
LAYER
  2
0
 70
     0
 62
   255
  6
CONTINUOUS
  0
LAYER
  2
DEFPOINTS
 70
     0
 62
     7
  6
CONTINUOUS
  0
ENDTAB
  0
TABLE
  2
STYLE
 70
     1
  0
STYLE
  2
STANDARD
 70
     0
 40
0.0
 41
0.8
 50
0.0
 71
     0
 42
0.2
  3
txt
  4

  0
ENDTAB
  0
TABLE
  2
VIEW
 70
     0
  0
ENDTAB
  0
TABLE
  2
UCS
 70
     0
  0
ENDTAB
  0
TABLE
  2
APPID
 70
     9
  0
APPID
  2
ACAD
 70
     0
  0
APPID
  2
ACAD_MLEADERVER
 70
     0
  0
APPID
  2
ACAD_EXEMPT_FROM_CAD_STANDARDS
 70
     0
  0
APPID
  2
ACAD_NAV_VCDISPLAY
 70
     0
  0
APPID
  2
ACAECLAYERSTANDARD
 70
     0
  0
APPID
  2
ACCMTRANSPARENCY
 70
     0
  0
APPID
  2
ACAD_DSTYLE_DIMJAG
 70
     0
  0
APPID
  2
ACAD_DSTYLE_DIMTALN
 70
     0
  0
APPID
  2
ACDBATTR
 70
     0
  0
ENDTAB
  0
TABLE
  2
DIMSTYLE
 70
     1
  0
DIMSTYLE
  2
STANDARD
 70
     0
  3

  4

  5

  6

  7

 40
1.0
 41
0.1875
 42
0.0625
 43
0.38
 44
0.125
 45
0.0
 46
0.0
 47
0.01
 48
0.01
140
0.15625
141
0.09
142
0.0
143
25.3999999999999986
144
1.0
145
0.0
146
1.0
147
0.09
 71
     1
 72
     0
 73
     1
 74
     1
 75
     0
 76
     0
 77
     0
 78
     4
170
     0
171
     2
172
     0
173
     0
174
     0
175
     0
176
     0
177
     0
178
     0
  0
ENDTAB
  0
ENDSEC
  0
SECTION
  2
BLOCKS
  0
BLOCK
  8
0
  2
$MODEL_SPACE
 70
     0
 10
0.0
 20
0.0
 30
0.0
  3
$MODEL_SPACE
  1

  0
ENDBLK
  5
21
  8
0
  0
BLOCK
 67
     1
  8
0
  2
$PAPER_SPACE
 70
     0
 10
0.0
 20
0.0
 30
0.0
  3
$PAPER_SPACE
  1

  0
ENDBLK
  5
1D
 67
     1
  8
0
  0
BLOCK
  8
0
  2
_FILLED
 70
     0
 10
0.0
 20
0.0
 30
0.0
  3
_FILLED
  1

  0
SOLID
  5
8CFF
  8
0
  6
BYBLOCK
 62
     0
 10
0.0
 20
0.0
 30
0.0
 11
-1.0
 21
0.1666666667
 31
0.0
 12
-1.0
 22
-0.1666666667
 32
0.0
 13
-1.0
 23
-0.1666666667
 33
0.0
  0
ENDBLK
  5
8D00
  8
0
  6
BYBLOCK
 62
     0
  0
ENDSEC
  0
SECTION
  2
ENTITIES
  0
ATTDEF
  5
3930
  8
DEFPOINTS
 10
3446.4556264810939865
 20
173.8679480901602972
 30
0.0
 40
0.001
  1
K-2768T-1
  3

  2
MODELNUMBER
 70
     0
1001
ACDBATTR
1070
     0
1070
     1
  0
ATTDEF
  5
3931
  8
DEFPOINTS
 10
3446.4556264810939865
 20
173.8662814234936889
 30
0.0
 40
0.001
  1
KARESS
  3

  2
TRADENAME
 70
     0
1001
ACDBATTR
1070
     0
1070
     1
  0
ATTDEF
  5
3932
  8
DEFPOINTS
 10
3446.4556264810939865
 20
173.8646147568269953
 30
0.0
 40
0.001
  1
BATHROOM SINK
  3

  2
PRODUCT
 70
     0
1001
ACDBATTR
1070
     0
1070
     1
  0
LINE
  5
8E78
  8
0
 10
3433.975209917767188
 20
174.4622406504396963
 30
0.0
 11
3458.921511762467162
 21
174.4622406504396963
 31
0.0
  0
LINE
  5
8E79
  8
0
 10
3458.921511762467162
 20
174.4622406504396963
 30
0.0
 11
3458.9215126830667941
 21
174.0212957685396873
 31
0.0
  0
ARC
  5
8E7A
  8
0
 10
3458.7637419078409948
 20
174.021422486919505
 30
0.0
 40
0.1577708261138839
 50
275.6981439427336795
 51
359.9539811680754724
  0
LINE
  5
8E7B
  8
0
 10
3458.7794065811931432
 20
173.8644312400888055
 30
0.0
 11
3434.1311829007568122
 21
173.8643245187410002
 31
0.0
  0
ARC
  5
8E7C
  8
0
 10
3434.131946665921987
 20
174.0210613288568027
 30
0.0
 40
0.1567386709861282
 50
179.9143006042789921
 51
270.2796914152747263
  0
LINE
  5
8E7D
  8
0
 10
3433.9752081702667965
 20
174.0212957685396873
 30
0.0
 11
3433.975209917767188
 21
174.4622406504396963
 31
0.0
  0
ARC
  5
8E7E
  8
0
 10
3435.5213333652068286
 20
173.6268838607487908
 30
0.0
 40
0.2374492838258404
 50
14.2016791731720708
 51
89.7317718636916055
  0
ARC
  5
8E7F
  8
0
 10
3442.1171761428308855
 20
175.2838857368699053
 30
0.0
 40
6.5633449515854512
 50
194.0983592339769075
 51
243.923583793276805
  0
ARC
  5
8E80
  8
0
 10
3444.5455963852477907
 20
182.5616487596703905
 30
0.0
 40
14.2042694658294
 50
248.0328273857560077
 51
271.2841793752448893
  0
ARC
  5
8E81
  8
0
 10
3444.8215272188667768
 20
168.1285637999397125
 30
0.0
 40
0.2362204338999629
 50
5.0001632635935014
 51
79.6585033805176153
  0
LINE
  5
8E82
  8
0
 10
3445.0568487040332002
 20
168.1491524378540987
 30
0.0
 11
3445.1499674682668228
 21
167.084803783139705
 31
0.0
  0
ARC
  5
8E83
  8
0
 10
3445.3852890504758761
 20
167.1053917538629889
 30
0.0
 40
0.2362204724232897
 50
185.0000000069522059
 51
269.9999999978114147
  0
LINE
  5
8E84
  8
0
 10
3445.3852890504667812
 20
166.8691712814396908
 30
0.0
 11
3446.4483608401169477
 21
166.8691712813397885
 31
0.0
  0
ARC
  5
8E85
  8
0
 10
3444.4378367179801899
 20
173.6270949981816898
 30
0.0
 40
0.2372763131870132
 50
5.0988853284484881
 51
89.7553696817383013
  0
LINE
  5
8E86
  8
0
 10
3444.6741740800671323
 20
173.6481829113396884
 30
0.0
 11
3445.1550538279439024
 21
168.1516855554677932
 31
0.0
  0
ARC
  5
8E87
  8
0
 10
96600.9130139212065842
 20
8318.1997071850455541
 30
0.0
 40
93511.5956653202883899
 50
184.9999848979117019
 51
185.0004515905247047
  0
ARC
  5
8E88
  8
0
 10
3445.5352260487420608
 20
167.4203571857023007
 30
0.0
 40
0.3149831821637899
 50
185.0004515905247047
 51
228.6134200501323903
  0
ARC
  5
8E89
  8
0
 10
3445.5167786749839252
 20
167.3994228649488889
 30
0.0
 40
0.287080648515429
 50
228.6134200501323903
 51
273.5524508320572181
  0
ARC
  5
8E8A
  8
0
 10
3446.521913441767083
 20
140.0333920180258076
 30
0.0
 40
27.0974956857978384
 50
90.1555220774107937
 51
92.0881382969765525
  0
ARC
  5
8E8B
  8
0
 10
3457.3755880344219804
 20
173.6267540031427075
 30
0.0
 40
0.2376747705857396
 50
90.3161210046595215
 51
165.7797849636139915
  0
ARC
  5
8E8C
  8
0
 10
3450.7795455374030098
 20
175.2838857368699053
 30
0.0
 40
6.5633449515854512
 50
296.076416206723195
 51
345.9016407660230925
  0
ARC
  5
8E8D
  8
0
 10
3448.3511252949861046
 20
182.5616487596703905
 30
0.0
 40
14.2042694658294
 50
268.7158206247551107
 51
291.9671726142440207
  0
ARC
  5
8E8E
  8
0
 10
3448.0751944613671185
 20
168.1285637999397125
 30
0.0
 40
0.2362204338999629
 50
100.341496619482399
 51
174.9998367364065075
  0
LINE
  5
8E8F
  8
0
 10
3447.8398729762011499
 20
168.1491524378540987
 30
0.0
 11
3447.7467542119670725
 21
167.084803783139705
 31
0.0
  0
ARC
  5
8E90
  8
0
 10
3447.5114326297580192
 20
167.1053917538629889
 30
0.0
 40
0.2362204724232897
 50
270.000000002188699
 51
354.9999999930478225
  0
LINE
  5
8E91
  8
0
 10
3447.5114326297671141
 20
166.8691712814396908
 30
0.0
 11
3446.4483608401169477
 21
166.8691712813397885
 31
0.0
  0
ARC
  5
8E92
  8
0
 10
3448.4589169915479943
 20
173.6270792344319034
 30
0.0
 40
0.2373096170851291
 50
90.2523336227082353
 51
174.8980110300462911
  0
LINE
  5
8E93
  8
0
 10
3448.2225476001672178
 20
173.6481829113396884
 30
0.0
 11
3447.7416678522899929
 21
168.1516855554677932
 31
0.0
  0
ARC
  5
8E94
  8
0
 10
-89708.0162922409799648
 20
8318.1997071850455541
 30
0.0
 40
93511.5956653202883899
 50
354.9995484094752101
 51
355.0000151020881844
  0
ARC
  5
8E95
  8
0
 10
3447.361495631490925
 20
167.4203571857023007
 30
0.0
 40
0.3149831821637899
 50
311.3865799498676097
 51
354.9995484094752101
  0
ARC
  5
8E96
  8
0
 10
3447.3799430052499702
 20
167.3994228649488889
 30
0.0
 40
0.287080648515429
 50
266.4475491679428956
 51
311.3865799498676097
  0
ARC
  5
8E97
  8
0
 10
3446.3748082384681766
 20
140.0333920180258076
 30
0.0
 40
27.0974956857978384
 50
87.9118617030234617
 51
89.8444779225892063
  0
ENDSEC
  0
EOF
