  0
SECTION
  2
HEADER
  9
$ACADVER
  1
AC1009
  9
$INSBASE
 10
3479.2639058629620195
 20
173.8591131364158002
 30
0.0
  9
$EXTMIN
 10
3469.5488375963318504
 20
166.8523746206687974
 30
-0.0000000349181948
  9
$EXTMAX
 10
3488.9799679425218528
 20
174.4694999303366103
 30
0.0000000814935746
  9
$LIMMIN
 10
0.0
 20
0.0
  9
$LIMMAX
 10
11.6929133858000007
 20
8.2677165353999982
  9
$ORTHOMODE
 70
     0
  9
$REGENMODE
 70
     1
  9
$FILLMODE
 70
     1
  9
$QTEXTMODE
 70
     0
  9
$MIRRTEXT
 70
     0
  9
$DRAGMODE
 70
     2
  9
$LTSCALE
 40
0.6431102362
  9
$OSMODE
 70
  4095
  9
$ATTMODE
 70
     1
  9
$TEXTSIZE
 40
0.2
  9
$TRACEWID
 40
0.05
  9
$TEXTSTYLE
  7
STANDARD
  9
$CLAYER
  8
0
  9
$CELTYPE
  6
BYLAYER
  9
$CECOLOR
 62
   256
  9
$DIMSCALE
 40
1.0
  9
$DIMASZ
 40
0.1875
  9
$DIMEXO
 40
0.0625
  9
$DIMDLI
 40
0.4443307087
  9
$DIMRND
 40
0.0
  9
$DIMDLE
 40
0.0
  9
$DIMEXE
 40
0.125
  9
$DIMTP
 40
0.01
  9
$DIMTM
 40
0.01
  9
$DIMTXT
 40
2.0
  9
$DIMCEN
 40
0.1052362205
  9
$DIMTSZ
 40
0.0
  9
$DIMTOL
 70
     1
  9
$DIMLIM
 70
     0
  9
$DIMTIH
 70
     1
  9
$DIMTOH
 70
     1
  9
$DIMSE1
 70
     0
  9
$DIMSE2
 70
     0
  9
$DIMTAD
 70
     0
  9
$DIMZIN
 70
     0
  9
$DIMBLK
  1

  9
$DIMASO
 70
     1
  9
$DIMSHO
 70
     1
  9
$DIMPOST
  1
\X
  9
$DIMAPOST
  1

  9
$DIMALT
 70
     1
  9
$DIMALTD
 70
     2
  9
$DIMALTF
 40
25.3999999999999986
  9
$DIMLFAC
 40
1.0
  9
$DIMTOFL
 70
     0
  9
$DIMTVP
 40
0.0
  9
$DIMTIX
 70
     0
  9
$DIMSOXD
 70
     0
  9
$DIMSAH
 70
     0
  9
$DIMBLK1
  1

  9
$DIMBLK2
  1

  9
$DIMSTYLE
  2
STANDARD
  9
$DIMCLRD
 70
     0
  9
$DIMCLRE
 70
     0
  9
$DIMCLRT
 70
     0
  9
$DIMTFAC
 40
1.0
  9
$DIMGAP
 40
0.09
  9
$LUNITS
 70
     2
  9
$LUPREC
 70
     4
  9
$SKETCHINC
 40
0.1
  9
$FILLETRAD
 40
0.0
  9
$AUNITS
 70
     0
  9
$AUPREC
 70
     0
  9
$MENU
  1
.
  9
$ELEVATION
 40
0.0
  9
$PELEVATION
 40
0.0
  9
$THICKNESS
 40
0.0
  9
$LIMCHECK
 70
     0
  9
$BLIPMODE
 70
     0
  9
$CHAMFERA
 40
0.0
  9
$CHAMFERB
 40
0.0
  9
$SKPOLY
 70
     0
  9
$TDCREATE
 40
2458060.468368056230247
  9
$TDUPDATE
 40
2459005.8988310191780329
  9
$TDINDWG
 40
0.546071875
  9
$TDUSRTIMER
 40
0.546071875
  9
$USRTIMER
 70
     1
  9
$ANGBASE
 50
0.0
  9
$ANGDIR
 70
     0
  9
$PDMODE
 70
     0
  9
$PDSIZE
 40
0.3125
  9
$PLINEWID
 40
0.0
  9
$COORDS
 70
     1
  9
$SPLFRAME
 70
     0
  9
$SPLINETYPE
 70
     6
  9
$SPLINESEGS
 70
     8
  9
$ATTDIA
 70
     1
  9
$ATTREQ
 70
     1
  9
$HANDLING
 70
     1
  9
$HANDSEED
  5
9179
  9
$SURFTAB1
 70
     6
  9
$SURFTAB2
 70
     6
  9
$SURFTYPE
 70
     6
  9
$SURFU
 70
     6
  9
$SURFV
 70
     6
  9
$UCSNAME
  2

  9
$UCSORG
 10
0.0
 20
0.0
 30
0.0
  9
$UCSXDIR
 10
1.0
 20
0.0
 30
0.0
  9
$UCSYDIR
 10
0.0
 20
1.0
 30
0.0
  9
$PUCSNAME
  2

  9
$PUCSORG
 10
0.0
 20
0.0
 30
0.0
  9
$PUCSXDIR
 10
1.0
 20
0.0
 30
0.0
  9
$PUCSYDIR
 10
0.0
 20
1.0
 30
0.0
  9
$USERI1
 70
     0
  9
$USERI2
 70
     0
  9
$USERI3
 70
     0
  9
$USERI4
 70
     0
  9
$USERI5
 70
     0
  9
$USERR1
 40
0.0
  9
$USERR2
 40
0.0
  9
$USERR3
 40
0.0
  9
$USERR4
 40
0.0
  9
$USERR5
 40
0.0
  9
$WORLDVIEW
 70
     1
  9
$SHADEDGE
 70
     3
  9
$SHADEDIF
 70
    70
  9
$TILEMODE
 70
     1
  9
$MAXACTVP
 70
    64
  9
$PLIMCHECK
 70
     0
  9
$PEXTMIN
 10
1.0000000000000000E+20
 20
1.0000000000000000E+20
 30
1.0000000000000000E+20
  9
$PEXTMAX
 10
-1.0000000000000000E+20
 20
-1.0000000000000000E+20
 30
-1.0000000000000000E+20
  9
$PLIMMIN
 10
0.0
 20
0.0
  9
$PLIMMAX
 10
12.0
 20
9.0
  9
$UNITMODE
 70
     0
  9
$VISRETAIN
 70
     1
  9
$PLINEGEN
 70
     0
  9
$PSLTSCALE
 70
     1
  0
ENDSEC
  0
SECTION
  2
TABLES
  0
TABLE
  2
VPORT
 70
     1
  0
VPORT
  2
*ACTIVE
 70
     0
 10
0.0
 20
0.0
 11
1.0
 21
1.0
 12
176.367713974102287
 22
-24.1341964396813182
 13
0.0
 23
0.0
 14
1.0
 24
1.0
 15
0.0
 25
0.0
 16
0.0
 26
0.0
 36
96.5995694866707311
 17
3303.693115234375
 27
195.2615115758877096
 37
0.0
 40
19.6621139556901383
 41
2.6486111111111108
 42
50.0
 43
0.0
 44
0.0
 50
0.0
 51
0.0
 71
     0
 72
   100
 73
     1
 74
     1
 75
     0
 76
     0
 77
     0
 78
     0
  0
ENDTAB
  0
TABLE
  2
LTYPE
 70
     2
  0
LTYPE
  2
CONTINUOUS
 70
     0
  3
Solid line
 72
    65
 73
     0
 40
0.0
  0
LTYPE
  2
PHANTOM2
 70
     0
  3
___ _ _ ___ _ _ ___ _ _ ___ _ _
 72
    65
 73
     6
 40
1.25
 49
0.625
 49
-0.125
 49
0.125
 49
-0.125
 49
0.125
 49
-0.125
  0
ENDTAB
  0
TABLE
  2
LAYER
 70
     2
  0
LAYER
  2
0
 70
     0
 62
   255
  6
CONTINUOUS
  0
LAYER
  2
DEFPOINTS
 70
     0
 62
     7
  6
CONTINUOUS
  0
ENDTAB
  0
TABLE
  2
STYLE
 70
     1
  0
STYLE
  2
STANDARD
 70
     0
 40
0.0
 41
0.8
 50
0.0
 71
     0
 42
0.2
  3
txt
  4

  0
ENDTAB
  0
TABLE
  2
VIEW
 70
     0
  0
ENDTAB
  0
TABLE
  2
UCS
 70
     0
  0
ENDTAB
  0
TABLE
  2
APPID
 70
     9
  0
APPID
  2
ACAD
 70
     0
  0
APPID
  2
ACAD_MLEADERVER
 70
     0
  0
APPID
  2
ACAD_EXEMPT_FROM_CAD_STANDARDS
 70
     0
  0
APPID
  2
ACAD_NAV_VCDISPLAY
 70
     0
  0
APPID
  2
ACAECLAYERSTANDARD
 70
     0
  0
APPID
  2
ACCMTRANSPARENCY
 70
     0
  0
APPID
  2
ACAD_DSTYLE_DIMJAG
 70
     0
  0
APPID
  2
ACAD_DSTYLE_DIMTALN
 70
     0
  0
APPID
  2
ACDBATTR
 70
     0
  0
ENDTAB
  0
TABLE
  2
DIMSTYLE
 70
     1
  0
DIMSTYLE
  2
STANDARD
 70
     0
  3

  4

  5

  6

  7

 40
1.0
 41
0.1875
 42
0.0625
 43
0.38
 44
0.125
 45
0.0
 46
0.0
 47
0.01
 48
0.01
140
0.15625
141
0.09
142
0.0
143
25.3999999999999986
144
1.0
145
0.0
146
1.0
147
0.09
 71
     1
 72
     0
 73
     1
 74
     1
 75
     0
 76
     0
 77
     0
 78
     4
170
     0
171
     2
172
     0
173
     0
174
     0
175
     0
176
     0
177
     0
178
     0
  0
ENDTAB
  0
ENDSEC
  0
SECTION
  2
BLOCKS
  0
BLOCK
  8
0
  2
$MODEL_SPACE
 70
     0
 10
0.0
 20
0.0
 30
0.0
  3
$MODEL_SPACE
  1

  0
ENDBLK
  5
21
  8
0
  0
BLOCK
 67
     1
  8
0
  2
$PAPER_SPACE
 70
     0
 10
0.0
 20
0.0
 30
0.0
  3
$PAPER_SPACE
  1

  0
ENDBLK
  5
1D
 67
     1
  8
0
  0
BLOCK
  8
0
  2
_FILLED
 70
     0
 10
0.0
 20
0.0
 30
0.0
  3
_FILLED
  1

  0
SOLID
  5
8FE3
  8
0
  6
BYBLOCK
 62
     0
 10
0.0
 20
0.0
 30
0.0
 11
-1.0
 21
0.1666666667
 31
0.0
 12
-1.0
 22
-0.1666666667
 32
0.0
 13
-1.0
 23
-0.1666666667
 33
0.0
  0
ENDBLK
  5
8FE4
  8
0
  6
BYBLOCK
 62
     0
  0
ENDSEC
  0
SECTION
  2
ENTITIES
  0
ATTDEF
  5
3930
  8
DEFPOINTS
 10
3479.2639684543628391
 20
173.8625317089496036
 30
0.0
 40
0.001
  1
K-2768T-1
  3

  2
MODELNUMBER
 70
     0
1001
ACDBATTR
1070
     0
1070
     1
  0
ATTDEF
  5
3931
  8
DEFPOINTS
 10
3479.2639684543628391
 20
173.8608650422829101
 30
0.0
 40
0.001
  1
KARESS
  3

  2
TRADENAME
 70
     0
1001
ACDBATTR
1070
     0
1070
     1
  0
ATTDEF
  5
3932
  8
DEFPOINTS
 10
3479.2639684543628391
 20
173.8591983756163017
 30
0.0
 40
0.001
  1
BATHROOM SINK
  3

  2
PRODUCT
 70
     0
1001
ACDBATTR
1070
     0
1070
     1
  0
LINE
  5
900E
  8
0
 10
3488.7656019157120681
 20
174.4569759074406079
 30
0.0
 11
3469.7622098102119708
 21
174.4569759074406079
 31
0.0
  0
LINE
  5
900F
  8
0
 10
3469.7622098103120152
 20
174.4569759074406079
 30
0.0
 11
3469.7622098103120152
 21
174.0160310255405136
 31
0.0
  0
ARC
  5
9010
  8
0
 10
3469.9196931062328986
 20
174.0160310255405136
 30
0.0
 40
0.1574832959216934
 50
180.0
 51
224.9991201086081105
  0
ARC
  5
9011
  8
0
 10
3469.9176379762748184
 20
174.0129590650699072
 30
0.0
 40
0.1538595868356972
 50
224.7313470675443909
 51
270.763440162671202
  0
ARC
  5
9012
  8
0
 10
3488.6086497307028367
 20
174.0160637922296871
 30
0.0
 40
0.1569515434278101
 50
269.8073064867069775
 51
359.9880383863006728
  0
LINE
  5
9013
  8
0
 10
3488.7656012707097943
 20
174.0160310255278944
 30
0.0
 11
3488.7656019158121126
 21
174.0164323361971128
 31
0.0
  0
LINE
  5
9014
  8
0
 10
3488.7656019158121126
 20
174.4569759074406079
 30
0.0
 11
3488.7656019158121126
 21
174.0164323361969139
 31
0.0
  0
ARC
  5
9015
  8
0
 10
3484.902769309139785
 20
173.6216805985818894
 30
0.0
 40
0.237432552519606
 50
89.9798481784152671
 51
169.3725998276304949
  0
ARC
  5
9016
  8
0
 10
3477.292188342622012
 20
174.6376571589080982
 30
0.0
 40
7.442189822801125
 50
319.001930622252587
 51
352.493912301201874
  0
ARC
  5
9017
  8
0
 10
3479.5448844369470862
 20
173.2844937214703975
 30
0.0
 40
4.8757119948959904
 50
273.2795748640501756
 51
313.628795494494284
  0
ARC
  5
9018
  8
0
 10
3478.7652375463321732
 20
178.3608367392859861
 30
0.0
 40
10.0002556271034297
 50
273.8739986778425077
 51
276.0764300867847965
  0
ARC
  5
9019
  8
0
 10
3479.4621864430428104
 20
168.1480615028156933
 30
0.0
 40
0.2363321632538165
 50
95.1724854383678291
 51
174.9874607766749079
  0
LINE
  5
901A
  8
0
 10
3479.2267581084829544
 20
168.1687107321968995
 30
0.0
 11
3479.1314675829557927
 21
167.0795389664874904
 31
0.0
  0
ARC
  5
901B
  8
0
 10
3478.8961460070258909
 20
167.1001270109321126
 30
0.0
 40
0.23622047259286
 50
269.9998074101034717
 51
354.999982054772488
  0
ARC
  5
901C
  8
0
 10
3476.7373121812602221
 20
167.1001539255155137
 30
0.0
 40
0.2362473879703453
 50
206.4090351069168889
 51
269.9952981043516047
  0
ARC
  5
901D
  8
0
 10
3476.3141325416208929
 20
166.8900102342579999
 30
0.0
 40
0.2362368746533404
 50
26.4073648976903286
 51
85.5192631476279104
  0
ARC
  5
901E
  8
0
 10
3476.849569412927849
 20
173.7227495002144906
 30
0.0
 40
6.6174496165497176
 50
225.9320318504539102
 51
265.5192631476278962
  0
ARC
  5
901F
  8
0
 10
3477.6998975858059566
 20
173.7849092205279931
 30
0.0
 40
7.2757100132053152
 50
183.0366734684004086
 51
221.4565560241665878
  0
ARC
  5
9020
  8
0
 10
3483.0508732315120142
 20
174.7698880485079087
 30
0.0
 40
12.6906786136924197
 50
185.0936536728844999
 51
186.1992074362298126
  0
ARC
  5
9021
  8
0
 10
3470.1733796092039483
 20
173.6215511233405095
 30
0.0
 40
0.2379149810574224
 50
5.2109401617148707
 51
86.5853775322304955
  0
ARC
  5
9022
  8
0
 10
3477.8061393833731927
 20
223.618265185723601
 30
0.0
 40
55.2588131336665072
 50
269.4542315903582903
 51
271.7008380808226207
  0
ARC
  5
9023
  8
0
 10
3470.8789204403760777
 20
173.6228730966545868
 30
0.0
 40
0.2362464437368362
 50
10.3301523190971505
 51
89.5781278982881872
  0
ARC
  5
9024
  8
0
 10
3481.7266197244539399
 20
175.4553285388996926
 30
0.0
 40
10.7651588338508706
 50
189.571930271691599
 51
199.317033570102609
  0
ARC
  5
9025
  8
0
 10
3476.5744269983861159
 20
173.4860334602637124
 30
0.0
 40
5.253848721856067
 50
197.6361523655226904
 51
231.4287147134608915
  0
ARC
  5
9026
  8
0
 10
3475.9543847691320479
 20
172.9468045408962951
 30
0.0
 40
4.4481546738348934
 50
233.342729860825699
 51
254.349422565260312
  0
ARC
  5
9027
  8
0
 10
3477.1391183740370252
 20
177.9075432614783097
 30
0.0
 40
9.5466206454164482
 50
255.5345320277295968
 51
270.8442486753485241
  0
ARC
  5
9028
  8
0
 10
3477.1133505715110914
 20
168.1775556932956874
 30
0.0
 40
0.2450018999952368
 50
352.6991160222708004
 51
48.795491467315081
  0
ARC
  5
9029
  8
0
 10
116293.9101730238035088
 20
2173.6131236201581487
 30
0.0
 40
112834.377339369195397
 50
181.0184026473635868
 51
181.0187880084918106
  0
ARC
  5
902A
  8
0
 10
3476.9214216829450379
 20
167.4409685076331016
 30
0.0
 40
0.4515955575808076
 50
306.839248190434887
 51
353.2177889823984174
  0
ARC
  5
902B
  8
0
 10
3476.6807320691100358
 20
168.3639868083130864
 30
0.0
 40
1.3825230644572251
 50
274.5486477659928823
 51
291.71205383863321
  0
ARC
  5
902C
  8
0
 10
3477.0832429620832045
 20
179.1458668352682082
 30
0.0
 40
12.1635749369284607
 50
267.3728905204696957
 51
268.6203241694864232
  0
LINE
  5
902D
  8
0
 10
3476.7372927939068177
 20
166.8639065383407001
 30
0.0
 11
3478.8961460070258909
 21
166.8639065383407001
 31
0.0
  0
LINE
  5
902F
  8
0
 10
3488.6107006885131341
 20
173.8591131364158002
 30
0.0
 11
3469.9171110374099953
 21
173.8591131364158002
 31
0.0
  0
ENDSEC
  0
EOF
