  0
SECTION
  2
HEADER
  9
$ACADVER
  1
AC1009
  9
$INSBASE
 10
3500.8246279330091966
 20
194.9416227443005027
 30
0.0
  9
$EXTMIN
 10
3488.703632212489083
 20
192.651478424300393
 30
0.0
  9
$EXTMAX
 10
3512.9456236535302196
 20
200.4479588498003011
 30
0.0
  9
$LIMMIN
 10
0.0
 20
0.0
  9
$LIMMAX
 10
11.6929133858000007
 20
8.2677165353999982
  9
$ORTHOMODE
 70
     0
  9
$REGENMODE
 70
     1
  9
$FILLMODE
 70
     1
  9
$QTEXTMODE
 70
     0
  9
$MIRRTEXT
 70
     0
  9
$DRAGMODE
 70
     2
  9
$LTSCALE
 40
0.6431102362
  9
$OSMODE
 70
  3839
  9
$ATTMODE
 70
     1
  9
$TEXTSIZE
 40
0.2
  9
$TRACEWID
 40
0.05
  9
$TEXTSTYLE
  7
STANDARD
  9
$CLAYER
  8
0
  9
$CELTYPE
  6
BYLAYER
  9
$CECOLOR
 62
   256
  9
$DIMSCALE
 40
1.0
  9
$DIMASZ
 40
0.1875
  9
$DIMEXO
 40
0.0625
  9
$DIMDLI
 40
0.4443307087
  9
$DIMRND
 40
0.0
  9
$DIMDLE
 40
0.0
  9
$DIMEXE
 40
0.125
  9
$DIMTP
 40
0.01
  9
$DIMTM
 40
0.01
  9
$DIMTXT
 40
2.0
  9
$DIMCEN
 40
0.1052362205
  9
$DIMTSZ
 40
0.0
  9
$DIMTOL
 70
     1
  9
$DIMLIM
 70
     0
  9
$DIMTIH
 70
     1
  9
$DIMTOH
 70
     1
  9
$DIMSE1
 70
     0
  9
$DIMSE2
 70
     0
  9
$DIMTAD
 70
     0
  9
$DIMZIN
 70
     0
  9
$DIMBLK
  1

  9
$DIMASO
 70
     1
  9
$DIMSHO
 70
     1
  9
$DIMPOST
  1
\X
  9
$DIMAPOST
  1

  9
$DIMALT
 70
     1
  9
$DIMALTD
 70
     2
  9
$DIMALTF
 40
25.3999999999999986
  9
$DIMLFAC
 40
1.0
  9
$DIMTOFL
 70
     0
  9
$DIMTVP
 40
0.0
  9
$DIMTIX
 70
     0
  9
$DIMSOXD
 70
     0
  9
$DIMSAH
 70
     0
  9
$DIMBLK1
  1

  9
$DIMBLK2
  1

  9
$DIMSTYLE
  2
STANDARD
  9
$DIMCLRD
 70
     0
  9
$DIMCLRE
 70
     0
  9
$DIMCLRT
 70
     0
  9
$DIMTFAC
 40
1.0
  9
$DIMGAP
 40
0.09
  9
$LUNITS
 70
     2
  9
$LUPREC
 70
     4
  9
$SKETCHINC
 40
0.1
  9
$FILLETRAD
 40
0.0
  9
$AUNITS
 70
     0
  9
$AUPREC
 70
     0
  9
$MENU
  1
.
  9
$ELEVATION
 40
0.0
  9
$PELEVATION
 40
0.0
  9
$THICKNESS
 40
0.0
  9
$LIMCHECK
 70
     0
  9
$BLIPMODE
 70
     0
  9
$CHAMFERA
 40
0.0
  9
$CHAMFERB
 40
0.0
  9
$SKPOLY
 70
     0
  9
$TDCREATE
 40
2458060.468368056230247
  9
$TDUPDATE
 40
2459016.7434722217731178
  9
$TDINDWG
 40
0.4981667824
  9
$TDUSRTIMER
 40
0.4981667824
  9
$USRTIMER
 70
     1
  9
$ANGBASE
 50
0.0
  9
$ANGDIR
 70
     0
  9
$PDMODE
 70
     0
  9
$PDSIZE
 40
0.3125
  9
$PLINEWID
 40
0.0
  9
$COORDS
 70
     1
  9
$SPLFRAME
 70
     0
  9
$SPLINETYPE
 70
     6
  9
$SPLINESEGS
 70
     8
  9
$ATTDIA
 70
     1
  9
$ATTREQ
 70
     1
  9
$HANDLING
 70
     1
  9
$HANDSEED
  5
8B14
  9
$SURFTAB1
 70
     6
  9
$SURFTAB2
 70
     6
  9
$SURFTYPE
 70
     6
  9
$SURFU
 70
     6
  9
$SURFV
 70
     6
  9
$UCSNAME
  2

  9
$UCSORG
 10
0.0
 20
0.0
 30
0.0
  9
$UCSXDIR
 10
1.0
 20
0.0
 30
0.0
  9
$UCSYDIR
 10
0.0
 20
1.0
 30
0.0
  9
$PUCSNAME
  2

  9
$PUCSORG
 10
0.0
 20
0.0
 30
0.0
  9
$PUCSXDIR
 10
1.0
 20
0.0
 30
0.0
  9
$PUCSYDIR
 10
0.0
 20
1.0
 30
0.0
  9
$USERI1
 70
     0
  9
$USERI2
 70
     0
  9
$USERI3
 70
     0
  9
$USERI4
 70
     0
  9
$USERI5
 70
     0
  9
$USERR1
 40
0.0
  9
$USERR2
 40
0.0
  9
$USERR3
 40
0.0
  9
$USERR4
 40
0.0
  9
$USERR5
 40
0.0
  9
$WORLDVIEW
 70
     1
  9
$SHADEDGE
 70
     3
  9
$SHADEDIF
 70
    70
  9
$TILEMODE
 70
     1
  9
$MAXACTVP
 70
    64
  9
$PLIMCHECK
 70
     0
  9
$PEXTMIN
 10
1.0000000000000000E+20
 20
1.0000000000000000E+20
 30
1.0000000000000000E+20
  9
$PEXTMAX
 10
-1.0000000000000000E+20
 20
-1.0000000000000000E+20
 30
-1.0000000000000000E+20
  9
$PLIMMIN
 10
0.0
 20
0.0
  9
$PLIMMAX
 10
12.0
 20
9.0
  9
$UNITMODE
 70
     0
  9
$VISRETAIN
 70
     1
  9
$PLINEGEN
 70
     0
  9
$PSLTSCALE
 70
     1
  0
ENDSEC
  0
SECTION
  2
TABLES
  0
TABLE
  2
VPORT
 70
     1
  0
VPORT
  2
*ACTIVE
 70
     0
 10
0.0
 20
0.0
 11
1.0
 21
1.0
 12
0.0
 22
2.3671053356918281
 13
0.0
 23
0.0
 14
1.0
 24
1.0
 15
0.0
 25
0.0
 16
0.0
 26
0.0
 36
87.6964558305583068
 17
3500.8245849609379547
 27
196.5493011474609091
 37
0.0
 40
29.0270815576390291
 41
2.3528591352859132
 42
50.0
 43
0.0
 44
0.0
 50
0.0
 51
0.0
 71
     0
 72
   100
 73
     1
 74
     1
 75
     0
 76
     0
 77
     0
 78
     0
  0
ENDTAB
  0
TABLE
  2
LTYPE
 70
     2
  0
LTYPE
  2
CONTINUOUS
 70
     0
  3
Solid line
 72
    65
 73
     0
 40
0.0
  0
LTYPE
  2
PHANTOM2
 70
     0
  3
___ _ _ ___ _ _ ___ _ _ ___ _ _
 72
    65
 73
     6
 40
1.25
 49
0.625
 49
-0.125
 49
0.125
 49
-0.125
 49
0.125
 49
-0.125
  0
ENDTAB
  0
TABLE
  2
LAYER
 70
     2
  0
LAYER
  2
0
 70
     0
 62
   255
  6
CONTINUOUS
  0
LAYER
  2
DEFPOINTS
 70
     0
 62
     7
  6
CONTINUOUS
  0
ENDTAB
  0
TABLE
  2
STYLE
 70
     1
  0
STYLE
  2
STANDARD
 70
     0
 40
0.0
 41
0.8
 50
0.0
 71
     0
 42
0.2
  3
txt
  4

  0
ENDTAB
  0
TABLE
  2
VIEW
 70
     0
  0
ENDTAB
  0
TABLE
  2
UCS
 70
     0
  0
ENDTAB
  0
TABLE
  2
APPID
 70
     9
  0
APPID
  2
ACAD
 70
     0
  0
APPID
  2
ACAD_MLEADERVER
 70
     0
  0
APPID
  2
ACAD_EXEMPT_FROM_CAD_STANDARDS
 70
     0
  0
APPID
  2
ACAD_NAV_VCDISPLAY
 70
     0
  0
APPID
  2
ACAECLAYERSTANDARD
 70
     0
  0
APPID
  2
ACCMTRANSPARENCY
 70
     0
  0
APPID
  2
ACAD_DSTYLE_DIMJAG
 70
     0
  0
APPID
  2
ACAD_DSTYLE_DIMTALN
 70
     0
  0
APPID
  2
ACDBATTR
 70
     0
  0
ENDTAB
  0
TABLE
  2
DIMSTYLE
 70
     1
  0
DIMSTYLE
  2
STANDARD
 70
     0
  3

  4

  5

  6

  7

 40
1.0
 41
0.1875
 42
0.0625
 43
0.38
 44
0.125
 45
0.0
 46
0.0
 47
0.01
 48
0.01
140
0.15625
141
0.09
142
0.0
143
25.3999999999999986
144
1.0
145
0.0
146
1.0
147
0.09
 71
     1
 72
     0
 73
     1
 74
     1
 75
     0
 76
     0
 77
     0
 78
     4
170
     0
171
     2
172
     0
173
     0
174
     0
175
     0
176
     0
177
     0
178
     0
  0
ENDTAB
  0
ENDSEC
  0
SECTION
  2
BLOCKS
  0
BLOCK
  8
0
  2
$MODEL_SPACE
 70
     0
 10
0.0
 20
0.0
 30
0.0
  3
$MODEL_SPACE
  1

  0
ENDBLK
  5
21
  8
0
  0
BLOCK
 67
     1
  8
0
  2
$PAPER_SPACE
 70
     0
 10
0.0
 20
0.0
 30
0.0
  3
$PAPER_SPACE
  1

  0
ENDBLK
  5
1D
 67
     1
  8
0
  0
BLOCK
  8
0
  2
_FILLED
 70
     0
 10
0.0
 20
0.0
 30
0.0
  3
_FILLED
  1

  0
SOLID
  5
6F59
  8
0
  6
BYBLOCK
 62
     0
 10
0.0
 20
0.0
 30
0.0
 11
-1.0
 21
0.1666666667
 31
0.0
 12
-1.0
 22
-0.1666666667
 32
0.0
 13
-1.0
 23
-0.1666666667
 33
0.0
  0
ENDBLK
  5
6F5A
  8
0
  6
BYBLOCK
 62
     0
  0
ENDSEC
  0
SECTION
  2
ENTITIES
  0
ATTDEF
  5
3930
  8
DEFPOINTS
 10
3500.8251370697189486
 20
194.9402235845738005
 30
0.0
 40
0.001
  1
K-2772T-1
  3

  2
MODELNUMBER
 70
     0
1001
ACDBATTR
1070
     0
1070
     1
  0
ATTDEF
  5
3931
  8
DEFPOINTS
 10
3500.8251370697189486
 20
194.9385569179071922
 30
0.0
 40
0.001
  1
KARESS
  3

  2
TRADENAME
 70
     0
1001
ACDBATTR
1070
     0
1070
     1
  0
ATTDEF
  5
3932
  8
DEFPOINTS
 10
3500.8251370697189486
 20
194.9368902512404986
 30
0.0
 40
0.001
  1
BATHROOM SINK
  3

  2
PRODUCT
 70
     0
1001
ACDBATTR
1070
     0
1070
     1
  0
ARC
  5
89EB
  8
0
 10
3499.6894054230201618
 20
192.8089587392057069
 30
0.0
 40
0.157480314905222
 50
184.999999996903
 51
270.0000000134184006
  0
LINE
  5
89EC
  8
0
 10
3499.532524368257782
 20
192.7952334254005109
 30
0.0
 11
3499.4379021992208436
 21
193.8767697671669055
 31
0.0
  0
ARC
  5
89ED
  8
0
 10
3499.1260958411521642
 20
193.849490245637611
 30
0.0
 40
0.3129974076994484
 50
4.9999999969030791
 51
80.872867239531729
  0
ARC
  5
89EE
  8
0
 10
3500.5495966928551752
 20
216.7228612381830999
 30
0.0
 40
22.6061219541690193
 50
261.1322090514223078
 51
266.5157922785086271
  0
ARC
  5
89EF
  8
0
 10
3498.6693967171281656
 20
204.8976553036820007
 30
0.0
 40
10.6324812852508508
 50
249.4520918851715976
 51
261.3197971743380208
  0
ARC
  5
89F0
  8
0
 10
3493.6647763719051909
 20
195.1383493928472888
 30
0.0
 40
0.1967266542045281
 50
229.3178170594383118
 51
270.0137412466359024
  0
ARC
  5
89F1
  8
0
 10
3493.0592097209027997
 20
194.3066209880994961
 30
0.0
 40
0.8328909073703284
 50
55.0334754738243177
 51
88.8179044139334053
  0
ARC
  5
89F2
  8
0
 10
3492.5622845821080773
 20
195.4123122261445076
 30
0.0
 40
0.2751470343185178
 50
224.4479039910918914
 51
262.6995472197062895
  0
ARC
  5
89F3
  8
0
 10
3501.9892381722561367
 20
204.0493331661851926
 30
0.0
 40
13.0603567963698008
 50
209.0230898135222901
 51
222.5371786323503898
  0
ARC
  5
89F4
  8
0
 10
3489.5999835931102098
 20
197.1767141020837926
 30
0.0
 40
1.107442578609517
 50
28.9604227141143014
 51
41.6249958630653722
  0
ARC
  5
89F5
  8
0
 10
3489.9638341363638574
 20
197.5414923106876017
 30
0.0
 40
0.5939652548351564
 50
38.6346133056344527
 51
67.7496551345781199
  0
ARC
  5
89F6
  8
0
 10
3489.3793039595338996
 20
198.2488609213434927
 30
0.0
 40
0.1576319070952612
 50
202.8386611975747087
 51
269.963405082285874
  0
ARC
  5
89F7
  8
0
 10
3499.2779343241759307
 20
202.1499997445781958
 30
0.0
 40
10.7972220458507504
 50
191.8232294998475993
 51
201.5292416795082033
  0
ARC
  5
89F8
  8
0
 10
3488.9529767741078103
 20
199.9816585684669121
 30
0.0
 40
0.2494132615158373
 50
117.8002391947294996
 51
178.6551746968185057
  0
ARC
  5
89F9
  8
0
 10
3489.0672147259001576
 20
199.7016084243973921
 30
0.0
 40
0.5512124133420602
 50
95.0956535219472556
 51
114.7261309451270961
  0
ARC
  5
89FA
  8
0
 10
3491.2777758013539824
 20
173.650500311195799
 30
0.0
 40
26.6959356893227095
 50
91.1635189347210542
 51
94.8552700873501351
  0
ARC
  5
89FB
  8
0
 10
3500.0110412986891788
 20
-201.5227332378410949
 30
0.0
 40
401.970692087641396
 50
89.8840335547813254
 51
91.3221996725624905
  0
ARC
  5
89FC
  8
0
 10
3489.9132984204261447
 20
197.7762686127663017
 30
0.0
 40
0.3149609692882276
 50
9.9964293557037571
 51
89.9999182786354339
  0
LINE
  5
89FD
  8
0
 10
3490.2234778326778724
 20
197.8309416809998993
 30
0.0
 11
3490.6863739123450614
 21
195.2056820225456875
 31
0.0
  0
ARC
  5
89FE
  8
0
 10
3490.9973717700731868
 20
195.2567924316956862
 30
0.0
 40
0.3151697025969295
 50
189.3327514095119
 51
269.9822044385720119
  0
ARC
  5
89FF
  8
0
 10
3505.2155691757529894
 20
195.320038887616505
 30
0.0
 40
6.0080725073019021
 50
191.9004509333126123
 51
196.7830059442325989
  0
ARC
  5
8A00
  8
0
 10
3489.8503316512142192
 20
200.1038790551280044
 30
0.0
 40
1.152588762533153
 50
185.7945305153729123
 51
188.2884505381701103
  0
ARC
  5
8A01
  8
0
 10
3488.7920537092568338
 20
200.0348109300963984
 30
0.0
 40
0.127256507076315
 50
229.7214436779744915
 51
251.3536559600682097
  0
ARC
  5
8A02
  8
0
 10
3489.0956829906508574
 20
201.0547116375088024
 30
0.0
 40
1.1913197885199001
 50
253.2006444402246927
 51
259.277569821080192
  0
ARC
  5
8A03
  8
0
 10
3494.6402468348492221
 20
238.9245845002407975
 30
0.0
 40
39.4639254206683034
 50
261.5982379046491815
 51
265.9715250437183727
  0
ARC
  5
8A04
  8
0
 10
3500.1264365742172231
 20
305.1951268733740221
 30
0.0
 40
105.9592972126577024
 50
265.5297513844271862
 51
268.558739707819484
  0
ARC
  5
8A05
  8
0
 10
3500.8147580772028959
 20
327.0087995958662077
 30
0.0
 40
127.7834576858869013
 50
268.4962153621340804
 51
270.0044254639179258
  0
ARC
  5
8A06
  8
0
 10
3499.0806803622817824
 20
5.1981663561859071
 30
0.0
 40
194.3582036660592962
 50
89.485886499957445
 51
89.8415639367572112
  0
ARC
  5
8A07
  8
0
 10
3500.4464305489068465
 20
311.5494893238376903
 30
0.0
 40
111.9969254094705065
 50
267.5015666464278183
 51
269.5762486814763861
  0
ARC
  5
8A08
  8
0
 10
3498.9198205760799283
 20
278.7007737877833051
 30
0.0
 40
79.112942232415989
 50
265.7127876086279912
 51
267.5690757471519987
  0
ARC
  5
8A09
  8
0
 10
3494.3042068029440088
 20
222.2071075776759983
 30
0.0
 40
22.4355175895569587
 50
259.9353571287600744
 51
266.6818688721061221
  0
ARC
  5
8A0A
  8
0
 10
3490.3993017642919767
 20
200.2162061454552884
 30
0.0
 40
0.1006259770306396
 50
224.2950108832033891
 51
260.9044383922399106
  0
ARC
  5
8A0B
  8
0
 10
3490.3374952124850097
 20
200.1559021640368883
 30
0.0
 40
0.0142742542849932
 50
131.5520544215908956
 51
224.2950108832044975
  0
ARC
  5
8A0C
  8
0
 10
3491.0132223825021356
 20
197.0975558469143039
 30
0.0
 40
3.14458718085899
 50
89.7192018886851912
 51
102.585528210450903
  0
ARC
  5
8A0D
  8
0
 10
3495.406574356611145
 20
78.1173140593552091
 30
0.0
 40
122.2032364265490969
 50
90.6607988104918832
 51
92.0530652824617732
  0
ARC
  5
8A0E
  8
0
 10
3500.0999403394548608
 20
-253.6426412341911885
 30
0.0
 40
453.9960834366830227
 50
90.1514958767864414
 51
90.7702061085179253
  0
ARC
  5
8A0F
  8
0
 10
3500.718367769381075
 20
-348.9947976570122137
 30
0.0
 40
549.3496638518321333
 50
89.9889173338215755
 51
90.1897005377441872
  0
ARC
  5
8A10
  8
0
 10
3500.7483052490670161
 20
185.359382925272314
 30
0.0
 40
15.0644540165580807
 50
89.7097149107194838
 51
91.6368968100261156
  0
ARC
  5
8A11
  8
0
 10
3500.412849080586966
 20
196.74929021725859
 30
0.0
 40
3.6696257374201249
 50
91.4813459821552328
 51
93.9663575528070538
  0
ARC
  5
8A12
  8
0
 10
3500.1732876854980532
 20
200.2547525075650015
 30
0.0
 40
0.156027951559043
 50
95.247216363287464
 51
103.6013949675623991
  0
ARC
  5
8A13
  8
0
 10
3500.1369642502868373
 20
200.405465265223711
 30
0.0
 40
0.0010093040917741
 50
111.444372037999301
 51
245.3064567881897915
  0
ARC
  5
8A14
  8
0
 10
3500.1690261129601822
 20
200.5311968994722065
 30
0.0
 40
0.1307480685183913
 50
255.6145714137155096
 51
264.8678616215822217
  0
ARC
  5
8A15
  8
0
 10
3500.4635704938232266
 20
204.9699354075802944
 30
0.0
 40
4.5792139706031021
 50
266.1654170995101936
 51
269.1526416043988092
  0
ARC
  5
8A16
  8
0
 10
3500.940784735366833
 20
237.6611182611914899
 30
0.0
 40
37.2738796659401217
 50
269.1623204093526738
 51
269.8214485487191041
  0
LINE
  5
8A17
  8
0
 10
3489.3792032797578031
 20
198.0912290464005139
 30
0.0
 11
3490.1887415677579156
 21
198.091229858300494
 31
0.0
  0
LINE
  5
8A18
  8
0
 10
3490.9972738811579802
 20
194.9416227443005027
 30
0.0
 11
3510.6519819848608677
 21
194.9416227443005027
 31
0.0
  0
LINE
  5
8A19
  8
0
 10
3499.6894054230569964
 20
192.6514784243005067
 30
0.0
 11
3501.9598504429941386
 21
192.6514784243005067
 31
0.0
  0
LINE
  5
8A1A
  8
0
 10
3492.5273209751580907
 20
195.1393956882004943
 30
0.0
 11
3509.1219348908571192
 21
195.1393956882004943
 31
0.0
  0
ARC
  5
8A1B
  8
0
 10
3500.9009506169491033
 20
185.359382925272314
 30
0.0
 40
15.0644540165580807
 50
88.3631031899738844
 51
90.290285089280502
  0
ARC
  5
8A1C
  8
0
 10
3501.2364067854291534
 20
196.74929021725859
 30
0.0
 40
3.6696257374201249
 50
86.0336424471929178
 51
88.5186540178447672
  0
ARC
  5
8A1D
  8
0
 10
3501.4759681805180662
 20
200.2547525075650015
 30
0.0
 40
0.156027951559043
 50
76.3986050324375725
 51
84.752783636712536
  0
ARC
  5
8A1E
  8
0
 10
3501.5122916157279178
 20
200.405465265223711
 30
0.0
 40
0.0010093040917741
 50
294.6935432118102085
 51
68.555627962000699
  0
ARC
  5
8A1F
  8
0
 10
3501.4802297530559372
 20
200.5311968994722065
 30
0.0
 40
0.1307480685183913
 50
275.132138378417892
 51
284.3854285862846041
  0
ARC
  5
8A20
  8
0
 10
3501.1856853721919833
 20
204.9699354075802944
 30
0.0
 40
4.5792139706031021
 50
270.8473583956013044
 51
273.8345829004898064
  0
ARC
  5
8A21
  8
0
 10
3500.7084711306488316
 20
237.6611182611914899
 30
0.0
 40
37.2738796659401217
 50
270.1785514512810096
 51
270.8376795906473262
  0
LINE
  5
8A22
  8
0
 10
3499.1757452569081579
 20
194.1585247303505071
 30
0.0
 11
3502.4735106091079615
 21
194.1585247303505071
 31
0.0
  0
ARC
  5
8A23
  8
0
 10
3501.9598504429968671
 20
192.8089587392057069
 30
0.0
 40
0.157480314905222
 50
269.9999999865815994
 51
355.0000000030968863
  0
LINE
  5
8A24
  8
0
 10
3502.1167314977610658
 20
192.7952334254005109
 30
0.0
 11
3502.2113536667980043
 21
193.8767697671669055
 31
0.0
  0
ARC
  5
8A25
  8
0
 10
3502.5231600248648647
 20
193.849490245637611
 30
0.0
 40
0.3129974076994484
 50
99.1271327604682853
 51
175.0000000030968863
  0
ARC
  5
8A26
  8
0
 10
3501.0996591731632179
 20
216.7228612381830999
 30
0.0
 40
22.6061219541690193
 50
273.4842077214913729
 51
278.8677909485778059
  0
ARC
  5
8A27
  8
0
 10
3502.9798591488897728
 20
204.8976553036820007
 30
0.0
 40
10.6324812852508508
 50
278.6802028256619224
 51
290.547908114828374
  0
ARC
  5
8A28
  8
0
 10
3507.9844794941132022
 20
195.1383493928472888
 30
0.0
 40
0.1967266542045281
 50
269.9862587533640976
 51
310.6821829405616882
  0
ARC
  5
8A29
  8
0
 10
3508.5900461451160481
 20
194.3066209880994961
 30
0.0
 40
0.8328909073703284
 50
91.1820955860665947
 51
124.9665245261757036
  0
ARC
  5
8A2A
  8
0
 10
3509.0869712839112253
 20
195.4123122261445076
 30
0.0
 40
0.2751470343185178
 50
277.3004527802937105
 51
315.5520960089081086
  0
ARC
  5
8A2B
  8
0
 10
3499.6600176937631659
 20
204.0493331661851926
 30
0.0
 40
13.0603567963698008
 50
317.4628213676494966
 51
330.9769101864762888
  0
ARC
  5
8A2C
  8
0
 10
3512.0492722729068191
 20
197.1767141020837926
 30
0.0
 40
1.107442578609517
 50
138.3750041369345922
 51
151.0395772858857129
  0
ARC
  5
8A2D
  8
0
 10
3511.685421729654081
 20
197.5414923106876017
 30
0.0
 40
0.5939652548351564
 50
112.2503448654218943
 51
141.3653866943654975
  0
ARC
  5
8A2E
  8
0
 10
3512.2699519064840388
 20
198.2488609213434927
 30
0.0
 40
0.1576319070952612
 50
270.0365949177140124
 51
337.1613388024252913
  0
ARC
  5
8A2F
  8
0
 10
3502.3713215418420077
 20
202.1499997445781958
 30
0.0
 40
10.7972220458507504
 50
338.4707583204918251
 51
348.1767705001523723
  0
ARC
  5
8A30
  8
0
 10
3512.6962790919110375
 20
199.9816585684669121
 30
0.0
 40
0.2494132615158373
 50
1.3448253031815269
 51
62.1997608052705004
  0
ARC
  5
8A31
  8
0
 10
3512.5820411401177807
 20
199.7016084243973921
 30
0.0
 40
0.5512124133420602
 50
65.2738690548728613
 51
84.9043464780527444
  0
ARC
  5
8A32
  8
0
 10
3510.3714800646648655
 20
173.650500311195799
 30
0.0
 40
26.6959356893227095
 50
85.1447299126498649
 51
88.83648106527896
  0
ARC
  5
8A33
  8
0
 10
3501.6382145673292143
 20
-201.5227332378410949
 30
0.0
 40
401.970692087641396
 50
88.6778003274374953
 51
90.1159664452186746
  0
ARC
  5
8A34
  8
0
 10
3511.7359574455917937
 20
197.7762686127663017
 30
0.0
 40
0.3149609692882276
 50
90.0000817213645661
 51
170.0035706442961896
  0
LINE
  5
8A35
  8
0
 10
3511.425778033340066
 20
197.8309416809998993
 30
0.0
 11
3510.962881953672877
 21
195.2056820225456875
 31
0.0
  0
ARC
  5
8A36
  8
0
 10
3510.6518840959452064
 20
195.2567924316956862
 30
0.0
 40
0.3151697025969295
 50
270.0177955614279881
 51
350.6672485904879863
  0
ARC
  5
8A37
  8
0
 10
3496.4336866902658585
 20
195.320038887616505
 30
0.0
 40
6.0080725073019021
 50
343.2169940557673726
 51
348.0995490666874161
  0
ARC
  5
8A38
  8
0
 10
3511.7989242148050835
 20
200.1038790551280044
 30
0.0
 40
1.152588762533153
 50
351.7115494618299181
 51
354.2054694846270877
  0
ARC
  5
8A39
  8
0
 10
3512.8572021567611046
 20
200.0348109300963984
 30
0.0
 40
0.127256507076315
 50
288.6463440399318188
 51
310.2785563220244853
  0
ARC
  5
8A3A
  8
0
 10
3512.5535728753679905
 20
201.0547116375088024
 30
0.0
 40
1.1913197885199001
 50
280.722430178919808
 51
286.7993555597752788
  0
ARC
  5
8A3B
  8
0
 10
3507.0090090311700806
 20
238.9245845002407975
 30
0.0
 40
39.4639254206683034
 50
274.0284749562816273
 51
278.4017620953508185
  0
ARC
  5
8A3C
  8
0
 10
3501.52281929180117
 20
305.1951268733740221
 30
0.0
 40
105.9592972126577024
 50
271.441260292180516
 51
274.4702486155727001
  0
ARC
  5
8A3D
  8
0
 10
3500.8344977888150424
 20
327.0087995958662077
 30
0.0
 40
127.7834576858869013
 50
269.9955745360820174
 51
271.5037846378659196
  0
ARC
  5
8A3E
  8
0
 10
3502.5685755037370654
 20
5.1981663561859071
 30
0.0
 40
194.3582036660592962
 50
90.1584360632427888
 51
90.5141135000425834
  0
ARC
  5
8A3F
  8
0
 10
3501.2028253171120014
 20
311.5494893238376903
 30
0.0
 40
111.9969254094705065
 50
270.4237513185236139
 51
272.4984333535721817
  0
ARC
  5
8A40
  8
0
 10
3502.7294352899380101
 20
278.7007737877833051
 30
0.0
 40
79.112942232415989
 50
272.430924252848115
 51
274.2872123913720088
  0
ARC
  5
8A41
  8
0
 10
3507.3450490630739296
 20
222.2071075776759983
 30
0.0
 40
22.4355175895569587
 50
273.3181311278938779
 51
280.0646428712399825
  0
ARC
  5
8A42
  8
0
 10
3511.2499541017259617
 20
200.2162061454552884
 30
0.0
 40
0.1006259770306396
 50
279.0955616077600894
 51
315.7049891167965825
  0
ARC
  5
8A43
  8
0
 10
3511.3117606535338382
 20
200.1559021640368883
 30
0.0
 40
0.0142742542849932
 50
315.7049891167955025
 51
48.4479455784090902
  0
ARC
  5
8A44
  8
0
 10
3510.6360334835158028
 20
197.0975558469143039
 30
0.0
 40
3.14458718085899
 50
77.4144717895490544
 51
90.2807981113148088
  0
ARC
  5
8A45
  8
0
 10
3506.2426815094067933
 20
78.1173140593552091
 30
0.0
 40
122.2032364265490969
 50
87.9469347175382268
 51
89.3392011895081026
  0
ARC
  5
8A46
  8
0
 10
3501.5493155265630776
 20
-253.6426412341911885
 30
0.0
 40
453.9960834366830227
 50
89.2297938914820747
 51
89.8485041232135444
  0
ARC
  5
8A47
  8
0
 10
3500.9308880966368633
 20
-348.9947976570122137
 30
0.0
 40
549.3496638518321333
 50
89.8102994622557986
 51
90.0110826661784387
  0
LINE
  5
8A48
  8
0
 10
3512.2700525862610448
 20
198.0912290464005139
 30
0.0
 11
3511.4605142982600228
 21
198.091229858300494
 31
0.0
  0
ENDSEC
  0
EOF
