  0
SECTION
  2
HEADER
  9
$ACADVER
  1
AC1009
  9
$INSBASE
 10
3535.0150861164029266
 20
197.9689100621826015
 30
0.0
  9
$EXTMIN
 10
3522.8940903958819035
 20
189.2385390530228051
 30
0.0
  9
$EXTMAX
 10
3547.1360818369230401
 20
206.6994251696982019
 30
0.0
  9
$LIMMIN
 10
0.0
 20
0.0
  9
$LIMMAX
 10
11.6929133858000007
 20
8.2677165353999982
  9
$ORTHOMODE
 70
     0
  9
$REGENMODE
 70
     1
  9
$FILLMODE
 70
     1
  9
$QTEXTMODE
 70
     0
  9
$MIRRTEXT
 70
     0
  9
$DRAGMODE
 70
     2
  9
$LTSCALE
 40
0.6431102362
  9
$OSMODE
 70
  3839
  9
$ATTMODE
 70
     1
  9
$TEXTSIZE
 40
0.2
  9
$TRACEWID
 40
0.05
  9
$TEXTSTYLE
  7
STANDARD
  9
$CLAYER
  8
0
  9
$CELTYPE
  6
BYLAYER
  9
$CECOLOR
 62
   256
  9
$DIMSCALE
 40
1.0
  9
$DIMASZ
 40
0.1875
  9
$DIMEXO
 40
0.0625
  9
$DIMDLI
 40
0.4443307087
  9
$DIMRND
 40
0.0
  9
$DIMDLE
 40
0.0
  9
$DIMEXE
 40
0.125
  9
$DIMTP
 40
0.01
  9
$DIMTM
 40
0.01
  9
$DIMTXT
 40
2.0
  9
$DIMCEN
 40
0.1052362205
  9
$DIMTSZ
 40
0.0
  9
$DIMTOL
 70
     1
  9
$DIMLIM
 70
     0
  9
$DIMTIH
 70
     1
  9
$DIMTOH
 70
     1
  9
$DIMSE1
 70
     0
  9
$DIMSE2
 70
     0
  9
$DIMTAD
 70
     0
  9
$DIMZIN
 70
     0
  9
$DIMBLK
  1

  9
$DIMASO
 70
     1
  9
$DIMSHO
 70
     1
  9
$DIMPOST
  1
\X
  9
$DIMAPOST
  1

  9
$DIMALT
 70
     1
  9
$DIMALTD
 70
     2
  9
$DIMALTF
 40
25.3999999999999986
  9
$DIMLFAC
 40
1.0
  9
$DIMTOFL
 70
     0
  9
$DIMTVP
 40
0.0
  9
$DIMTIX
 70
     0
  9
$DIMSOXD
 70
     0
  9
$DIMSAH
 70
     0
  9
$DIMBLK1
  1

  9
$DIMBLK2
  1

  9
$DIMSTYLE
  2
STANDARD
  9
$DIMCLRD
 70
     0
  9
$DIMCLRE
 70
     0
  9
$DIMCLRT
 70
     0
  9
$DIMTFAC
 40
1.0
  9
$DIMGAP
 40
0.09
  9
$LUNITS
 70
     2
  9
$LUPREC
 70
     4
  9
$SKETCHINC
 40
0.1
  9
$FILLETRAD
 40
0.0
  9
$AUNITS
 70
     0
  9
$AUPREC
 70
     0
  9
$MENU
  1
.
  9
$ELEVATION
 40
0.0
  9
$PELEVATION
 40
0.0
  9
$THICKNESS
 40
0.0
  9
$LIMCHECK
 70
     0
  9
$BLIPMODE
 70
     0
  9
$CHAMFERA
 40
0.0
  9
$CHAMFERB
 40
0.0
  9
$SKPOLY
 70
     0
  9
$TDCREATE
 40
2458060.468368056230247
  9
$TDUPDATE
 40
2459016.7432175921276212
  9
$TDINDWG
 40
0.4989306713
  9
$TDUSRTIMER
 40
0.4989306713
  9
$USRTIMER
 70
     1
  9
$ANGBASE
 50
0.0
  9
$ANGDIR
 70
     0
  9
$PDMODE
 70
     0
  9
$PDSIZE
 40
0.3125
  9
$PLINEWID
 40
0.0
  9
$COORDS
 70
     1
  9
$SPLFRAME
 70
     0
  9
$SPLINETYPE
 70
     6
  9
$SPLINESEGS
 70
     8
  9
$ATTDIA
 70
     1
  9
$ATTREQ
 70
     1
  9
$HANDLING
 70
     1
  9
$HANDSEED
  5
8BE2
  9
$SURFTAB1
 70
     6
  9
$SURFTAB2
 70
     6
  9
$SURFTYPE
 70
     6
  9
$SURFU
 70
     6
  9
$SURFV
 70
     6
  9
$UCSNAME
  2

  9
$UCSORG
 10
0.0
 20
0.0
 30
0.0
  9
$UCSXDIR
 10
1.0
 20
0.0
 30
0.0
  9
$UCSYDIR
 10
0.0
 20
1.0
 30
0.0
  9
$PUCSNAME
  2

  9
$PUCSORG
 10
0.0
 20
0.0
 30
0.0
  9
$PUCSXDIR
 10
1.0
 20
0.0
 30
0.0
  9
$PUCSYDIR
 10
0.0
 20
1.0
 30
0.0
  9
$USERI1
 70
     0
  9
$USERI2
 70
     0
  9
$USERI3
 70
     0
  9
$USERI4
 70
     0
  9
$USERI5
 70
     0
  9
$USERR1
 40
0.0
  9
$USERR2
 40
0.0
  9
$USERR3
 40
0.0
  9
$USERR4
 40
0.0
  9
$USERR5
 40
0.0
  9
$WORLDVIEW
 70
     1
  9
$SHADEDGE
 70
     3
  9
$SHADEDIF
 70
    70
  9
$TILEMODE
 70
     1
  9
$MAXACTVP
 70
    64
  9
$PLIMCHECK
 70
     0
  9
$PEXTMIN
 10
1.0000000000000000E+20
 20
1.0000000000000000E+20
 30
1.0000000000000000E+20
  9
$PEXTMAX
 10
-1.0000000000000000E+20
 20
-1.0000000000000000E+20
 30
-1.0000000000000000E+20
  9
$PLIMMIN
 10
0.0
 20
0.0
  9
$PLIMMAX
 10
12.0
 20
9.0
  9
$UNITMODE
 70
     0
  9
$VISRETAIN
 70
     1
  9
$PLINEGEN
 70
     0
  9
$PSLTSCALE
 70
     1
  0
ENDSEC
  0
SECTION
  2
TABLES
  0
TABLE
  2
VPORT
 70
     1
  0
VPORT
  2
*ACTIVE
 70
     0
 10
0.0
 20
0.0
 11
1.0
 21
1.0
 12
0.0
 22
2.0884880815692588
 13
0.0
 23
0.0
 14
1.0
 24
1.0
 15
0.0
 25
0.0
 16
0.0
 26
0.0
 36
102.8873257076991052
 17
3535.0150146484379547
 27
197.9689102172850994
 37
0.0
 40
34.0569872546950023
 41
2.3528591352859132
 42
50.0
 43
0.0
 44
0.0
 50
0.0
 51
0.0
 71
     0
 72
   100
 73
     1
 74
     1
 75
     0
 76
     0
 77
     0
 78
     0
  0
ENDTAB
  0
TABLE
  2
LTYPE
 70
     2
  0
LTYPE
  2
CONTINUOUS
 70
     0
  3
Solid line
 72
    65
 73
     0
 40
0.0
  0
LTYPE
  2
PHANTOM2
 70
     0
  3
___ _ _ ___ _ _ ___ _ _ ___ _ _
 72
    65
 73
     6
 40
1.25
 49
0.625
 49
-0.125
 49
0.125
 49
-0.125
 49
0.125
 49
-0.125
  0
ENDTAB
  0
TABLE
  2
LAYER
 70
     2
  0
LAYER
  2
0
 70
     0
 62
   255
  6
CONTINUOUS
  0
LAYER
  2
DEFPOINTS
 70
     0
 62
     7
  6
CONTINUOUS
  0
ENDTAB
  0
TABLE
  2
STYLE
 70
     1
  0
STYLE
  2
STANDARD
 70
     0
 40
0.0
 41
0.8
 50
0.0
 71
     0
 42
0.2
  3
txt
  4

  0
ENDTAB
  0
TABLE
  2
VIEW
 70
     0
  0
ENDTAB
  0
TABLE
  2
UCS
 70
     0
  0
ENDTAB
  0
TABLE
  2
APPID
 70
     9
  0
APPID
  2
ACAD
 70
     0
  0
APPID
  2
ACAD_MLEADERVER
 70
     0
  0
APPID
  2
ACAD_EXEMPT_FROM_CAD_STANDARDS
 70
     0
  0
APPID
  2
ACAD_NAV_VCDISPLAY
 70
     0
  0
APPID
  2
ACAECLAYERSTANDARD
 70
     0
  0
APPID
  2
ACCMTRANSPARENCY
 70
     0
  0
APPID
  2
ACAD_DSTYLE_DIMJAG
 70
     0
  0
APPID
  2
ACAD_DSTYLE_DIMTALN
 70
     0
  0
APPID
  2
ACDBATTR
 70
     0
  0
ENDTAB
  0
TABLE
  2
DIMSTYLE
 70
     1
  0
DIMSTYLE
  2
STANDARD
 70
     0
  3

  4

  5

  6

  7

 40
1.0
 41
0.1875
 42
0.0625
 43
0.38
 44
0.125
 45
0.0
 46
0.0
 47
0.01
 48
0.01
140
0.15625
141
0.09
142
0.0
143
25.3999999999999986
144
1.0
145
0.0
146
1.0
147
0.09
 71
     1
 72
     0
 73
     1
 74
     1
 75
     0
 76
     0
 77
     0
 78
     4
170
     0
171
     2
172
     0
173
     0
174
     0
175
     0
176
     0
177
     0
178
     0
  0
ENDTAB
  0
ENDSEC
  0
SECTION
  2
BLOCKS
  0
BLOCK
  8
0
  2
$MODEL_SPACE
 70
     0
 10
0.0
 20
0.0
 30
0.0
  3
$MODEL_SPACE
  1

  0
ENDBLK
  5
21
  8
0
  0
BLOCK
 67
     1
  8
0
  2
$PAPER_SPACE
 70
     0
 10
0.0
 20
0.0
 30
0.0
  3
$PAPER_SPACE
  1

  0
ENDBLK
  5
1D
 67
     1
  8
0
  0
BLOCK
  8
0
  2
_FILLED
 70
     0
 10
0.0
 20
0.0
 30
0.0
  3
_FILLED
  1

  0
SOLID
  5
6F59
  8
0
  6
BYBLOCK
 62
     0
 10
0.0
 20
0.0
 30
0.0
 11
-1.0
 21
0.1666666667
 31
0.0
 12
-1.0
 22
-0.1666666667
 32
0.0
 13
-1.0
 23
-0.1666666667
 33
0.0
  0
ENDBLK
  5
6F5A
  8
0
  6
BYBLOCK
 62
     0
  0
ENDSEC
  0
SECTION
  2
ENTITIES
  0
ATTDEF
  5
3930
  8
DEFPOINTS
 10
3535.0064690386698203
 20
197.9727635762953923
 30
0.0
 40
0.001
  1
K-2772T-1
  3

  2
MODELNUMBER
 70
     0
1001
ACDBATTR
1070
     0
1070
     1
  0
ATTDEF
  5
3931
  8
DEFPOINTS
 10
3535.0064690386698203
 20
197.9710969096286988
 30
0.0
 40
0.001
  1
KARESS
  3

  2
TRADENAME
 70
     0
1001
ACDBATTR
1070
     0
1070
     1
  0
ATTDEF
  5
3932
  8
DEFPOINTS
 10
3535.0064690386698203
 20
197.9694302429620905
 30
0.0
 40
0.001
  1
BATHROOM SINK
  3

  2
PRODUCT
 70
     0
1001
ACDBATTR
1070
     0
1070
     1
  0
ARC
  5
8AA8
  8
0
 10
3535.2474983106258151
 20
208.1149024650445085
 30
0.0
 40
18.8777941267176104
 50
250.4921463528802974
 51
269.294590556392393
  0
ARC
  5
8AA9
  8
0
 10
3532.3190075649431492
 20
199.6065881625710006
 30
0.0
 40
9.8802955482088315
 50
217.4860396656139017
 51
250.0232915873671971
  0
ARC
  5
8AAA
  8
0
 10
3530.5040805339090184
 20
198.2472342646815093
 30
0.0
 40
7.6129324486001071
 50
181.593015079606289
 51
217.6806438815312106
  0
ARC
  5
8AAB
  8
0
 10
3529.5201958018678852
 20
197.9858190171659942
 30
0.0
 40
6.6262923753558436
 50
133.6060030011774131
 51
179.5695838218875053
  0
ARC
  5
8AAC
  8
0
 10
3533.4282017352788898
 20
194.6649895470492027
 30
0.0
 40
11.7386380676452902
 50
110.0911102646921051
 51
136.2398389046757075
  0
ARC
  5
8AAD
  8
0
 10
3534.9476872163800181
 20
190.9371617378394035
 30
0.0
 40
15.7622634318588197
 50
89.7550044573422099
 51
110.6234999334322993
  0
CIRCLE
  5
8AAE
  8
0
 10
3535.01508704355183
 20
204.868560762997987
 30
0.0
 40
0.688976378
  0
ARC
  5
8AAF
  8
0
 10
3535.0039191615442178
 20
203.3869258902520016
 30
0.0
 40
1.169132339752786
 50
256.2704398111097248
 51
270.5472683378762895
  0
ARC
  5
8AB0
  8
0
 10
3534.7955229658709868
 20
202.5645548480574121
 30
0.0
 40
0.3208806044104253
 50
233.6973275559022056
 51
257.5669942825450107
  0
ARC
  5
8AB1
  8
0
 10
3534.6374322307137845
 20
202.351410246914611
 30
0.0
 40
0.055522738433969
 50
183.553388221541411
 51
234.9491668084891955
  0
ARC
  5
8AB2
  8
0
 10
3534.6451256132331764
 20
202.3410650060523892
 30
0.0
 40
0.0634858961850422
 50
118.9946292151820018
 51
173.7568004958907011
  0
ARC
  5
8AB3
  8
0
 10
3534.8082280100038588
 20
202.0929520906801997
 30
0.0
 40
0.360258469395421
 50
100.543089734177002
 51
122.5582936660230047
  0
ARC
  5
8AB4
  8
0
 10
3534.9850737607439441
 20
201.3721982658578042
 30
0.0
 40
1.1020024643147719
 50
96.2722077267030016
 51
102.7262744839589033
  0
ARC
  5
8AB5
  8
0
 10
3535.0151316854580728
 20
201.0058812788030878
 30
0.0
 40
1.4694456020794759
 50
90.0017768024886351
 51
95.8767175772474758
  0
CIRCLE
  5
8AB6
  8
0
 10
3535.0150861164020171
 20
197.0550406249980142
 30
0.0
 40
0.8858267717
  0
CIRCLE
  5
8AB7
  8
0
 10
3535.0150861164020171
 20
197.0550406249980142
 30
0.0
 40
1.2664597553000001
  0
ARC
  5
8AB8
  8
0
 10
3534.8874905956358816
 20
204.8784469114658862
 30
0.0
 40
15.2617339140565704
 50
246.6774539467872103
 51
270.4790261732420049
  0
ARC
  5
8AB9
  8
0
 10
3532.0086441304838445
 20
198.4467061646633113
 30
0.0
 40
8.2163468375279578
 50
215.1017781528153137
 51
247.3556136476539109
  0
ARC
  5
8ABA
  8
0
 10
3529.1862981594172197
 20
196.3052267458519964
 30
0.0
 40
4.6776605994335538
 50
184.3965660892928895
 51
213.5205358775313016
  0
ARC
  5
8ABB
  8
0
 10
3528.9155527876328051
 20
196.2199466571130984
 30
0.0
 40
4.401643725642109
 50
154.2870823579513058
 51
183.5598878328854937
  0
ARC
  5
8ABC
  8
0
 10
3530.9230571558600786
 20
195.1538554657662132
 30
0.0
 40
6.6735009521187081
 50
125.757818405328905
 51
153.5182587812730901
  0
ARC
  5
8ABD
  8
0
 10
3533.5147847602211186
 20
191.7056765182302058
 30
0.0
 40
10.9865353151276004
 50
109.3546638174072001
 51
126.2177568104529968
  0
ARC
  5
8ABE
  8
0
 10
3534.7640447412568392
 20
188.3598683728361891
 30
0.0
 40
14.5574462365332096
 50
97.3165424095639366
 51
109.6294192794036064
  0
ARC
  5
8ABF
  8
0
 10
3535.0096893044019453
 20
186.8016136286703102
 30
0.0
 40
16.134359614451629
 50
89.9808350276250621
 51
97.4770523917723182
  0
ARC
  5
8AC0
  8
0
 10
3535.0262530712598164
 20
203.3869258902520016
 30
0.0
 40
1.169132339752786
 50
269.4527316621237105
 51
283.7295601888902752
  0
ARC
  5
8AC1
  8
0
 10
3535.2346492669330473
 20
202.5645548480574121
 30
0.0
 40
0.3208806044104253
 50
282.4330057174549893
 51
306.3026724440978228
  0
ARC
  5
8AC2
  8
0
 10
3535.3927400020888854
 20
202.351410246914611
 30
0.0
 40
0.055522738433969
 50
305.050833191510776
 51
356.4466117784584753
  0
ARC
  5
8AC3
  8
0
 10
3535.385046619572222
 20
202.3410650060523892
 30
0.0
 40
0.0634858961850422
 50
6.2431995041093229
 51
61.0053707848179769
  0
ARC
  5
8AC4
  8
0
 10
3535.2219442228010848
 20
202.0929520906801997
 30
0.0
 40
0.360258469395421
 50
57.4417063339770166
 51
79.4569102658229838
  0
ARC
  5
8AC5
  8
0
 10
3535.04509847206009
 20
201.3721982658578042
 30
0.0
 40
1.1020024643147841
 50
77.2737255160410399
 51
83.7277922732969841
  0
ARC
  5
8AC6
  8
0
 10
3535.0150405473459614
 20
201.0058812788030878
 30
0.0
 40
1.4694456020794759
 50
84.1232824227525384
 51
89.9982231975113649
  0
POINT
  5
8AC7
  8
DEFPOINTS
 10
3535.01508704355183
 20
204.868560762997987
 30
0.0
  0
ARC
  5
8AC8
  8
0
 10
3539.526091698898199
 20
198.2472342646815093
 30
0.0
 40
7.6129324486001071
 50
322.3193561184688178
 51
358.4069849203935973
  0
ARC
  5
8AC9
  8
0
 10
3540.509976430937968
 20
197.9858190171659942
 30
0.0
 40
6.6262923753558436
 50
0.4304161781124467
 51
46.3939969988226082
  0
ARC
  5
8ACA
  8
0
 10
3536.6019704975269633
 20
194.6649895470492027
 30
0.0
 40
11.7386380676452902
 50
43.7601610953242925
 51
69.9088897353078238
  0
ARC
  5
8ACB
  8
0
 10
3535.0824850164258351
 20
190.9371617378394035
 30
0.0
 40
15.7622634318588197
 50
69.3765000665676865
 51
90.2449955426577759
  0
ARC
  5
8ACC
  8
0
 10
3535.142681637170881
 20
204.8784469114658862
 30
0.0
 40
15.2617339140565704
 50
269.5209738267579951
 51
293.3225460532128182
  0
ARC
  5
8ACD
  8
0
 10
3538.0215281023229181
 20
198.4467061646633113
 30
0.0
 40
8.2163468375279578
 50
292.6443863523460891
 51
324.8982218471846863
  0
ARC
  5
8ACE
  8
0
 10
3540.8438740733890882
 20
196.3052267458519964
 30
0.0
 40
4.6776605994335538
 50
326.4794641224672773
 51
355.6034339107071105
  0
ARC
  5
8ACF
  8
0
 10
3541.114619445173048
 20
196.2199466571130984
 30
0.0
 40
4.401643725642109
 50
356.4401121671144779
 51
25.7129176420486694
  0
ARC
  5
8AD0
  8
0
 10
3539.1071150769471387
 20
195.1538554657662132
 30
0.0
 40
6.6735009521187081
 50
26.4817412187268602
 51
54.2421815946710311
  0
ARC
  5
8AD1
  8
0
 10
3536.5153874725851892
 20
191.7056765182302058
 30
0.0
 40
10.9865353151276004
 50
53.782243189546989
 51
70.6453361825927857
  0
ARC
  5
8AD2
  8
0
 10
3535.2661274915499234
 20
188.3598683728361891
 30
0.0
 40
14.5574462365332096
 50
70.3705807205963509
 51
82.6834575904360776
  0
ARC
  5
8AD3
  8
0
 10
3535.0204829284039079
 20
186.8016136286703102
 30
0.0
 40
16.134359614451629
 50
82.522947608227696
 51
90.0191649723749237
  0
ARC
  5
8AD4
  8
0
 10
3534.7826739221809476
 20
208.1149024650445085
 30
0.0
 40
18.8777941267176104
 50
270.705409443607607
 51
289.5078536471197026
  0
ARC
  5
8AD5
  8
0
 10
3537.7111646678640682
 20
199.6065881625710006
 30
0.0
 40
9.8802955482088315
 50
289.9767084126327745
 51
322.5139603343861268
  0
ENDSEC
  0
EOF
