  0
SECTION
  2
HEADER
  9
$ACADVER
  1
AC1009
  9
$INSBASE
 10
4120.6328407704950223
 20
155.5433935797171046
 30
0.0
  9
$EXTMIN
 10
4118.4853311149454385
 20
142.0500156555156082
 30
-0.0000000349181948
  9
$EXTMAX
 10
4124.7546173088967407
 20
169.0355931832372107
 30
0.0000000814935746
  9
$LIMMIN
 10
0.0
 20
0.0
  9
$LIMMAX
 10
11.6929133858000007
 20
8.2677165353999982
  9
$ORTHOMODE
 70
     0
  9
$REGENMODE
 70
     1
  9
$FILLMODE
 70
     1
  9
$QTEXTMODE
 70
     0
  9
$MIRRTEXT
 70
     0
  9
$DRAGMODE
 70
     2
  9
$LTSCALE
 40
0.6431102362
  9
$OSMODE
 70
  4095
  9
$ATTMODE
 70
     1
  9
$TEXTSIZE
 40
0.2
  9
$TRACEWID
 40
0.05
  9
$TEXTSTYLE
  7
STANDARD
  9
$CLAYER
  8
0
  9
$CELTYPE
  6
BYLAYER
  9
$CECOLOR
 62
   256
  9
$DIMSCALE
 40
1.0
  9
$DIMASZ
 40
0.1875
  9
$DIMEXO
 40
0.0625
  9
$DIMDLI
 40
0.4443307087
  9
$DIMRND
 40
0.0
  9
$DIMDLE
 40
0.0
  9
$DIMEXE
 40
0.125
  9
$DIMTP
 40
0.01
  9
$DIMTM
 40
0.01
  9
$DIMTXT
 40
2.0
  9
$DIMCEN
 40
0.1052362205
  9
$DIMTSZ
 40
0.0
  9
$DIMTOL
 70
     1
  9
$DIMLIM
 70
     0
  9
$DIMTIH
 70
     1
  9
$DIMTOH
 70
     1
  9
$DIMSE1
 70
     0
  9
$DIMSE2
 70
     0
  9
$DIMTAD
 70
     0
  9
$DIMZIN
 70
     0
  9
$DIMBLK
  1

  9
$DIMASO
 70
     1
  9
$DIMSHO
 70
     1
  9
$DIMPOST
  1
\X
  9
$DIMAPOST
  1

  9
$DIMALT
 70
     1
  9
$DIMALTD
 70
     2
  9
$DIMALTF
 40
25.3999999999999986
  9
$DIMLFAC
 40
1.0
  9
$DIMTOFL
 70
     0
  9
$DIMTVP
 40
0.0
  9
$DIMTIX
 70
     0
  9
$DIMSOXD
 70
     0
  9
$DIMSAH
 70
     0
  9
$DIMBLK1
  1

  9
$DIMBLK2
  1

  9
$DIMSTYLE
  2
STANDARD
  9
$DIMCLRD
 70
     0
  9
$DIMCLRE
 70
     0
  9
$DIMCLRT
 70
     0
  9
$DIMTFAC
 40
1.0
  9
$DIMGAP
 40
0.09
  9
$LUNITS
 70
     2
  9
$LUPREC
 70
     4
  9
$SKETCHINC
 40
0.1
  9
$FILLETRAD
 40
0.0
  9
$AUNITS
 70
     0
  9
$AUPREC
 70
     0
  9
$MENU
  1
.
  9
$ELEVATION
 40
0.0
  9
$PELEVATION
 40
0.0
  9
$THICKNESS
 40
0.0
  9
$LIMCHECK
 70
     0
  9
$BLIPMODE
 70
     0
  9
$CHAMFERA
 40
0.0
  9
$CHAMFERB
 40
0.0
  9
$SKPOLY
 70
     0
  9
$TDCREATE
 40
2458060.468368056230247
  9
$TDUPDATE
 40
2459334.668969907797873
  9
$TDINDWG
 40
0.3796482639
  9
$TDUSRTIMER
 40
0.3796482639
  9
$USRTIMER
 70
     1
  9
$ANGBASE
 50
0.0
  9
$ANGDIR
 70
     0
  9
$PDMODE
 70
     0
  9
$PDSIZE
 40
0.3125
  9
$PLINEWID
 40
0.0
  9
$COORDS
 70
     1
  9
$SPLFRAME
 70
     0
  9
$SPLINETYPE
 70
     6
  9
$SPLINESEGS
 70
     8
  9
$ATTDIA
 70
     1
  9
$ATTREQ
 70
     1
  9
$HANDLING
 70
     1
  9
$HANDSEED
  5
A280
  9
$SURFTAB1
 70
     6
  9
$SURFTAB2
 70
     6
  9
$SURFTYPE
 70
     6
  9
$SURFU
 70
     6
  9
$SURFV
 70
     6
  9
$UCSNAME
  2

  9
$UCSORG
 10
0.0
 20
0.0
 30
0.0
  9
$UCSXDIR
 10
1.0
 20
0.0
 30
0.0
  9
$UCSYDIR
 10
0.0
 20
1.0
 30
0.0
  9
$PUCSNAME
  2

  9
$PUCSORG
 10
0.0
 20
0.0
 30
0.0
  9
$PUCSXDIR
 10
1.0
 20
0.0
 30
0.0
  9
$PUCSYDIR
 10
0.0
 20
1.0
 30
0.0
  9
$USERI1
 70
     0
  9
$USERI2
 70
     0
  9
$USERI3
 70
     0
  9
$USERI4
 70
     0
  9
$USERI5
 70
     0
  9
$USERR1
 40
0.0
  9
$USERR2
 40
0.0
  9
$USERR3
 40
0.0
  9
$USERR4
 40
0.0
  9
$USERR5
 40
0.0
  9
$WORLDVIEW
 70
     1
  9
$SHADEDGE
 70
     3
  9
$SHADEDIF
 70
    70
  9
$TILEMODE
 70
     1
  9
$MAXACTVP
 70
    64
  9
$PLIMCHECK
 70
     0
  9
$PEXTMIN
 10
1.0000000000000000E+20
 20
1.0000000000000000E+20
 30
1.0000000000000000E+20
  9
$PEXTMAX
 10
-1.0000000000000000E+20
 20
-1.0000000000000000E+20
 30
-1.0000000000000000E+20
  9
$PLIMMIN
 10
0.0
 20
0.0
  9
$PLIMMAX
 10
12.0
 20
9.0
  9
$UNITMODE
 70
     0
  9
$VISRETAIN
 70
     1
  9
$PLINEGEN
 70
     0
  9
$PSLTSCALE
 70
     1
  0
ENDSEC
  0
SECTION
  2
TABLES
  0
TABLE
  2
VPORT
 70
     1
  0
VPORT
  2
*ACTIVE
 70
     0
 10
0.0
 20
0.0
 11
1.0
 21
1.0
 12
318.0759068291091012
 22
29.5475422226265501
 13
0.0
 23
0.0
 14
1.0
 24
1.0
 15
0.0
 25
0.0
 16
0.0
 26
0.0
 36
17.1152628219792007
 17
3803.5440673828129547
 27
125.9952621967499056
 37
0.0
 40
27.33303131563218
 41
2.9182795698924719
 42
50.0
 43
0.0
 44
0.0
 50
0.0
 51
0.0
 71
     0
 72
   100
 73
     1
 74
     1
 75
     0
 76
     0
 77
     0
 78
     0
  0
ENDTAB
  0
TABLE
  2
LTYPE
 70
     2
  0
LTYPE
  2
CONTINUOUS
 70
     0
  3
Solid line
 72
    65
 73
     0
 40
0.0
  0
LTYPE
  2
PHANTOM2
 70
     0
  3
___ _ _ ___ _ _ ___ _ _ ___ _ _
 72
    65
 73
     6
 40
1.25
 49
0.625
 49
-0.125
 49
0.125
 49
-0.125
 49
0.125
 49
-0.125
  0
ENDTAB
  0
TABLE
  2
LAYER
 70
     2
  0
LAYER
  2
0
 70
     0
 62
   255
  6
CONTINUOUS
  0
LAYER
  2
DEFPOINTS
 70
     0
 62
     7
  6
CONTINUOUS
  0
ENDTAB
  0
TABLE
  2
STYLE
 70
     1
  0
STYLE
  2
STANDARD
 70
     0
 40
0.0
 41
0.8
 50
0.0
 71
     0
 42
0.2
  3
txt
  4

  0
ENDTAB
  0
TABLE
  2
VIEW
 70
     0
  0
ENDTAB
  0
TABLE
  2
UCS
 70
     0
  0
ENDTAB
  0
TABLE
  2
APPID
 70
     9
  0
APPID
  2
ACAD
 70
     0
  0
APPID
  2
ACAD_MLEADERVER
 70
     0
  0
APPID
  2
ACAD_EXEMPT_FROM_CAD_STANDARDS
 70
     0
  0
APPID
  2
ACAD_NAV_VCDISPLAY
 70
     0
  0
APPID
  2
ACAECLAYERSTANDARD
 70
     0
  0
APPID
  2
ACCMTRANSPARENCY
 70
     0
  0
APPID
  2
ACAD_DSTYLE_DIMJAG
 70
     0
  0
APPID
  2
ACAD_DSTYLE_DIMTALN
 70
     0
  0
APPID
  2
ACDBATTR
 70
     0
  0
ENDTAB
  0
TABLE
  2
DIMSTYLE
 70
     1
  0
DIMSTYLE
  2
STANDARD
 70
     0
  3

  4

  5

  6

  7

 40
1.0
 41
0.1875
 42
0.0625
 43
0.38
 44
0.125
 45
0.0
 46
0.0
 47
0.01
 48
0.01
140
0.15625
141
0.09
142
0.0
143
25.3999999999999986
144
1.0
145
0.0
146
1.0
147
0.09
 71
     1
 72
     0
 73
     1
 74
     1
 75
     0
 76
     0
 77
     0
 78
     4
170
     0
171
     2
172
     0
173
     0
174
     0
175
     0
176
     0
177
     0
178
     0
  0
ENDTAB
  0
ENDSEC
  0
SECTION
  2
BLOCKS
  0
BLOCK
  8
0
  2
$MODEL_SPACE
 70
     0
 10
0.0
 20
0.0
 30
0.0
  3
$MODEL_SPACE
  1

  0
ENDBLK
  5
21
  8
0
  0
BLOCK
 67
     1
  8
0
  2
$PAPER_SPACE
 70
     0
 10
0.0
 20
0.0
 30
0.0
  3
$PAPER_SPACE
  1

  0
ENDBLK
  5
1D
 67
     1
  8
0
  0
ENDSEC
  0
SECTION
  2
ENTITIES
  0
ATTDEF
  5
3930
  8
DEFPOINTS
 10
4120.6289886526683404
 20
155.5479259485796888
 30
0.0
 40
0.001
  1
K-27794T
  3

  2
MODELNUMBER
 70
     0
1001
ACDBATTR
1070
     0
1070
     1
  0
ATTDEF
  5
3931
  8
DEFPOINTS
 10
4120.6289886526683404
 20
155.5462592819131089
 30
0.0
 40
0.001
  1

  3

  2
TRADENAME
 70
     0
1001
ACDBATTR
1070
     0
1070
     1
  0
ATTDEF
  5
3932
  8
DEFPOINTS
 10
4120.6289886526683404
 20
155.5445926152463869
 30
0.0
 40
0.001
  1
SLIDEBAR KIT
  3

  2
PRODUCT
 70
     0
1001
ACDBATTR
1070
     0
1070
     1
  0
LINE
  5
9CCB
  8
0
 10
4120.2588250224453077
 20
142.1590431860171009
 30
0.0
 11
4120.2588250224453077
 21
143.1879287648714865
 31
0.0
  0
LINE
  5
9CCC
  8
0
 10
4120.2588250224453077
 20
142.143343186017006
 30
0.0
 11
4120.2588250224453077
 21
142.1016070735136907
 31
0.0
  0
LINE
  5
9CCD
  8
0
 10
4121.0068565185456464
 20
142.1590431860171009
 30
0.0
 11
4121.0068565185456464
 21
143.1879579715661919
 31
0.0
  0
LINE
  5
9CCE
  8
0
 10
4121.0068565185456464
 20
142.1354211388170938
 30
0.0
 11
4121.0068565185456464
 21
142.1016074750305904
 31
0.0
  0
LINE
  5
9CCF
  8
0
 10
4121.0021648460451615
 20
142.1354211388170938
 30
0.0
 11
4121.0021648460451615
 21
142.143343186017006
 31
0.0
  0
LINE
  5
9CD0
  8
0
 10
4121.0021648460451615
 20
142.1354211388170938
 30
0.0
 11
4121.0068565185456464
 21
142.1354211388170938
 31
0.0
  0
LINE
  5
9CD1
  8
0
 10
4120.2588250224453077
 20
142.1590431860171009
 30
0.0
 11
4121.0068565185456464
 21
142.1590431860171009
 31
0.0
  0
ARC
  5
9CD2
  8
0
 10
4120.274525022445232
 20
142.143343186017006
 30
0.0
 40
0.0157
 50
90.0
 51
180.0
  0
ARC
  5
9CD3
  8
0
 10
4120.9864648460452372
 20
142.143343186017006
 30
0.0
 40
0.0157
 50
0.0000000000032569
 51
90.0
  0
ARC
  5
9CD4
  8
0
 10
4120.6328387527100858
 20
145.6235694524474127
 30
0.0
 40
3.5629514633309181
 50
264.3181192740286747
 51
275.6819463772159224
  0
ARC
  5
9CD5
  8
0
 10
4120.2824250224448406
 20
142.1016070735136907
 30
0.0
 40
0.0236
 50
180.0
 51
264.3181192740286747
  0
LINE
  5
9CD6
  8
0
 10
4120.2801085123737721
 20
142.0781210312171083
 30
0.0
 11
4120.9855689930445806
 21
142.0781210312171083
 31
0.0
  0
ARC
  5
9CD7
  8
0
 10
4120.9832565185442945
 20
142.1016074750305904
 30
0.0
 40
0.0236
 50
275.6819463772158088
 51
0.0
  0
LINE
  5
9CD8
  8
0
 10
4121.0068565185456464
 20
143.1669172017170979
 30
0.0
 11
4121.1269777783445534
 21
143.1669172017170979
 31
0.0
  0
LINE
  5
9CD9
  8
0
 10
4120.2588250224453077
 20
143.1669172017170979
 30
0.0
 11
4120.1387037626445817
 21
143.1669172017170979
 31
0.0
  0
LINE
  5
9CDA
  8
0
 10
4121.1367777783452766
 20
143.1767172017169969
 30
0.0
 11
4121.1367777783452766
 21
144.9760148395170916
 31
0.0
  0
LINE
  5
9CDB
  8
0
 10
4120.1289037626456775
 20
143.1767172017169969
 30
0.0
 11
4120.1289037626456775
 21
144.9760148395170916
 31
0.0
  0
LINE
  5
9CDC
  8
0
 10
4120.1387037626445817
 20
144.9858148395169906
 30
0.0
 11
4120.1997699043449757
 21
144.9858148395169906
 31
0.0
  0
ARC
  5
9CDD
  8
0
 10
4120.6319577547310473
 20
150.7449124462048928
 30
0.0
 40
7.5682273507739923
 50
266.9590327907308733
 51
267.1740276348809857
  0
ARC
  5
9CDE
  8
0
 10
4120.6319577547310473
 20
150.7449124462048928
 30
0.0
 40
7.5682273507739923
 50
272.8393585831797168
 51
273.0479969878388147
  0
ARC
  5
9CDF
  8
0
 10
4120.6335750775951965
 20
124.381130634667997
 30
0.0
 40
18.8105314521961589
 50
88.7790814043342351
 51
91.2279483742221657
  0
ARC
  5
9CE0
  8
0
 10
4120.1387037626445817
 20
143.1767172017169969
 30
0.0
 40
0.0098
 50
179.9999999999967031
 51
270.0
  0
ARC
  5
9CE1
  8
0
 10
4121.1269777783445534
 20
143.1767172017169969
 30
0.0
 40
0.0098
 50
270.0
 51
0.0
  0
ARC
  5
9CE2
  8
0
 10
4120.1387037626445817
 20
144.9760148395170916
 30
0.0
 40
0.0098
 50
90.0
 51
179.9999999999967031
  0
LINE
  5
9CE3
  8
0
 10
4120.2588250224453077
 20
144.9637537732612032
 30
0.0
 11
4120.2588250224453077
 21
154.758283223711004
 31
0.0
  0
LINE
  5
9CE4
  8
0
 10
4120.2588250224453077
 20
156.3314566916237993
 30
0.0
 11
4120.2588250224453077
 21
166.1259861420730033
 31
0.0
  0
LINE
  5
9CE5
  8
0
 10
4121.0068565185456464
 20
144.9637537732612032
 30
0.0
 11
4121.0068565185456464
 21
154.7582482121931946
 31
0.0
  0
LINE
  5
9CE6
  8
0
 10
4121.0068565185456464
 20
156.3314917031416087
 30
0.0
 11
4121.0068565185456464
 21
161.0766903728720081
 31
0.0
  0
LINE
  5
9CE7
  8
0
 10
4121.0068565185456464
 20
163.2813602504070047
 30
0.0
 11
4121.0068565185456464
 21
166.1259861420730033
 31
0.0
  0
ARC
  5
9CE8
  8
0
 10
4120.2205561309674522
 20
142.6034172622167091
 30
0.0
 40
2.3618561008314818
 50
89.7401184920180128
 51
90.0744670265471541
  0
ARC
  5
9CE9
  8
0
 10
4120.2311724257597234
 20
144.9439636097669108
 30
0.0
 40
0.0212856766089355
 50
75.8767522481459764
 51
89.7401184920180128
  0
ARC
  5
9CEA
  8
0
 10
4120.2826228710118812
 20
145.8873742345629125
 30
0.0
 40
0.9239269961050126
 50
267.1302775715337248
 51
268.7568953693718754
  0
ARC
  5
9CEB
  8
0
 10
4120.6331581745007497
 20
171.6637619661364909
 30
0.0
 40
26.7026688510262993
 50
269.2048239439113786
 51
270.7911920727012784
  0
LINE
  5
9CEC
  8
0
 10
4120.2174864397447891
 20
144.9652713682170884
 30
0.0
 11
4120.1997699043449757
 21
144.9858148395169906
 31
0.0
  0
LINE
  5
9CED
  8
0
 10
4120.2194549437463138
 20
144.9759723199171049
 30
0.0
 11
4120.2194549437463138
 21
144.9652731063405042
 31
0.0
  0
LINE
  5
9CEE
  8
0
 10
4120.2194549437463138
 20
144.9759723199171049
 30
0.0
 11
4120.2588250224453077
 21
144.9759723199171049
 31
0.0
  0
LINE
  5
9CEF
  8
0
 10
4121.0068565185456464
 20
144.9759723199171049
 30
0.0
 11
4121.0462265972455498
 21
144.9759723199171049
 31
0.0
  0
LINE
  5
9CF0
  8
0
 10
4120.2037069122452522
 20
144.9917203514170865
 30
0.0
 11
4120.2194549437463138
 21
144.9759723199171049
 31
0.0
  0
LINE
  5
9CF1
  8
0
 10
4120.2037069122452522
 20
144.9917203514170865
 30
0.0
 11
4120.2588250224453077
 21
144.9917203514170865
 31
0.0
  0
LINE
  5
9CF2
  8
0
 10
4121.0068565185456464
 20
144.9917203514170865
 30
0.0
 11
4121.0619746287447924
 21
144.9917203514170865
 31
0.0
  0
LINE
  5
9CF3
  8
0
 10
4120.2037069122452522
 20
144.9812496236339996
 30
0.0
 11
4120.2037069122452522
 21
144.9917203514170865
 31
0.0
  0
LINE
  5
9CF4
  8
0
 10
4121.1269777783445534
 20
144.9858148395169906
 30
0.0
 11
4121.0659116366450689
 21
144.9858148395169906
 31
0.0
  0
ARC
  5
9CF5
  8
0
 10
4121.1269777783445534
 20
144.9760148395170916
 30
0.0
 40
0.0098
 50
0.0
 51
90.0
  0
ARC
  5
9CF6
  8
0
 10
4121.0451254100225924
 20
142.6034172622167091
 30
0.0
 40
2.3618561008314818
 50
89.9255329734528459
 51
90.259881507981973
  0
ARC
  5
9CF7
  8
0
 10
4121.0345091152303212
 20
144.9439636097669108
 30
0.0
 40
0.0212856766089355
 50
90.259881507981973
 51
104.1232477518539952
  0
ARC
  5
9CF8
  8
0
 10
4120.9830586699781634
 20
145.8873742345629125
 30
0.0
 40
0.9239269961050126
 50
271.1673232427834819
 51
272.8697224284662752
  0
LINE
  5
9CF9
  8
0
 10
4121.0481951012452555
 20
144.9652713682170884
 30
0.0
 11
4121.0659116366450689
 21
144.9858148395169906
 31
0.0
  0
LINE
  5
9CFA
  8
0
 10
4121.0462265972455498
 20
144.9759723199171049
 30
0.0
 11
4121.0462265972455498
 21
144.9652731063405042
 31
0.0
  0
LINE
  5
9CFB
  8
0
 10
4121.0619746287447924
 20
144.9917203514170865
 30
0.0
 11
4121.0462265972455498
 21
144.9759723199171049
 31
0.0
  0
LINE
  5
9CFC
  8
0
 10
4121.0619746287447924
 20
144.9812496236339996
 30
0.0
 11
4121.0619746287447924
 21
144.9917203514170865
 31
0.0
  0
ARC
  5
9CFD
  8
0
 10
4120.5915027036808169
 20
116.6532155214403019
 30
0.0
 40
26.5392227591322403
 50
89.9107548197305988
 51
90.8252852206531429
  0
ARC
  5
9CFE
  8
0
 10
4120.1197518802573541
 20
144.649047039340104
 30
0.0
 40
1.4621033322390129
 50
271.5244707463335772
 51
273.5092372646964236
  0
LINE
  5
9CFF
  8
0
 10
4120.1485888051029178
 20
143.1972577444109049
 30
0.0
 11
4120.1485888051029178
 21
144.9553280118022087
 31
0.0
  0
LINE
  5
9D00
  8
0
 10
4121.1170927262537589
 20
143.1972577446672972
 30
0.0
 11
4121.1170927262537589
 21
144.9553280111051947
 31
0.0
  0
ARC
  5
9D01
  8
0
 10
4120.1583888051018221
 20
143.1972577444109049
 30
0.0
 40
0.0098
 50
179.9999999999967031
 51
271.5244707463335772
  0
ARC
  5
9D02
  8
0
 10
4120.6741788373092277
 20
116.6532155214403019
 30
0.0
 40
26.5392227591322403
 50
89.1747147793468429
 51
90.089245180269387
  0
ARC
  5
9D03
  8
0
 10
4121.1459296607326905
 20
144.649047039340104
 30
0.0
 40
1.4621033322390129
 50
266.4907627353035764
 51
268.4755292536664228
  0
ARC
  5
9D04
  8
0
 10
4121.1072927262530357
 20
143.1972577446672972
 30
0.0
 40
0.0098
 50
268.4755288734399983
 51
0.0
  0
ARC
  5
9D05
  8
0
 10
4120.6251436009561075
 20
176.7936558096801889
 30
0.0
 40
31.8333307849085791
 50
269.2525743658948159
 51
270.013853885927972
  0
ARC
  5
9D06
  8
0
 10
4120.2173109566238054
 20
145.7697871833522925
 30
0.0
 40
0.8067877552731431
 50
265.8621384916563102
 51
269.4728609107758075
  0
ARC
  5
9D07
  8
0
 10
4120.6405379400330276
 20
176.7936558096801889
 30
0.0
 40
31.8333307849085791
 50
269.986146114072028
 51
270.7474256341051841
  0
ARC
  5
9D08
  8
0
 10
4121.0483705843671487
 20
145.7697871833522925
 30
0.0
 40
0.8067877552731431
 50
270.5271390892241925
 51
274.137860830577381
  0
ARC
  5
9D09
  8
0
 10
4120.1583888051018221
 20
144.9553280118022087
 30
0.0
 40
0.0098
 50
85.8621384916563102
 51
179.9999999999967031
  0
ARC
  5
9D0A
  8
0
 10
4121.1072927262530357
 20
144.9553280111051947
 30
0.0
 40
0.0098
 50
359.9999999999968168
 51
94.1378608305773952
  0
LINE
  5
9D0B
  8
0
 10
4120.5629571743447741
 20
144.8440825561170016
 30
0.0
 11
4120.7012251179448867
 21
144.8440825561170016
 31
0.0
  0
LINE
  5
9D0C
  8
0
 10
4120.7012251179448867
 20
144.8440825561170016
 30
0.0
 11
4120.7012251179448867
 21
144.5684920049170898
 31
0.0
  0
LINE
  5
9D0D
  8
0
 10
4120.7012251179448867
 20
144.5684920049170898
 30
0.0
 11
4120.5629571743447741
 21
144.5684920049170898
 31
0.0
  0
LINE
  5
9D0E
  8
0
 10
4120.5629571743447741
 20
144.5684920049170898
 30
0.0
 11
4120.5629571743447741
 21
144.8440825561170016
 31
0.0
  0
LINE
  5
9D0F
  8
0
 10
4120.5629571743447741
 20
143.5842400364170999
 30
0.0
 11
4120.7012381958447804
 21
143.5842400364170999
 31
0.0
  0
LINE
  5
9D10
  8
0
 10
4120.7012381958447804
 20
143.5842400364170999
 30
0.0
 11
4120.7012381958447804
 21
143.3086494852171029
 31
0.0
  0
LINE
  5
9D11
  8
0
 10
4120.7012381958447804
 20
143.3086494852171029
 30
0.0
 11
4120.5629571743447741
 21
143.3086494852171029
 31
0.0
  0
LINE
  5
9D12
  8
0
 10
4120.5629571743447741
 20
143.3086494852171029
 30
0.0
 11
4120.5629571743447741
 21
143.5842400364170999
 31
0.0
  0
LINE
  5
9D13
  8
0
 10
4120.2588250224453077
 20
168.9306967293171056
 30
0.0
 11
4120.2588250224453077
 21
167.9018111504626916
 31
0.0
  0
LINE
  5
9D14
  8
0
 10
4120.2588250224453077
 20
168.9543187766171002
 30
0.0
 11
4120.2588250224453077
 21
168.9881328418204873
 31
0.0
  0
LINE
  5
9D15
  8
0
 10
4121.0068565185456464
 20
168.9306967293171056
 30
0.0
 11
4121.0068565185456464
 21
167.9017819437679009
 31
0.0
  0
LINE
  5
9D16
  8
0
 10
4121.0068565185456464
 20
168.9463967293170867
 30
0.0
 11
4121.0068565185456464
 21
168.9881324403035023
 31
0.0
  0
ARC
  5
9D17
  8
0
 10
4120.9911565185439031
 20
168.9463967293170867
 30
0.0
 40
0.0157
 50
270.0
 51
0.0
  0
LINE
  5
9D18
  8
0
 10
4120.2588250224453077
 20
168.9306967293171056
 30
0.0
 11
4121.0068565185456464
 21
168.9306967293171056
 31
0.0
  0
ARC
  5
9D19
  8
0
 10
4120.2792166949448074
 20
168.9463967293170867
 30
0.0
 40
0.0157
 50
180.0
 51
270.0
  0
ARC
  5
9D1A
  8
0
 10
4120.6328387527100858
 20
165.4661704628867085
 30
0.0
 40
3.5629514633309181
 50
84.318053622784106
 51
95.6818807259713253
  0
ARC
  5
9D1B
  8
0
 10
4120.2824250224448406
 20
168.9881328418204873
 30
0.0
 40
0.0236
 50
95.6818807259713253
 51
180.0
  0
LINE
  5
9D1C
  8
0
 10
4120.2801085123737721
 20
169.0116188841170981
 30
0.0
 11
4120.9855689930445806
 21
169.0116188841170981
 31
0.0
  0
ARC
  5
9D1D
  8
0
 10
4120.9832565185442945
 20
168.9881324403035023
 30
0.0
 40
0.0236
 50
0.0
 51
84.3180536227841912
  0
LINE
  5
9D1E
  8
0
 10
4121.0068565185456464
 20
167.9228227136171085
 30
0.0
 11
4121.1269777783445534
 21
167.9228227136171085
 31
0.0
  0
LINE
  5
9D1F
  8
0
 10
4120.2588250224453077
 20
167.9228227136171085
 30
0.0
 11
4120.1387037626445817
 21
167.9228227136171085
 31
0.0
  0
LINE
  5
9D20
  8
0
 10
4121.1367777783452766
 20
167.9130227136170959
 30
0.0
 11
4121.1367777783452766
 21
166.1137250758170865
 31
0.0
  0
LINE
  5
9D21
  8
0
 10
4120.1289037626456775
 20
167.9130227136170959
 30
0.0
 11
4120.1289037626456775
 21
166.1137250758170865
 31
0.0
  0
LINE
  5
9D22
  8
0
 10
4120.1387037626445817
 20
166.1039250758171022
 30
0.0
 11
4120.1997699043449757
 21
166.1039250758171022
 31
0.0
  0
ARC
  5
9D23
  8
0
 10
4120.6319577547310473
 20
160.3448274691293136
 30
0.0
 40
7.5682273507739923
 50
92.825972365118929
 51
93.0409672092691267
  0
ARC
  5
9D24
  8
0
 10
4120.6319577547310473
 20
160.3448274691293136
 30
0.0
 40
7.5682273507739923
 50
86.9520030121611569
 51
87.1606414168202832
  0
ARC
  5
9D25
  8
0
 10
4120.6335750775951965
 20
186.7086092806661952
 30
0.0
 40
18.8105314521961589
 50
268.7720516257778058
 51
271.2209185956656938
  0
ARC
  5
9D26
  8
0
 10
4120.1387037626445817
 20
167.9130227136170959
 30
0.0
 40
0.0098
 50
90.0
 51
180.0
  0
ARC
  5
9D27
  8
0
 10
4121.1269777783445534
 20
167.9130227136170959
 30
0.0
 40
0.0098
 50
359.9999999999968168
 51
90.0
  0
ARC
  5
9D28
  8
0
 10
4120.1387037626445817
 20
166.1137250758170865
 30
0.0
 40
0.0098
 50
180.0
 51
270.0
  0
ARC
  5
9D29
  8
0
 10
4120.2205561309674522
 20
168.4863226531174121
 30
0.0
 40
2.3618561008314818
 50
269.9255329734527891
 51
270.2598815079820156
  0
ARC
  5
9D2A
  8
0
 10
4120.2311724257597234
 20
166.1457763055672956
 30
0.0
 40
0.0212856766089355
 50
270.2598815079820156
 51
284.1232477518540236
  0
ARC
  5
9D2B
  8
0
 10
4120.2826228710118812
 20
165.2023656807712939
 30
0.0
 40
0.9239269961050126
 50
91.2431046306281246
 51
92.8697224284663463
  0
ARC
  5
9D2C
  8
0
 10
4120.6331581745007497
 20
139.4259779491976872
 30
0.0
 40
26.7026688510262993
 50
89.2088079272987358
 51
90.7951760560885788
  0
LINE
  5
9D2D
  8
0
 10
4120.2174864397447891
 20
166.1244685471170897
 30
0.0
 11
4120.1997699043449757
 21
166.1039250758171022
 31
0.0
  0
LINE
  5
9D2E
  8
0
 10
4120.2194549437463138
 20
166.1137675954171016
 30
0.0
 11
4120.2194549437463138
 21
166.1244668089937022
 31
0.0
  0
LINE
  5
9D2F
  8
0
 10
4120.2194549437463138
 20
166.1137675954171016
 30
0.0
 11
4120.2588250224453077
 21
166.1137675954171016
 31
0.0
  0
LINE
  5
9D30
  8
0
 10
4121.0068565185456464
 20
166.1137675954171016
 30
0.0
 11
4121.0462265972455498
 21
166.1137675954171016
 31
0.0
  0
LINE
  5
9D31
  8
0
 10
4120.2037069122452522
 20
166.0980195639170915
 30
0.0
 11
4120.2194549437463138
 21
166.1137675954171016
 31
0.0
  0
LINE
  5
9D32
  8
0
 10
4120.2037069122452522
 20
166.0980195639170915
 30
0.0
 11
4120.2588250224453077
 21
166.0980195639170915
 31
0.0
  0
LINE
  5
9D33
  8
0
 10
4121.0068565185456464
 20
166.0980195639170915
 30
0.0
 11
4121.0619746287447924
 21
166.0980195639170915
 31
0.0
  0
LINE
  5
9D34
  8
0
 10
4120.2037069122452522
 20
166.1084902917002069
 30
0.0
 11
4120.2037069122452522
 21
166.0980195639170915
 31
0.0
  0
LINE
  5
9D35
  8
0
 10
4121.1269777783445534
 20
166.1039250758171022
 30
0.0
 11
4121.0659116366450689
 21
166.1039250758171022
 31
0.0
  0
ARC
  5
9D36
  8
0
 10
4121.1269777783445534
 20
166.1137250758170865
 30
0.0
 40
0.0098
 50
270.0
 51
0.0
  0
ARC
  5
9D37
  8
0
 10
4121.0451254100225924
 20
168.4863226531174121
 30
0.0
 40
2.3618561008314818
 50
269.7401184920179844
 51
270.0744670265470972
  0
ARC
  5
9D38
  8
0
 10
4121.0345091152303212
 20
166.1457763055672956
 30
0.0
 40
0.0212856766089355
 50
255.8767522481458059
 51
269.7401184920179844
  0
ARC
  5
9D39
  8
0
 10
4120.9830586699781634
 20
165.2023656807712939
 30
0.0
 40
0.9239269961050126
 50
87.1302775715336537
 51
88.8326767572165181
  0
LINE
  5
9D3A
  8
0
 10
4121.0481951012452555
 20
166.1244685471170897
 30
0.0
 11
4121.0659116366450689
 21
166.1039250758171022
 31
0.0
  0
LINE
  5
9D3B
  8
0
 10
4121.0462265972455498
 20
166.1137675954171016
 30
0.0
 11
4121.0462265972455498
 21
166.1244668089937022
 31
0.0
  0
LINE
  5
9D3C
  8
0
 10
4121.0619746287447924
 20
166.0980195639170915
 30
0.0
 11
4121.0462265972455498
 21
166.1137675954171016
 31
0.0
  0
LINE
  5
9D3D
  8
0
 10
4121.0619746287447924
 20
166.1084902917002069
 30
0.0
 11
4121.0619746287447924
 21
166.0980195639170915
 31
0.0
  0
ARC
  5
9D3E
  8
0
 10
4120.5915027036808169
 20
194.4365243938937908
 30
0.0
 40
26.5392227591322403
 50
269.1747147793468002
 51
270.0892451802694154
  0
ARC
  5
9D3F
  8
0
 10
4120.1197518802573541
 20
166.4406928759941025
 30
0.0
 40
1.4621033322390129
 50
86.4907627353035622
 51
88.4755292536664228
  0
LINE
  5
9D40
  8
0
 10
4120.1485888051029178
 20
167.8924821709231878
 30
0.0
 11
4120.1485888051029178
 21
166.1344119035319977
 31
0.0
  0
LINE
  5
9D41
  8
0
 10
4121.1170927262537589
 20
167.8924821706667956
 30
0.0
 11
4121.1170927262537589
 21
166.1344119042290117
 31
0.0
  0
ARC
  5
9D42
  8
0
 10
4120.1583888051018221
 20
167.8924821709231878
 30
0.0
 40
0.0098
 50
88.4755292536664228
 51
180.0
  0
ARC
  5
9D43
  8
0
 10
4120.6741788373092277
 20
194.4365243938937908
 30
0.0
 40
26.5392227591322403
 50
269.9107548197305846
 51
270.8252852206530861
  0
ARC
  5
9D44
  8
0
 10
4121.1459296607326905
 20
166.4406928759941025
 30
0.0
 40
1.4621033322390129
 50
91.5244707463335914
 51
93.5092372646964236
  0
ARC
  5
9D45
  8
0
 10
4121.1072927262530357
 20
167.8924821706667956
 30
0.0
 40
0.0098
 50
0.0
 51
91.5244711265600159
  0
ARC
  5
9D46
  8
0
 10
4120.6251436009561075
 20
134.2960841056539891
 30
0.0
 40
31.8333307849085791
 50
89.9861461140719854
 51
90.7474256341052268
  0
ARC
  5
9D47
  8
0
 10
4120.2173109566238054
 20
165.3199527319818003
 30
0.0
 40
0.8067877552731431
 50
90.5271390892241783
 51
94.1378615083436756
  0
ARC
  5
9D48
  8
0
 10
4120.6405379400330276
 20
134.2960841056539891
 30
0.0
 40
31.8333307849085791
 50
89.2525743658947732
 51
90.0138538859280146
  0
ARC
  5
9D49
  8
0
 10
4121.0483705843671487
 20
165.3199527319818003
 30
0.0
 40
0.8067877552731431
 50
85.8621391694226475
 51
89.4728609107758075
  0
ARC
  5
9D4A
  8
0
 10
4120.1583888051018221
 20
166.1344119035319977
 30
0.0
 40
0.0098
 50
180.0
 51
274.1378615083436898
  0
ARC
  5
9D4B
  8
0
 10
4121.1072927262530357
 20
166.1344119042290117
 30
0.0
 40
0.0098
 50
265.862139169422619
 51
0.0000000000032569
  0
LINE
  5
9D4C
  8
0
 10
4120.5629571743447741
 20
166.2456573592170912
 30
0.0
 11
4120.7012251179448867
 21
166.2456573592170912
 31
0.0
  0
LINE
  5
9D4D
  8
0
 10
4120.7012251179448867
 20
166.2456573592170912
 30
0.0
 11
4120.7012251179448867
 21
166.5212479104170882
 31
0.0
  0
LINE
  5
9D4E
  8
0
 10
4120.7012251179448867
 20
166.5212479104170882
 30
0.0
 11
4120.5629571743447741
 21
166.5212479104170882
 31
0.0
  0
LINE
  5
9D4F
  8
0
 10
4120.5629571743447741
 20
166.5212479104170882
 30
0.0
 11
4120.5629571743447741
 21
166.2456573592170912
 31
0.0
  0
LINE
  5
9D50
  8
0
 10
4120.5629571743447741
 20
167.5054998789171066
 30
0.0
 11
4120.7012381958447804
 21
167.5054998789171066
 31
0.0
  0
LINE
  5
9D51
  8
0
 10
4120.7012381958447804
 20
167.5054998789171066
 30
0.0
 11
4120.7012381958447804
 21
167.7810904301171036
 31
0.0
  0
LINE
  5
9D52
  8
0
 10
4120.7012381958447804
 20
167.7810904301171036
 30
0.0
 11
4120.5629571743447741
 21
167.7810904301171036
 31
0.0
  0
LINE
  5
9D53
  8
0
 10
4120.5629571743447741
 20
167.7810904301171036
 30
0.0
 11
4120.5629571743447741
 21
167.5054998789171066
 31
0.0
  0
LINE
  5
9D54
  8
0
 10
4119.8297419249165614
 20
156.3528787150559936
 30
0.0
 11
4120.1694729938208184
 21
156.3510998711022921
 31
0.0
  0
LINE
  5
9D55
  8
0
 10
4121.0957329753846352
 20
156.3462499409116049
 30
0.0
 11
4121.3770080667181901
 21
156.3447771745344141
 31
0.0
  0
LINE
  5
9D56
  8
0
 10
4119.8297419249156519
 20
154.7368612002780139
 30
0.0
 11
4120.169472995608885
 21
154.7386400442057095
 31
0.0
  0
LINE
  5
9D57
  8
0
 10
4121.0957329482607747
 20
154.74348997414819
 30
0.0
 11
4121.3770080667163711
 21
154.7449627406379875
 31
0.0
  0
LINE
  5
9D58
  8
0
 10
4121.3887462823440728
 20
154.7567625788865087
 30
0.0
 11
4121.3887462823440728
 21
156.332977336285893
 31
0.0
  0
LINE
  5
9D59
  8
0
 10
4121.4025258098454287
 20
154.7534339176829974
 30
0.0
 11
4121.4025258098454287
 21
156.3363059976518059
 31
0.0
  0
LINE
  5
9D5A
  8
0
 10
4119.8178801405447302
 20
156.3410788768075008
 30
0.0
 11
4119.8178801405447302
 21
154.7486610385265919
 31
0.0
  0
LINE
  5
9D5B
  8
0
 10
4119.8060691169448546
 20
154.7488053387434093
 30
0.0
 11
4119.8060691169448546
 21
156.3409345766908132
 31
0.0
  0
ARC
  5
9D5C
  8
0
 10
4119.8296801405440419
 20
156.3410788768075008
 30
0.0
 40
0.0118
 50
89.7000000032705032
 51
180.0000000000163141
  0
ARC
  5
9D5D
  8
0
 10
4119.8296801405440419
 20
154.7486610385265919
 30
0.0
 40
0.0118
 50
179.9999999999901945
 51
270.2999999907368078
  0
ARC
  5
9D5E
  8
0
 10
4121.3769462823447611
 20
154.7567625788865087
 30
0.0
 40
0.0118
 50
270.2999999907368078
 51
0.0
  0
ARC
  5
9D5F
  8
0
 10
4121.3769462823447611
 20
156.332977336285893
 30
0.0
 40
0.0118
 50
0.0000000000097707
 51
89.7000000032705032
  0
LINE
  5
9D60
  8
0
 10
4121.4104671739587502
 20
156.3442058893606088
 30
0.0
 11
4122.0981460669727312
 21
156.3406051781483086
 31
0.0
  0
LINE
  5
9D61
  8
0
 10
4121.4104671739587502
 20
154.7455340259743082
 30
0.0
 11
4122.202881536744826
 21
154.7496831358170937
 31
0.0
  0
ARC
  5
9D62
  8
0
 10
4121.4104258098450373
 20
154.7534339176829974
 30
0.0
 40
0.0079
 50
180.0000000000129887
 51
270.3000000018103037
  0
ARC
  5
9D63
  8
0
 10
4121.4104258098450373
 20
156.3363059976518059
 30
0.0
 40
0.0079
 50
89.6999999964179153
 51
180.0000000000129887
  0
LINE
  5
9D64
  8
0
 10
4119.794207332572114
 20
156.3527344149393059
 30
0.0
 11
4118.7448525644813344
 21
156.3472399559998962
 31
0.0
  0
ARC
  5
9D65
  8
0
 10
4119.7942691169464524
 20
156.3409345766908132
 30
0.0
 40
0.0118
 50
0.0
 51
90.3000000005857117
  0
LINE
  5
9D66
  8
0
 10
4119.7942073325730235
 20
154.7370055004948028
 30
0.0
 11
4118.7448525643858375
 21
154.7424999593347934
 31
0.0
  0
ARC
  5
9D67
  8
0
 10
4119.7942691169464524
 20
154.7488053387434093
 30
0.0
 40
0.0118
 50
269.7000000048860215
 51
0.0
  0
ARC
  5
9D68
  8
0
 10
4126.9650381264773387
 20
155.5448699571109898
 30
0.0
 40
8.3125123165310058
 50
174.8331607417649138
 51
185.166839250483406
  0
ARC
  5
9D69
  8
0
 10
4118.7451620099436695
 20
156.2881407661280093
 30
0.0
 40
0.0591
 50
90.3000000005857117
 51
174.8331607417649138
  0
ARC
  5
9D6A
  8
0
 10
4118.7451620098427156
 20
154.801599149206595
 30
0.0
 40
0.0591
 50
185.166839250483406
 51
269.7000000048860215
  0
LINE
  5
9D6B
  8
0
 10
4118.6863058516446472
 20
154.7962360678075129
 30
0.0
 11
4118.6863058516446472
 21
156.2935038464231923
 31
0.0
  0
LINE
  5
9D6C
  8
0
 10
4119.8060691169448546
 20
155.1905392490170073
 30
0.0
 11
4119.8178801405447302
 21
155.1905392490170073
 31
0.0
  0
LINE
  5
9D6D
  8
0
 10
4119.8060691169448546
 20
155.8992006663171139
 30
0.0
 11
4119.8178801405447302
 21
155.8992006663171139
 31
0.0
  0
LINE
  5
9D6E
  8
0
 10
4119.8060691169448546
 20
155.3159178074170939
 30
0.0
 11
4119.8178801405447302
 21
155.3159178074170939
 31
0.0
  0
LINE
  5
9D6F
  8
0
 10
4119.8060691169448546
 20
155.7738221079171126
 30
0.0
 11
4119.8178801405447302
 21
155.7738221079171126
 31
0.0
  0
LINE
  5
9D70
  8
0
 10
4119.8060691169448546
 20
155.5015628710170006
 30
0.0
 11
4119.8178801405447302
 21
155.5015628710170006
 31
0.0
  0
LINE
  5
9D71
  8
0
 10
4119.8060691169448546
 20
155.5881770443170922
 30
0.0
 11
4119.8178801405447302
 21
155.5881770443170922
 31
0.0
  0
LINE
  5
9D72
  8
0
 10
4118.7750999318650429
 20
155.4716722917777076
 30
0.0
 11
4119.7942073325712045
 21
155.4663362090948056
 31
0.0
  0
LINE
  5
9D73
  8
0
 10
4118.7750999318650429
 20
155.6180676235568967
 30
0.0
 11
4119.7942073325712045
 21
155.6234037062392872
 31
0.0
  0
ARC
  5
9D74
  8
0
 10
4118.7709377240071262
 20
155.5448699576674016
 30
0.0
 40
0.0733159073184684
 50
86.7455189781884428
 51
273.2544810219421265
  0
ARC
  5
9D75
  8
0
 10
4119.7942691169464524
 20
155.478136047343412
 30
0.0
 40
0.0118
 50
269.699999997355917
 51
0.0
  0
ARC
  5
9D76
  8
0
 10
4119.7942691169464524
 20
155.6116038679907945
 30
0.0
 40
0.0118
 50
359.9999999999902229
 51
90.3000000026180345
  0
ARC
  5
9D77
  8
0
 10
4120.8732772566190761
 20
153.5971366990347917
 30
0.0
 40
1.3377298196369081
 50
112.2163014718250054
 51
121.1243241616706001
  0
ARC
  5
9D78
  8
0
 10
4120.6735275655601072
 20
154.086210570531307
 30
0.0
 40
0.8094371063999425
 50
100.1675346615517981
 51
112.2163014718250054
  0
ARC
  5
9D79
  8
0
 10
4120.6332290676609773
 20
154.3109106609456092
 30
0.0
 40
0.5811519786210031
 50
90.0256970449691352
 51
100.1675346615517981
  0
ARC
  5
9D7A
  8
0
 10
4120.6332709798125506
 20
154.2174606441712115
 30
0.0
 40
0.6746020047941264
 50
70.2259434626596715
 51
90.0256970449691352
  0
ARC
  5
9D7B
  8
0
 10
4120.4339080094268866
 20
153.6629209768645978
 30
0.0
 40
1.2638895717575021
 50
60.4851143469918924
 51
70.2259434626596715
  0
ARC
  5
9D7C
  8
0
 10
4118.3052174417171045
 20
149.902752852145511
 30
0.0
 40
5.5847908503351551
 50
60.1208733594476428
 51
60.4851143469918924
  0
ARC
  5
9D7D
  8
0
 10
4121.0955292718936107
 20
154.7635995834399978
 30
0.0
 40
0.0201106407140097
 50
246.167391678239909
 51
270.5802896015139254
  0
ARC
  5
9D7E
  8
0
 10
4120.169796592746934
 20
154.7601821515860081
 30
0.0
 40
0.0215445377182842
 50
269.1393898679422136
 51
303.8873175987121158
  0
ARC
  5
9D7F
  8
0
 10
4120.7743815705289308
 20
153.7290796272465911
 30
0.0
 40
1.1511118960587721
 50
108.8262426709054012
 51
117.5460986195005972
  0
ARC
  5
9D80
  8
0
 10
4120.2335728561038195
 20
154.7659258632170918
 30
0.0
 40
0.0183
 50
270.0
 51
297.546098619500583
  0
ARC
  5
9D81
  8
0
 10
4120.6465387146054127
 20
154.1040524954937041
 30
0.0
 40
0.7549446993698085
 50
98.8139608640202738
 51
108.8262426709054012
  0
ARC
  5
9D82
  8
0
 10
4120.6358522480250031
 20
154.1729717893649081
 30
0.0
 40
0.685201817039899
 50
90.2518170572429739
 51
98.8139608640202738
  0
ARC
  5
9D83
  8
0
 10
4120.6356478166107991
 20
154.2194856432853101
 30
0.0
 40
0.6386875138770725
 50
76.3668257504165666
 51
90.2518170572429739
  0
ARC
  5
9D84
  8
0
 10
4120.5540295856353623
 20
153.8829689540276888
 30
0.0
 40
0.9849605532208268
 50
66.8648449605178712
 51
76.3668257504165666
  0
ARC
  5
9D85
  8
0
 10
4120.4611362026462302
 20
153.6655532141878098
 30
0.0
 40
1.2213897911193461
 50
62.5756035034471125
 51
66.8648449605178712
  0
LINE
  5
9D86
  8
0
 10
4120.2120516520371893
 20
154.7476258632171096
 30
0.0
 11
4120.2335728561038195
 21
154.7476258632171096
 31
0.0
  0
LINE
  5
9D87
  8
0
 10
4121.0321097672476753
 20
154.7476258632171096
 30
0.0
 11
4121.0538218854480874
 21
154.7476258632171096
 31
0.0
  0
ARC
  5
9D88
  8
0
 10
4121.0539611917338334
 20
154.7675058594207087
 30
0.0
 40
0.0198804842822935
 50
269.5985144280624013
 51
322.2715009023215771
  0
ARC
  5
9D89
  8
0
 10
4120.2117174486038493
 20
154.7674976894990095
 30
0.0
 40
0.019874636392009
 50
229.4812158340473047
 51
270.9635068705928802
  0
ARC
  5
9D8A
  8
0
 10
4121.0321097672476753
 20
154.7659258632170918
 30
0.0
 40
0.0183
 50
242.5756035034488889
 51
270.0
  0
ARC
  5
9D8B
  8
0
 10
4120.8454490709291349
 20
153.6189782027188926
 30
0.0
 40
1.2944105023620851
 50
113.6747406618374043
 51
119.3154399507256045
  0
ARC
  5
9D8C
  8
0
 10
4120.7180563047677424
 20
153.909534993945897
 30
0.0
 40
0.9771532474438663
 50
107.6515977475120991
 51
113.6747406618374043
  0
ARC
  5
9D8D
  8
0
 10
4120.6549169915751918
 20
154.1079551737562099
 30
0.0
 40
0.7689294720802281
 50
98.4385230272968954
 51
107.6515977475120991
  0
ARC
  5
9D8E
  8
0
 10
4120.6317520033762776
 20
154.2641016302077048
 30
0.0
 40
0.6110740555100075
 50
82.2681716915416388
 51
98.4385230272968954
  0
ARC
  5
9D8F
  8
0
 10
4120.6072582039087138
 20
154.0836964074809998
 30
0.0
 40
0.793134459221019
 50
69.6564936656110234
 51
82.2681716915416388
  0
ARC
  5
9D90
  8
0
 10
4120.4819838993589656
 20
153.7458246419265038
 30
0.0
 40
1.1534828758115769
 50
60.2849296025006609
 51
69.6564936656110234
  0
ARC
  5
9D91
  8
0
 10
4120.8732772566190761
 20
157.4926032163000116
 30
0.0
 40
1.3377298196369081
 50
238.8756758383289878
 51
247.7836985281749094
  0
ARC
  5
9D92
  8
0
 10
4120.6735275655601072
 20
157.00352934480361
 30
0.0
 40
0.8094371063999425
 50
247.7836985281749094
 51
259.8324653384481735
  0
ARC
  5
9D93
  8
0
 10
4120.6332290676609773
 20
156.7788292543893931
 30
0.0
 40
0.5811519786210031
 50
259.8324653384481735
 51
269.9743029550309075
  0
ARC
  5
9D94
  8
0
 10
4120.6332709798125506
 20
156.8722792711637055
 30
0.0
 40
0.6746020047941264
 50
269.9743029550309075
 51
289.7740565373403001
  0
ARC
  5
9D95
  8
0
 10
4120.4339080094268866
 20
157.4268189384702907
 30
0.0
 40
1.2638895717575021
 50
289.7740565373403001
 51
299.5148856530080934
  0
ARC
  5
9D96
  8
0
 10
4118.3052174417171045
 20
161.1869870631894059
 30
0.0
 40
5.5847908503351551
 50
299.5148856530080934
 51
299.879126640552272
  0
ARC
  5
9D97
  8
0
 10
4121.0955292718936107
 20
156.3261403318948908
 30
0.0
 40
0.0201106407140097
 50
89.4196331154744541
 51
113.8326083217601052
  0
ARC
  5
9D98
  8
0
 10
4120.169796592746934
 20
156.3295577637489089
 30
0.0
 40
0.0215445377182842
 50
56.1126824012878487
 51
90.8606148921588357
  0
ARC
  5
9D99
  8
0
 10
4120.7743815705289308
 20
157.3606602880882974
 30
0.0
 40
1.1511118960587721
 50
242.4539013804995022
 51
251.1737573290945988
  0
ARC
  5
9D9A
  8
0
 10
4120.2335728561038195
 20
156.3238140521177968
 30
0.0
 40
0.0183
 50
62.453901380499417
 51
90.0
  0
ARC
  5
9D9B
  8
0
 10
4120.6465387146054127
 20
156.9856874198412129
 30
0.0
 40
0.7549446993698085
 50
251.1737573290945988
 51
261.1860391359796836
  0
ARC
  5
9D9C
  8
0
 10
4120.6358522480250031
 20
156.9167681259698952
 30
0.0
 40
0.685201817039899
 50
261.1860391359796836
 51
269.7481829427570119
  0
ARC
  5
9D9D
  8
0
 10
4120.6356478166107991
 20
156.8702542720496069
 30
0.0
 40
0.6386875138770725
 50
269.7481829427570119
 51
283.6331742495834192
  0
ARC
  5
9D9E
  8
0
 10
4120.5540295856353623
 20
157.2067709613070861
 30
0.0
 40
0.9849605532208268
 50
283.6331742495834192
 51
293.1351550394821857
  0
ARC
  5
9D9F
  8
0
 10
4120.4611362026462302
 20
157.4241867011471072
 30
0.0
 40
1.2213897911193461
 50
293.1351550394821857
 51
297.4243964965529017
  0
LINE
  5
9DA0
  8
0
 10
4120.2120516520371893
 20
156.3421140521178074
 30
0.0
 11
4120.2335728561038195
 21
156.3421140521178074
 31
0.0
  0
LINE
  5
9DA1
  8
0
 10
4121.0321097672476753
 20
156.3421140521178074
 30
0.0
 11
4121.0538218854480874
 21
156.3421140521178074
 31
0.0
  0
ARC
  5
9DA2
  8
0
 10
4121.0539611917338334
 20
156.3222340559142083
 30
0.0
 40
0.0198804842822935
 50
37.7284990976777124
 51
90.4014855719375845
  0
ARC
  5
9DA3
  8
0
 10
4120.2117174486038493
 20
156.3222422258359927
 30
0.0
 40
0.019874636392009
 50
89.0364931294070487
 51
130.51878416595261
  0
ARC
  5
9DA4
  8
0
 10
4121.0321097672476753
 20
156.3238140521177968
 30
0.0
 40
0.0183
 50
90.0
 51
117.4243964965509974
  0
ARC
  5
9DA5
  8
0
 10
4120.8454490709291349
 20
157.4707617126159107
 30
0.0
 40
1.2944105023620851
 50
240.6845600492740118
 51
246.3252593381625957
  0
ARC
  5
9DA6
  8
0
 10
4120.7180563047677424
 20
157.1802049213889916
 30
0.0
 40
0.9771532474438663
 50
246.3252593381625957
 51
252.3484022524878867
  0
ARC
  5
9DA7
  8
0
 10
4120.6549169915751918
 20
156.9817847415787071
 30
0.0
 40
0.7689294720802281
 50
252.3484022524878867
 51
261.5614769727030762
  0
ARC
  5
9DA8
  8
0
 10
4120.6317520033762776
 20
156.8256382851272974
 30
0.0
 40
0.6110740555100075
 50
261.5614769727030762
 51
277.7318283084583754
  0
ARC
  5
9DA9
  8
0
 10
4120.6072582039087138
 20
157.0060435078538035
 30
0.0
 40
0.793134459221019
 50
277.7318283084583754
 51
290.3435063343890192
  0
ARC
  5
9DAA
  8
0
 10
4120.4819838993589656
 20
157.3439152734084132
 30
0.0
 40
1.1534828758115769
 50
290.3435063343890192
 51
299.7150703974992894
  0
LINE
  5
9DAB
  8
0
 10
4122.7531892709712338
 20
154.836295697299704
 30
0.0
 11
4122.9901460573209988
 21
154.8376990099507111
 31
0.0
  0
ARC
  5
9DAC
  8
0
 10
4122.6516524156677406
 20
153.897557581458301
 30
0.0
 40
0.9630748995590481
 50
100.0925354792671982
 51
117.7734786543863947
  0
ARC
  5
9DAD
  8
0
 10
4122.5938540778461174
 20
154.1481338498236937
 30
0.0
 40
0.7063670661133865
 50
76.9636036955631937
 51
99.0385408481613041
  0
ARC
  5
9DAE
  8
0
 10
4122.723751269022614
 20
157.1892082545506071
 30
0.0
 40
1.0469648267596039
 50
234.8260900982334078
 51
253.717087241541293
  0
ARC
  5
9DAF
  8
0
 10
4122.5920339691183472
 20
156.7382710415000986
 30
0.0
 40
0.5771842213612929
 50
253.717087241541293
 51
272.5969692019380091
  0
ARC
  5
9DB0
  8
0
 10
4122.5901410080068672
 20
156.7800059989453985
 30
0.0
 40
0.6189620860114275
 50
272.5969692019380091
 51
291.4591982065695106
  0
LINE
  5
9DB1
  8
0
 10
4122.8312415420978141
 20
156.2066819043702992
 30
0.0
 11
4123.009546948532261
 21
156.2055672619223969
 31
0.0
  0
ARC
  5
9DB2
  8
0
 10
4122.8309952452800644
 20
156.1672826742016014
 30
0.0
 40
0.0394
 50
89.6418309612090809
 51
111.4591982065685016
  0
ARC
  5
9DB3
  8
0
 10
4122.0979397699966285
 20
156.3012057182338026
 30
0.0
 40
0.0394
 50
54.8260900982083683
 51
89.6999999964179153
  0
ARC
  5
9DB4
  8
0
 10
4107.2332159880734253
 20
155.5324476190644987
 30
0.0
 40
15.80971942547772
 50
357.6183383807311884
 51
2.3706374743666121
  0
ARC
  5
9DB5
  8
0
 10
4122.9899127255412168
 20
154.8770983190345021
 30
0.0
 40
0.0394
 50
270.3393148324947788
 51
357.618338380718285
  0
ARC
  5
9DB6
  8
0
 10
4123.0094219247657747
 20
156.1855676526998025
 30
0.0
 40
0.02
 50
2.3706374743731211
 51
89.6418309612090809
  0
LINE
  5
9DB7
  8
0
 10
4123.0295439190440447
 20
154.8818692536738126
 30
0.0
 11
4123.0295439190440447
 21
156.1830259844552984
 31
0.0
  0
LINE
  5
9DB9
  8
0
 10
4120.2635166949448831
 20
168.9543187766171002
 30
0.0
 11
4120.2635166949448831
 21
168.9463967293170867
 31
0.0
  0
LINE
  5
9DBA
  8
0
 10
4120.2588250224453077
 20
168.9543187766171002
 30
0.0
 11
4120.2635166949448831
 21
168.9543187766171002
 31
0.0
  0
ARC
  5
9DBB
  8
0
 10
4122.6289533200406368
 20
159.0354762730009099
 30
0.0
 40
4.6480386479875291
 50
90.4938110099392219
 51
93.8795834935559839
  0
ARC
  5
9DBC
  8
0
 10
4122.5823591195749032
 20
160.1845464156097023
 30
0.0
 40
3.4985887449257529
 50
94.3915037048575556
 51
108.1542632353164066
  0
ARC
  5
9DBD
  8
0
 10
4122.1807798813397312
 20
161.4092506469849013
 30
0.0
 40
2.209726324443813
 50
108.1542632353164066
 51
122.8873087746209052
  0
ARC
  5
9DBE
  8
0
 10
4121.8298046185609564
 20
161.9520393909999996
 30
0.0
 40
1.563349301560282
 50
122.8873087746209052
 51
137.1227586277989019
  0
ARC
  5
9DBF
  8
0
 10
4121.4143910696802777
 20
162.3377581008629136
 30
0.0
 40
0.9964742361948328
 50
137.1227586277989019
 51
157.7974350722203951
  0
ARC
  5
9DC0
  8
0
 10
4121.2009600563824279
 20
162.4248688299792889
 30
0.0
 40
0.7659507524360578
 50
157.7974350722203951
 51
175.701441816282113
  0
ARC
  5
9DC1
  8
0
 10
4121.3809831196049345
 20
161.983285257905095
 30
0.0
 40
0.9566678327448849
 50
181.5749930019244118
 51
205.4453701178314873
  0
ARC
  5
9DC2
  8
0
 10
4121.5757302068468562
 20
162.1441845209369035
 30
0.0
 40
1.203232749691143
 50
208.3807991206273016
 51
232.2474324421856124
  0
ARC
  5
9DC3
  8
0
 10
4122.2275538217891153
 20
163.0197023490621007
 30
0.0
 40
2.294645385623983
 50
232.7634535821831037
 51
255.2597515913780057
  0
ARC
  5
9DC4
  8
0
 10
4122.3109716934477547
 20
162.9615339980989006
 30
0.0
 40
2.261632066502004
 50
252.8403437285853101
 51
255.5446847913025863
  0
ARC
  5
9DC5
  8
0
 10
4121.5285071881762633
 20
159.9262045542598116
 30
0.0
 40
0.8729293916047298
 50
63.961731596638181
 51
75.5446847913026147
  0
ARC
  5
9DC6
  8
0
 10
4121.7928852987442951
 20
160.4673423854389966
 30
0.0
 40
0.2706620608614934
 50
11.9036122769713995
 51
63.961731596638181
  0
ARC
  5
9DC7
  8
0
 10
4118.8466770888262545
 20
160.3214640920035094
 30
0.0
 40
3.2173789557434862
 50
358.4434965329439819
 51
3.5943926210117252
  0
ARC
  5
9DC8
  8
0
 10
4258.4319182816343528
 20
155.0314001269661048
 30
0.0
 40
136.4682578948998071
 50
177.8151450515165095
 51
179.3618240474104084
  0
ARC
  5
9DC9
  8
0
 10
4122.0661025027657161
 20
156.5629992277399083
 30
0.0
 40
0.0946914432977151
 50
187.0426922219469077
 51
244.0772922369152127
  0
ARC
  5
9DCA
  8
0
 10
4122.445169028123928
 20
157.5369845916443126
 30
0.0
 40
1.139554933674239
 50
248.3478866397890954
 51
251.0744968768482011
  0
ARC
  5
9DCB
  8
0
 10
4122.1043055386326159
 20
156.5689279761380135
 30
0.0
 40
0.1135906413189376
 50
255.3450912796934062
 51
259.1067068011421952
  0
ARC
  5
9DCC
  8
0
 10
4122.1008939760622525
 20
156.4822398505218928
 30
0.0
 40
0.0307210667512626
 50
201.2329547569478052
 51
248.1848520233806994
  0
ARC
  5
9DCD
  8
0
 10
4122.5865787596467271
 20
157.9333299786696045
 30
0.0
 40
1.5608839820495151
 50
251.4293292642259985
 51
254.4848022736179871
  0
ARC
  5
9DCE
  8
0
 10
4122.4808186841546558
 20
157.4990453667400061
 30
0.0
 40
1.1142260060772919
 50
253.7513812002416103
 51
263.9283311393685949
  0
ARC
  5
9DCF
  8
0
 10
4122.6236287376759719
 20
159.9430259874164904
 30
0.0
 40
3.5615079633746709
 50
265.8028071632708134
 51
269.4411974596994241
  0
ARC
  5
9DD0
  8
0
 10
4122.0854627948756388
 20
156.4800612835821028
 30
0.0
 40
0.0233273599743456
 50
199.9961881079036061
 51
243.0853773932591082
  0
ARC
  5
9DD1
  8
0
 10
4122.0493912981282847
 20
156.3053481627582073
 30
0.0
 40
0.1673355275606529
 50
68.8476210978012233
 51
85.149095701824578
  0
ARC
  5
9DD2
  8
0
 10
4122.5865826460740209
 20
157.8916545907704005
 30
0.0
 40
1.507629876314319
 50
251.5628891259057127
 51
262.2874640205538981
  0
ARC
  5
9DD3
  8
0
 10
4122.5961054273839181
 20
158.0097853004807007
 30
0.0
 40
1.62598260696783
 50
262.5135795395672744
 51
269.7458890511949221
  0
ARC
  5
9DD4
  8
0
 10
4122.6292378344860481
 20
158.0872561849963915
 30
0.0
 40
4.9992995615350759
 50
90.4623749350681265
 51
92.0929559673487717
  0
ARC
  5
9DD5
  8
0
 10
4122.5874177338682784
 20
159.4962822799217008
 30
0.0
 40
3.5896991501890589
 50
92.2472467926803148
 51
95.497793595909485
  0
ARC
  5
9DD6
  8
0
 10
4122.5723233209719183
 20
159.6531070519646107
 30
0.0
 40
3.4321496328080832
 50
95.497793595909485
 51
101.4059290953856021
  0
ARC
  5
9DD7
  8
0
 10
4122.4523052118520354
 20
160.2480128120826919
 30
0.0
 40
2.8252582010522609
 50
101.4059290953856021
 51
117.3412087449763987
  0
ARC
  5
9DD8
  8
0
 10
4121.8478964363148407
 20
161.4169697365194907
 30
0.0
 40
1.5092907777721869
 50
117.3412087449763987
 51
135.0669678050419122
  0
ARC
  5
9DD9
  8
0
 10
4121.5333400097124468
 20
161.730791708654408
 30
0.0
 40
1.0649598473704269
 50
135.0669678050419122
 51
154.9143904885422955
  0
ARC
  5
9DDA
  8
0
 10
4121.1734646810837148
 20
161.8992594235243132
 30
0.0
 40
0.6676040582982804
 50
154.9143904885422955
 51
182.2495605490950084
  0
ARC
  5
9DDB
  8
0
 10
4121.28902516125072
 20
161.9037989194546867
 30
0.0
 40
0.7832536653010609
 50
182.2495605490942125
 51
221.8662492818206999
  0
ARC
  5
9DDC
  8
0
 10
4121.9890925845211314
 20
162.5311895137245983
 30
0.0
 40
1.723313958527777
 50
221.8662492818206999
 51
248.6737869139242889
  0
ARC
  5
9DDD
  8
0
 10
4122.7812912134795624
 20
164.560330419100012
 30
0.0
 40
3.9016140943202209
 50
248.6737869139242889
 51
255.8591767169124012
  0
ARC
  5
9DDE
  8
0
 10
4122.5018113563237421
 20
163.4510202512805108
 30
0.0
 40
2.7576394272127112
 50
255.8591767169124012
 51
269.8663761741424878
  0
ARC
  5
9DDF
  8
0
 10
4122.5832946527643799
 20
164.1598475616069948
 30
0.0
 40
3.4276817530199981
 50
258.4436861765669278
 51
267.5748354066944898
  0
ARC
  5
9DE0
  8
0
 10
4122.4549554765508219
 20
163.5321986193224006
 30
0.0
 40
2.7870460227474352
 50
245.8049950209575911
 51
258.4436861765669278
  0
ARC
  5
9DE1
  8
0
 10
4122.0497798749192953
 20
162.6304317681234011
 30
0.0
 40
1.798435522055053
 50
229.5382530571060045
 51
245.8049950209575911
  0
ARC
  5
9DE2
  8
0
 10
4121.5972352807048082
 20
162.0998532310059943
 30
0.0
 40
1.101076078294527
 50
214.4613206358826005
 51
229.5382530571060045
  0
ARC
  5
9DE3
  8
0
 10
4121.4076255335339738
 20
161.9697264394951901
 30
0.0
 40
0.8711090413275308
 50
196.3111725704904131
 51
214.4613206358826005
  0
ARC
  5
9DE4
  8
0
 10
4121.2061056886386723
 20
161.9107552543084978
 30
0.0
 40
0.661137975299475
 50
166.4820833956561046
 51
196.3111725704904131
  0
ARC
  5
9DE5
  8
0
 10
4121.3709869531376171
 20
161.8711162301013076
 30
0.0
 40
0.830717112056341
 50
138.8461651286748122
 51
166.4820833956561046
  0
ARC
  5
9DE6
  8
0
 10
4121.8802704608797285
 20
161.4259965413577902
 30
0.0
 40
1.507105483159398
 50
119.2898974607996934
 51
138.8461651286748122
  0
ARC
  5
9DE7
  8
0
 10
4122.3265542773033303
 20
160.6303994648000923
 30
0.0
 40
2.4193247293000191
 50
105.4538815091207056
 51
119.2898974607996934
  0
ARC
  5
9DE8
  8
0
 10
4122.5470384201389606
 20
159.8328670629555859
 30
0.0
 40
3.2467733314703899
 50
96.9771584020170394
 51
105.4538815091207056
  0
ARC
  5
9DE9
  8
0
 10
4122.5910974798962343
 20
159.4728483312401011
 30
0.0
 40
3.6094780156594979
 50
92.0094888921867664
 51
96.9771584020170394
  0
ARC
  5
9DEA
  8
0
 10
4121.9580523946660833
 20
183.6309234322569068
 30
0.0
 40
20.5570569770449616
 50
271.4117793812853847
 51
271.7585320053494797
  0
ARC
  5
9DEB
  8
0
 10
4122.5973938266197365
 20
164.1881077644117113
 30
0.0
 40
3.4670307849015671
 50
257.3279510794781118
 51
268.0121482560440995
  0
ARC
  5
9DEC
  8
0
 10
4122.446137298667054
 20
163.5153996110016124
 30
0.0
 40
2.7775274876558318
 50
242.7133585184961078
 51
257.3279510794781118
  0
ARC
  5
9DED
  8
0
 10
4121.8629336648345998
 20
162.384816589398099
 30
0.0
 40
1.5053858103051361
 50
222.4618833678269993
 51
242.7133585184961078
  0
ARC
  5
9DEE
  8
0
 10
4121.4417173165265922
 20
161.9993581123682134
 30
0.0
 40
0.9344204439332239
 50
204.949708371776012
 51
222.4618833678269993
  0
ARC
  5
9DEF
  8
0
 10
4121.2507945189427119
 20
161.9105332894590958
 30
0.0
 40
0.7238465523840859
 50
173.4415686900892979
 51
204.949708371776012
  0
ARC
  5
9DF0
  8
0
 10
4121.1718058194137484
 20
161.9196145243554099
 30
0.0
 40
0.644337537295159
 50
155.0311440161634948
 51
173.4415686900892979
  0
ARC
  5
9DF1
  8
0
 10
4121.5178407269859235
 20
161.7584847310463942
 30
0.0
 40
1.0260481181676639
 50
133.3988987185356905
 51
155.0311440161634948
  0
ARC
  5
9DF2
  8
0
 10
4121.9151060534159114
 20
161.3383722521303127
 30
0.0
 40
1.6042472486784991
 50
118.6138663177701034
 51
133.3988987185356905
  0
ARC
  5
9DF3
  8
0
 10
4122.7878465434196187
 20
159.7385742972685989
 30
0.0
 40
3.4266164372001562
 50
114.6053605523098042
 51
118.6138663177701034
  0
LINE
  5
9DF4
  8
0
 10
4120.5466663507768317
 20
161.9581174973152997
 30
0.0
 11
4120.5493955849688064
 21
162.0862769437106863
 31
0.0
  0
LINE
  5
9DF5
  8
0
 10
4122.5364931550202527
 20
160.2548025254415052
 30
0.0
 11
4122.6412950448193442
 21
160.2548025254415052
 31
0.0
  0
ARC
  5
9DF6
  8
0
 10
4123.5229100203041526
 20
160.4468258125153
 30
0.0
 40
1.021967141967093
 50
182.6350938108614912
 51
189.8473431914250966
  0
ARC
  5
9DF7
  8
0
 10
4127.1857728537470393
 20
160.615403642338606
 30
0.0
 40
4.6887071956560904
 50
179.2527122558076087
 51
182.6350938108614912
  0
ARC
  5
9DF8
  8
0
 10
4122.4350269905780806
 20
160.6773693841469139
 30
0.0
 40
0.0624427714114261
 50
359.2527122558067845
 51
46.3550303972025901
  0
ARC
  5
9DF9
  8
0
 10
4122.43320731372296
 20
160.6503501550504893
 30
0.0
 40
0.0850355793498252
 50
58.1151968647242327
 51
86.597534679499887
  0
LINE
  5
9DFA
  8
0
 10
4122.4894503010218614
 20
161.1183529214463022
 30
0.0
 11
4122.6883378988168261
 21
161.1183529214463022
 31
0.0
  0
ARC
  5
9DFB
  8
0
 10
4122.3827767620077793
 20
161.0520568981586109
 30
0.0
 40
0.1255962046781304
 50
352.8221124796364165
 51
31.8603385586195103
  0
ARC
  5
9DFC
  8
0
 10
4112.3473776868377172
 20
161.1365551972143919
 30
0.0
 40
10.1605049830788907
 50
357.4051405488984869
 51
359.4350036640852863
  0
ARC
  5
9DFD
  8
0
 10
4115.9628409979013668
 20
161.795528707308705
 30
0.0
 40
6.5616458332144783
 50
350.7008332553336913
 51
354.076406913756216
  0
ARC
  5
9DFE
  8
0
 10
4122.0007721574156676
 20
160.9325972176501125
 30
0.0
 40
0.0702151414657249
 50
224.5633156108710864
 51
253.7390567014508065
  0
ARC
  5
9DFF
  8
0
 10
4121.9595057858368818
 20
160.8919551300647015
 30
0.0
 40
0.0122954323281365
 50
114.8104627067377947
 51
224.5633156108704895
  0
ARC
  5
9E00
  8
0
 10
4122.034516636387707
 20
160.7296945989774031
 30
0.0
 40
0.1910553485541025
 50
56.9515039820748612
 51
114.8104627067377947
  0
ARC
  5
9E01
  8
0
 10
4122.1310850075824419
 20
160.8781216587427991
 30
0.0
 40
0.0139789741113734
 50
316.8431942458759067
 51
56.9515039820739588
  0
ARC
  5
9E02
  8
0
 10
4122.1019057009380049
 20
160.9170477582333092
 30
0.0
 40
0.0624626587848663
 50
276.1370786141098961
 51
309.0799842145731873
  0
ARC
  5
9E03
  8
0
 10
4121.5026915208572973
 20
160.9194111153950075
 30
0.0
 40
0.6189723784264777
 50
356.2308963187679751
 51
358.1912626521041716
  0
ARC
  5
9E04
  8
0
 10
4122.0827577350837601
 20
160.88248372886369
 30
0.0
 40
0.0377551864780754
 50
296.357870054435125
 51
354.2825476687157789
  0
ARC
  5
9E05
  8
0
 10
4122.053517281187851
 20
160.9377988177290035
 30
0.0
 40
0.1003151450689531
 50
255.8836307827828023
 51
297.2957389486683724
  0
ARC
  5
9E06
  8
0
 10
4122.0351288358833699
 20
160.9112234830068928
 30
0.0
 40
0.0709712389803116
 50
212.0747226673136936
 51
265.0874566173698099
  0
ARC
  5
9E07
  8
0
 10
4122.0093720543800373
 20
160.8887649656186056
 30
0.0
 40
0.0376029861354309
 50
179.3861783896653037
 51
203.8907292936125941
  0
ARC
  5
9E08
  8
0
 10
4122.7901353654769991
 20
160.9387479852942988
 30
0.0
 40
0.8198646587721484
 50
182.0230361123551006
 51
183.4669982068303966
  0
ARC
  5
9E09
  8
0
 10
4122.0482558045687256
 20
160.8871659253584028
 30
0.0
 40
0.0360502931115243
 50
227.3211926984533022
 51
304.1129199366473017
  0
ARC
  5
9E0A
  8
0
 10
4122.044332574044347
 20
160.8347800596133084
 30
0.0
 40
0.0330270260972603
 50
43.0337604292298366
 51
128.4003522058798126
  0
ARC
  5
9E0B
  8
0
 10
4122.0256421803560443
 20
161.0615329278406023
 30
0.0
 40
0.0702151414657249
 50
224.5633156108710864
 51
253.7390567014508065
  0
ARC
  5
9E0C
  8
0
 10
4121.984375808778168
 20
161.0208908402551913
 30
0.0
 40
0.0122954323281365
 50
114.8104627067377947
 51
224.5633156108704895
  0
ARC
  5
9E0D
  8
0
 10
4122.0593866593289931
 20
160.8586303091678928
 30
0.0
 40
0.1910553485541025
 50
56.9515039820748612
 51
114.8104627067377947
  0
ARC
  5
9E0E
  8
0
 10
4122.1559550305237281
 20
161.0070573689332036
 30
0.0
 40
0.0139789741113734
 50
316.8431942458759067
 51
56.9515039820739588
  0
ARC
  5
9E0F
  8
0
 10
4122.1267757238802005
 20
161.045983468423799
 30
0.0
 40
0.0624626587848663
 50
276.1370786141098961
 51
309.0799842145731873
  0
ARC
  5
9E10
  8
0
 10
4121.5275615437985834
 20
161.0483468255854973
 30
0.0
 40
0.6189723784264777
 50
356.2308963187679751
 51
358.1912626521041716
  0
ARC
  5
9E11
  8
0
 10
4122.1076277580250462
 20
161.0114194390542082
 30
0.0
 40
0.0377551864780754
 50
296.357870054435125
 51
354.2825476687157789
  0
ARC
  5
9E12
  8
0
 10
4122.0783873041309562
 20
161.0667345279194933
 30
0.0
 40
0.1003151450689531
 50
255.8836307827828023
 51
297.2957389486683724
  0
ARC
  5
9E13
  8
0
 10
4122.0599988588246561
 20
161.040159193197411
 30
0.0
 40
0.0709712389803116
 50
212.0747226673130115
 51
265.0874566173698099
  0
ARC
  5
9E14
  8
0
 10
4122.0342420773213234
 20
161.0177006758090954
 30
0.0
 40
0.0376029861354309
 50
179.3861783896653037
 51
203.8907292936125941
  0
ARC
  5
9E15
  8
0
 10
4122.8150053884182853
 20
161.0676836954847886
 30
0.0
 40
0.8198646587721484
 50
182.0230361123551006
 51
183.4669982068296008
  0
ARC
  5
9E16
  8
0
 10
4122.0731258275109212
 20
161.0161016355488925
 30
0.0
 40
0.0360502931115243
 50
227.3211926984533022
 51
304.1129199366473017
  0
ARC
  5
9E17
  8
0
 10
4122.0692025969856331
 20
160.9637157698039118
 30
0.0
 40
0.0330270260972603
 50
43.0337604292298366
 51
128.4003522058798126
  0
ARC
  5
9E18
  8
0
 10
4121.5110601416718055
 20
161.075269066248012
 30
0.0
 40
0.0702151414657249
 50
224.5633156108710864
 51
253.7390567014508065
  0
ARC
  5
9E19
  8
0
 10
4121.4697937700930197
 20
161.034626978662601
 30
0.0
 40
0.0122954323281365
 50
114.8104627067377947
 51
224.5633156108704895
  0
ARC
  5
9E1A
  8
0
 10
4121.5448046206429353
 20
160.8723664475753026
 30
0.0
 40
0.1910553485541025
 50
56.9515039820748612
 51
114.8104627067377947
  0
ARC
  5
9E1B
  8
0
 10
4121.6413729918376703
 20
161.0207935073406134
 30
0.0
 40
0.0139789741113734
 50
316.8431942458759067
 51
56.9515039820739588
  0
ARC
  5
9E1C
  8
0
 10
4121.6121936851941427
 20
161.0597196068312087
 30
0.0
 40
0.0624626587848663
 50
276.1370786141098961
 51
309.0799842145731873
  0
ARC
  5
9E1D
  8
0
 10
4121.0129795051134352
 20
161.0620829639929923
 30
0.0
 40
0.6189723784264777
 50
356.2308963187679751
 51
358.1912626521041716
  0
ARC
  5
9E1E
  8
0
 10
4121.5930457193398979
 20
161.0251555774615895
 30
0.0
 40
0.0377551864780754
 50
296.357870054435125
 51
354.2825476687157789
  0
ARC
  5
9E1F
  8
0
 10
4121.5638052654439889
 20
161.080470666326903
 30
0.0
 40
0.1003151450689531
 50
255.8836307827828023
 51
297.2957389486683724
  0
ARC
  5
9E20
  8
0
 10
4121.5454168201385983
 20
161.0538953316047923
 30
0.0
 40
0.0709712389803116
 50
212.0747226673130115
 51
265.0874566173698099
  0
ARC
  5
9E21
  8
0
 10
4121.5196600386361752
 20
161.0314368142165051
 30
0.0
 40
0.0376029861354309
 50
179.3861783896653037
 51
203.8907292936125941
  0
ARC
  5
9E22
  8
0
 10
4122.3004233497340465
 20
161.0814198338921983
 30
0.0
 40
0.8198646587721484
 50
182.0230361123551006
 51
183.4669982068296008
  0
ARC
  5
9E23
  8
0
 10
4121.5585437888248634
 20
161.0298377739563023
 30
0.0
 40
0.0360502931115243
 50
227.3211926984533022
 51
304.1129199366473017
  0
ARC
  5
9E24
  8
0
 10
4121.5546205582995754
 20
160.9774519082112931
 30
0.0
 40
0.0330270260972603
 50
43.0337604292298366
 51
128.4003522058798126
  0
ARC
  5
9E25
  8
0
 10
4121.5754724815969894
 20
161.2208465336622112
 30
0.0
 40
0.0702151414657249
 50
224.5633156108710864
 51
253.7390567014508065
  0
ARC
  5
9E26
  8
0
 10
4121.5342061100182036
 20
161.1802044460768002
 30
0.0
 40
0.0122954323281365
 50
114.8104627067377947
 51
224.5633156108704895
  0
ARC
  5
9E27
  8
0
 10
4121.6092169605690287
 20
161.0179439149895018
 30
0.0
 40
0.1910553485541025
 50
56.9515039820748612
 51
114.8104627067377947
  0
ARC
  5
9E28
  8
0
 10
4121.7057853317637637
 20
161.1663709747548978
 30
0.0
 40
0.0139789741113734
 50
316.8431942458759067
 51
56.9515039820739588
  0
ARC
  5
9E29
  8
0
 10
4121.6766060251193267
 20
161.2052970742454079
 30
0.0
 40
0.0624626587848663
 50
276.1370786141098961
 51
309.0799842145731873
  0
ARC
  5
9E2A
  8
0
 10
4121.0773918450377096
 20
161.2076604314071915
 30
0.0
 40
0.6189723784264777
 50
356.2308963187679751
 51
358.1912626521041716
  0
ARC
  5
9E2B
  8
0
 10
4121.6574580592650818
 20
161.1707330448759024
 30
0.0
 40
0.0377551864780754
 50
296.357870054435125
 51
354.2825476687157789
  0
ARC
  5
9E2C
  8
0
 10
4121.6282176053700823
 20
161.2260481337411875
 30
0.0
 40
0.1003151450689531
 50
255.8836307827828023
 51
297.2957389486683724
  0
ARC
  5
9E2D
  8
0
 10
4121.6098291600637822
 20
161.1994727990189915
 30
0.0
 40
0.0709712389803116
 50
212.0747226673130115
 51
265.0874566173698099
  0
ARC
  5
9E2E
  8
0
 10
4121.5840723785613591
 20
161.1770142816307043
 30
0.0
 40
0.0376029861354309
 50
179.3861783896653037
 51
203.8907292936125941
  0
ARC
  5
9E2F
  8
0
 10
4122.3648356896583209
 20
161.2269973013063975
 30
0.0
 40
0.8198646587721484
 50
182.0230361123551006
 51
183.4669982068296008
  0
ARC
  5
9E30
  8
0
 10
4121.6229561287509569
 20
161.1754152413705015
 30
0.0
 40
0.0360502931115243
 50
227.3211926984533022
 51
304.1129199366473017
  0
ARC
  5
9E31
  8
0
 10
4121.6190328982256688
 20
161.1230293756254923
 30
0.0
 40
0.0330270260972603
 50
43.0337604292298366
 51
128.4003522058798126
  0
ARC
  5
9E32
  8
0
 10
4122.0604614469575608
 20
161.2034162773477988
 30
0.0
 40
0.0702151414657249
 50
224.5633156108710864
 51
253.7390567014508065
  0
ARC
  5
9E33
  8
0
 10
4122.0191950753778656
 20
161.1627741897623878
 30
0.0
 40
0.0122954323281365
 50
114.8104627067377947
 51
224.5633156108704895
  0
ARC
  5
9E34
  8
0
 10
4122.0942059259286907
 20
161.0005136586750893
 30
0.0
 40
0.1910553485541025
 50
56.9515039820748612
 51
114.8104627067377947
  0
ARC
  5
9E35
  8
0
 10
4122.1907742971243351
 20
161.1489407184404001
 30
0.0
 40
0.0139789741113734
 50
316.8431942458759067
 51
56.9515039820739588
  0
ARC
  5
9E36
  8
0
 10
4122.1615949904798981
 20
161.1878668179309955
 30
0.0
 40
0.0624626587848663
 50
276.1370786141098961
 51
309.0799842145731873
  0
ARC
  5
9E37
  8
0
 10
4121.5623808103991905
 20
161.1902301750926938
 30
0.0
 40
0.6189723784264777
 50
356.2308963187679751
 51
358.1912626521041716
  0
ARC
  5
9E38
  8
0
 10
4122.1424470246238343
 20
161.1533027885614047
 30
0.0
 40
0.0377551864780754
 50
296.357870054435125
 51
354.2825476687157789
  0
ARC
  5
9E39
  8
0
 10
4122.1132065707297443
 20
161.2086178774266898
 30
0.0
 40
0.1003151450689531
 50
255.8836307827828023
 51
297.2957389486683724
  0
ARC
  5
9E3A
  8
0
 10
4122.0948181254243536
 20
161.1820425427046075
 30
0.0
 40
0.0709712389803116
 50
212.0747226673130115
 51
265.0874566173698099
  0
ARC
  5
9E3B
  8
0
 10
4122.069061343921021
 20
161.1595840253162919
 30
0.0
 40
0.0376029861354309
 50
179.3861783896653037
 51
203.8907292936125941
  0
ARC
  5
9E3C
  8
0
 10
4122.8498246550179829
 20
161.2095670449920135
 30
0.0
 40
0.8198646587721484
 50
182.0230361123551006
 51
183.4669982068296008
  0
ARC
  5
9E3D
  8
0
 10
4122.1079450941124378
 20
161.157984985056089
 30
0.0
 40
0.0360502931115243
 50
227.3211926984533022
 51
304.1129199366473017
  0
ARC
  5
9E3E
  8
0
 10
4122.1040218635862402
 20
161.1055991193111083
 30
0.0
 40
0.0330270260972603
 50
43.0337604292298366
 51
128.4003522058798126
  0
ARC
  5
9E3F
  8
0
 10
4122.2914991462494072
 20
161.3012362605410033
 30
0.0
 40
0.0702151414657249
 50
224.5633156108710864
 51
253.7390567014508065
  0
ARC
  5
9E40
  8
0
 10
4122.2502327746688024
 20
161.2605941729555923
 30
0.0
 40
0.0122954323281365
 50
114.8104627067377947
 51
224.5633156108704895
  0
ARC
  5
9E41
  8
0
 10
4122.3252436252196276
 20
161.0983336418682939
 30
0.0
 40
0.1910553485541025
 50
56.9515039820748612
 51
114.8104627067377947
  0
ARC
  5
9E42
  8
0
 10
4122.421811996415272
 20
161.2467607016336046
 30
0.0
 40
0.0139789741113734
 50
316.8431942458759067
 51
56.9515039820739588
  0
ARC
  5
9E43
  8
0
 10
4122.392632689770835
 20
161.2856868011242
 30
0.0
 40
0.0624626587848663
 50
276.1370786141098961
 51
309.0799842145731873
  0
ARC
  5
9E44
  8
0
 10
4121.7934185096901274
 20
161.2880501582858983
 30
0.0
 40
0.6189723784264777
 50
356.2308963187679751
 51
358.1912626521041716
  0
ARC
  5
9E45
  8
0
 10
4122.3734847239147712
 20
161.2511227717546092
 30
0.0
 40
0.0377551864780754
 50
296.357870054435125
 51
354.2825476687157789
  0
ARC
  5
9E46
  8
0
 10
4122.3442442700206811
 20
161.3064378606198943
 30
0.0
 40
0.1003151450689531
 50
255.8836307827828023
 51
297.2957389486683724
  0
ARC
  5
9E47
  8
0
 10
4122.3258558247162
 20
161.279862525897812
 30
0.0
 40
0.0709712389803116
 50
212.0747226673130115
 51
265.0874566173698099
  0
ARC
  5
9E48
  8
0
 10
4122.3000990432119579
 20
161.2574040085094964
 30
0.0
 40
0.0376029861354309
 50
179.3861783896653037
 51
203.8907292936125941
  0
ARC
  5
9E49
  8
0
 10
4123.0808623543089197
 20
161.3073870281851896
 30
0.0
 40
0.8198646587721484
 50
182.0230361123551006
 51
183.4669982068296008
  0
ARC
  5
9E4A
  8
0
 10
4122.3389827934033747
 20
161.2558049682492936
 30
0.0
 40
0.0360502931115243
 50
227.3211926984533022
 51
304.1129199366473017
  0
ARC
  5
9E4B
  8
0
 10
4122.3350595628771771
 20
161.2034191025041991
 30
0.0
 40
0.0330270260972603
 50
43.0337604292298366
 51
128.4003522058798126
  0
ARC
  5
9E4C
  8
0
 10
4121.6703975293930853
 20
161.3796952336427069
 30
0.0
 40
0.0702151414657249
 50
224.5633156108710864
 51
253.7390567014508065
  0
ARC
  5
9E4D
  8
0
 10
4121.6291311578142995
 20
161.3390531460572959
 30
0.0
 40
0.0122954323281365
 50
114.8104627067377947
 51
224.5633156108704895
  0
ARC
  5
9E4E
  8
0
 10
4121.7041420083651246
 20
161.1767926149699974
 30
0.0
 40
0.1910553485541025
 50
56.9515039820748612
 51
114.8104627067377947
  0
ARC
  5
9E4F
  8
0
 10
4121.8007103795589501
 20
161.3252196747353935
 30
0.0
 40
0.0139789741113734
 50
316.8431942458759067
 51
56.9515039820739588
  0
ARC
  5
9E50
  8
0
 10
4121.7715310729154226
 20
161.3641457742259036
 30
0.0
 40
0.0624626587848663
 50
276.1370786141098961
 51
309.0799842145731873
  0
ARC
  5
9E51
  8
0
 10
4121.172316892834715
 20
161.3665091313876871
 30
0.0
 40
0.6189723784264777
 50
356.2308963187679751
 51
358.1912626521041716
  0
ARC
  5
9E52
  8
0
 10
4121.7523831070611777
 20
161.329581744856398
 30
0.0
 40
0.0377551864780754
 50
296.357870054435125
 51
354.2825476687157789
  0
ARC
  5
9E53
  8
0
 10
4121.7231426531652687
 20
161.3848968337217116
 30
0.0
 40
0.1003151450689531
 50
255.8836307827828023
 51
297.2957389486683724
  0
ARC
  5
9E54
  8
0
 10
4121.7047542078598781
 20
161.3583214989996009
 30
0.0
 40
0.0709712389803116
 50
212.0747226673130115
 51
265.0874566173698099
  0
ARC
  5
9E55
  8
0
 10
4121.6789974263565455
 20
161.3358629816113137
 30
0.0
 40
0.0376029861354309
 50
179.3861783896653037
 51
203.8907292936125941
  0
ARC
  5
9E56
  8
0
 10
4122.4597607374525978
 20
161.3858460012868932
 30
0.0
 40
0.8198646587721484
 50
182.0230361123551006
 51
183.4669982068296008
  0
ARC
  5
9E57
  8
0
 10
4121.7178811765470527
 20
161.3342639413511108
 30
0.0
 40
0.0360502931115243
 50
227.3211926984533022
 51
304.1129199366473017
  0
ARC
  5
9E58
  8
0
 10
4121.7139579460208552
 20
161.281878075605988
 30
0.0
 40
0.0330270260972603
 50
43.0337604292298366
 51
128.4003522058798126
  0
ARC
  5
9E59
  8
0
 10
4121.883240999129157
 20
161.4701711715264025
 30
0.0
 40
0.0702151414657249
 50
224.5633156108710864
 51
253.7390567014508065
  0
ARC
  5
9E5A
  8
0
 10
4121.8419746275503712
 20
161.4295290839409915
 30
0.0
 40
0.0122954323281365
 50
114.8104627067377947
 51
224.5633156108704895
  0
ARC
  5
9E5B
  8
0
 10
4121.9169854781011963
 20
161.2672685528536931
 30
0.0
 40
0.1910553485541025
 50
56.9515039820748612
 51
114.8104627067377947
  0
ARC
  5
9E5C
  8
0
 10
4122.0135538492959313
 20
161.4156956126190892
 30
0.0
 40
0.0139789741113734
 50
316.8431942458759067
 51
56.9515039820739588
  0
ARC
  5
9E5D
  8
0
 10
4121.9843745426505848
 20
161.4546217121095992
 30
0.0
 40
0.0624626587848663
 50
276.1370786141098961
 51
309.0799842145731873
  0
ARC
  5
9E5E
  8
0
 10
4121.3851603625698772
 20
161.4569850692714112
 30
0.0
 40
0.6189723784264777
 50
356.2308963187679751
 51
358.1912626521041716
  0
ARC
  5
9E5F
  8
0
 10
4121.9652265767972494
 20
161.4200576827400937
 30
0.0
 40
0.0377551864780754
 50
296.357870054435125
 51
354.2825476687157789
  0
ARC
  5
9E60
  8
0
 10
4121.9359861229022499
 20
161.4753727716054073
 30
0.0
 40
0.1003151450689531
 50
255.8836307827828023
 51
297.2957389486683724
  0
ARC
  5
9E61
  8
0
 10
4121.9175976775968593
 20
161.4487974368832965
 30
0.0
 40
0.0709712389803116
 50
212.0747226673130115
 51
265.0874566173698099
  0
ARC
  5
9E62
  8
0
 10
4121.8918408960926172
 20
161.4263389194950093
 30
0.0
 40
0.0376029861354309
 50
179.3861783896653037
 51
203.8907292936125941
  0
ARC
  5
9E63
  8
0
 10
4122.6726042071886695
 20
161.4763219391705888
 30
0.0
 40
0.8198646587721484
 50
182.0230361123551006
 51
183.4669982068296008
  0
ARC
  5
9E64
  8
0
 10
4121.9307246462831245
 20
161.4247398792346928
 30
0.0
 40
0.0360502931115243
 50
227.3211926984533022
 51
304.1129199366473017
  0
ARC
  5
9E65
  8
0
 10
4121.9268014157569269
 20
161.3723540134897121
 30
0.0
 40
0.0330270260972603
 50
43.0337604292298366
 51
128.4003522058798126
  0
ARC
  5
9E66
  8
0
 10
4121.7255400181920777
 20
161.7450404515979017
 30
0.0
 40
0.0702151414657249
 50
224.5633156108710864
 51
253.7390567014508065
  0
ARC
  5
9E67
  8
0
 10
4121.6842736466132919
 20
161.7043983640124907
 30
0.0
 40
0.0122954323281365
 50
114.8104627067377947
 51
224.5633156108704895
  0
ARC
  5
9E68
  8
0
 10
4121.7592844971641171
 20
161.5421378329251922
 30
0.0
 40
0.1910553485541025
 50
56.9515039820748612
 51
114.8104627067377947
  0
ARC
  5
9E69
  8
0
 10
4121.855852868358852
 20
161.690564892690503
 30
0.0
 40
0.0139789741113734
 50
316.8431942458759067
 51
56.9515039820739588
  0
ARC
  5
9E6A
  8
0
 10
4121.826673561714415
 20
161.7294909921810984
 30
0.0
 40
0.0624626587848663
 50
276.1370786141098961
 51
309.0799842145731873
  0
ARC
  5
9E6B
  8
0
 10
4121.2274593816337074
 20
161.7318543493429104
 30
0.0
 40
0.6189723784264777
 50
356.2308963187679751
 51
358.1912626521041716
  0
ARC
  5
9E6C
  8
0
 10
4121.8075255958592606
 20
161.6949269628115076
 30
0.0
 40
0.0377551864780754
 50
296.357870054435125
 51
354.2825476687157789
  0
ARC
  5
9E6D
  8
0
 10
4121.7782851419651706
 20
161.7502420516767927
 30
0.0
 40
0.1003151450689531
 50
255.8836307827828023
 51
297.2957389486683724
  0
ARC
  5
9E6E
  8
0
 10
4121.7598966966588705
 20
161.7236667169547104
 30
0.0
 40
0.0709712389803116
 50
212.0747226673130115
 51
265.0874566173698099
  0
ARC
  5
9E6F
  8
0
 10
4121.7341399151564474
 20
161.7012081995663948
 30
0.0
 40
0.0376029861354309
 50
179.3861783896653037
 51
203.8907292936125941
  0
ARC
  5
9E70
  8
0
 10
4122.5149032262515902
 20
161.751191219242088
 30
0.0
 40
0.8198646587721484
 50
182.0230361123551006
 51
183.4669982068296008
  0
ARC
  5
9E71
  8
0
 10
4121.7730236653460452
 20
161.6996091593061919
 30
0.0
 40
0.0360502931115243
 50
227.3211926984533022
 51
304.1129199366473017
  0
ARC
  5
9E72
  8
0
 10
4121.7691004348198476
 20
161.6472232935612112
 30
0.0
 40
0.0330270260972603
 50
43.0337604292298366
 51
128.4003522058798126
  0
ARC
  5
9E73
  8
0
 10
4121.453925686407274
 20
161.6388341399716069
 30
0.0
 40
0.0702151414657249
 50
224.5633156108710864
 51
253.7390567014508065
  0
ARC
  5
9E74
  8
0
 10
4121.4126593148275788
 20
161.5981920523861959
 30
0.0
 40
0.0122954323281365
 50
114.8104627067377947
 51
224.5633156108704895
  0
ARC
  5
9E75
  8
0
 10
4121.4876701653793134
 20
161.4359315212988975
 30
0.0
 40
0.1910553485541025
 50
56.9515039820748612
 51
114.8104627067377947
  0
ARC
  5
9E76
  8
0
 10
4121.5842385365731388
 20
161.5843585810642082
 30
0.0
 40
0.0139789741113734
 50
316.8431942458759067
 51
56.9515039820739588
  0
ARC
  5
9E77
  8
0
 10
4121.5550592299287018
 20
161.6232846805548036
 30
0.0
 40
0.0624626587848663
 50
276.1370786141098961
 51
309.0799842145731873
  0
ARC
  5
9E78
  8
0
 10
4120.9558450498489037
 20
161.6256480377165872
 30
0.0
 40
0.6189723784264777
 50
356.2308963187679751
 51
358.1912626521041716
  0
ARC
  5
9E79
  8
0
 10
4121.5359112640735475
 20
161.5887206511852128
 30
0.0
 40
0.0377551864780754
 50
296.357870054435125
 51
354.2825476687157789
  0
ARC
  5
9E7A
  8
0
 10
4121.506670810178548
 20
161.6440357400504979
 30
0.0
 40
0.1003151450689531
 50
255.8836307827828023
 51
297.2957389486683724
  0
ARC
  5
9E7B
  8
0
 10
4121.4882823648740668
 20
161.6174604053283872
 30
0.0
 40
0.0709712389803116
 50
212.0747226673130115
 51
265.0874566173698099
  0
ARC
  5
9E7C
  8
0
 10
4121.4625255833707342
 20
161.5950018879401
 30
0.0
 40
0.0376029861354309
 50
179.3861783896653037
 51
203.8907292936125941
  0
ARC
  5
9E7D
  8
0
 10
4122.2432888944676961
 20
161.6449849076157932
 30
0.0
 40
0.8198646587721484
 50
182.0230361123551006
 51
183.4669982068296008
  0
ARC
  5
9E7E
  8
0
 10
4121.5014093335612415
 20
161.5934028476798971
 30
0.0
 40
0.0360502931115243
 50
227.3211926984533022
 51
304.1129199366473017
  0
ARC
  5
9E7F
  8
0
 10
4121.4974861030359534
 20
161.541016981934888
 30
0.0
 40
0.0330270260972603
 50
43.0337604292298366
 51
128.4003522058798126
  0
ARC
  5
9E80
  8
0
 10
4121.256851219372038
 20
161.4636307051871995
 30
0.0
 40
0.0702151414657249
 50
224.5633156108710864
 51
253.7390567014508065
  0
ARC
  5
9E81
  8
0
 10
4121.2155848477932523
 20
161.4229886176019022
 30
0.0
 40
0.0122954323281365
 50
114.8104627067377947
 51
224.5633156108704895
  0
ARC
  5
9E82
  8
0
 10
4121.2905956983440774
 20
161.2607280865144901
 30
0.0
 40
0.1910553485541025
 50
56.9515039820748612
 51
114.8104627067377947
  0
ARC
  5
9E83
  8
0
 10
4121.3871640695379028
 20
161.4091551462798861
 30
0.0
 40
0.0139789741113734
 50
316.8431942458759067
 51
56.9515039820739588
  0
ARC
  5
9E84
  8
0
 10
4121.3579847628943753
 20
161.4480812457705099
 30
0.0
 40
0.0624626587848663
 50
276.1370786141098961
 51
309.0799842145731873
  0
ARC
  5
9E85
  8
0
 10
4120.7587705828127582
 20
161.4504446029322082
 30
0.0
 40
0.6189723784264777
 50
356.2308963187679751
 51
358.1912626521041716
  0
ARC
  5
9E86
  8
0
 10
4121.3388367970401305
 20
161.4135172164008907
 30
0.0
 40
0.0377551864780754
 50
296.357870054435125
 51
354.2825476687157789
  0
ARC
  5
9E87
  8
0
 10
4121.3095963431442215
 20
161.4688323052662042
 30
0.0
 40
0.1003151450689531
 50
255.8836307827828023
 51
297.2957389486683724
  0
ARC
  5
9E88
  8
0
 10
4121.2912078978388308
 20
161.4422569705440935
 30
0.0
 40
0.0709712389803116
 50
212.0747226673130115
 51
265.0874566173698099
  0
ARC
  5
9E89
  8
0
 10
4121.2654511163364077
 20
161.4197984531558063
 30
0.0
 40
0.0376029861354309
 50
179.3861783896653037
 51
203.8907292936125941
  0
ARC
  5
9E8A
  8
0
 10
4122.0462144274342791
 20
161.4697814728314995
 30
0.0
 40
0.8198646587721484
 50
182.0230361123551006
 51
183.4669982068296008
  0
ARC
  5
9E8B
  8
0
 10
4121.304334866525096
 20
161.4181994128956035
 30
0.0
 40
0.0360502931115243
 50
227.3211926984533022
 51
304.1129199366473017
  0
ARC
  5
9E8C
  8
0
 10
4121.3004116360007174
 20
161.3658135471505091
 30
0.0
 40
0.0330270260972603
 50
43.0337604292298366
 51
128.4003522058798126
  0
ARC
  5
9E8D
  8
0
 10
4121.1216184308723314
 20
161.2984999355986986
 30
0.0
 40
0.0702151414657249
 50
224.5633156108710864
 51
253.7390567014508065
  0
ARC
  5
9E8E
  8
0
 10
4121.0803520592917266
 20
161.2578578480132876
 30
0.0
 40
0.0122954323281365
 50
114.8104627067377947
 51
224.5633156108704895
  0
ARC
  5
9E8F
  8
0
 10
4121.1553629098425517
 20
161.0955973169259892
 30
0.0
 40
0.1910553485541025
 50
56.9515039820748612
 51
114.8104627067377947
  0
ARC
  5
9E90
  8
0
 10
4121.2519312810381962
 20
161.2440243766914136
 30
0.0
 40
0.0139789741113734
 50
316.8431942458759067
 51
56.9515039820739588
  0
ARC
  5
9E91
  8
0
 10
4121.2227519743937592
 20
161.2829504761818953
 30
0.0
 40
0.0624626587848663
 50
276.1370786141098961
 51
309.0799842145731873
  0
ARC
  5
9E92
  8
0
 10
4120.6235377943130516
 20
161.2853138333437073
 30
0.0
 40
0.6189723784264777
 50
356.2308963187679751
 51
358.1912626521041716
  0
ARC
  5
9E93
  8
0
 10
4121.2036040085386048
 20
161.2483864468123897
 30
0.0
 40
0.0377551864780754
 50
296.357870054435125
 51
354.2825476687157789
  0
ARC
  5
9E94
  8
0
 10
4121.1743635546436053
 20
161.3037015356777033
 30
0.0
 40
0.1003151450689531
 50
255.8836307827828023
 51
297.2957389486683724
  0
ARC
  5
9E95
  8
0
 10
4121.1559751093382147
 20
161.2771262009555926
 30
0.0
 40
0.0709712389803116
 50
212.0747226673130115
 51
265.0874566173698099
  0
ARC
  5
9E96
  8
0
 10
4121.1302183278348821
 20
161.2546676835673054
 30
0.0
 40
0.0376029861354309
 50
179.3861783896653037
 51
203.8907292936125941
  0
ARC
  5
9E97
  8
0
 10
4121.9109816389318439
 20
161.3046507032429133
 30
0.0
 40
0.8198646587721484
 50
182.0230361123551006
 51
183.4669982068296008
  0
ARC
  5
9E98
  8
0
 10
4121.1691020780262988
 20
161.2530686433071025
 30
0.0
 40
0.0360502931115243
 50
227.3211926984533022
 51
304.1129199366473017
  0
ARC
  5
9E99
  8
0
 10
4121.1651788475001013
 20
161.2006827775620081
 30
0.0
 40
0.0330270260972603
 50
43.0337604292298366
 51
128.4003522058798126
  0
ARC
  5
9E9A
  8
0
 10
4120.8720266989512311
 20
161.5788394514941047
 30
0.0
 40
0.0702151414657249
 50
224.5633156108710864
 51
253.7390567014508065
  0
ARC
  5
9E9B
  8
0
 10
4120.8307603273724453
 20
161.5381973639086937
 30
0.0
 40
0.0122954323281365
 50
114.8104627067377947
 51
224.5633156108704895
  0
ARC
  5
9E9C
  8
0
 10
4120.9057711779223609
 20
161.3759368328213952
 30
0.0
 40
0.1910553485541025
 50
56.9515039820748612
 51
114.8104627067377947
  0
ARC
  5
9E9D
  8
0
 10
4121.0023395491180054
 20
161.5243638925867913
 30
0.0
 40
0.0139789741113734
 50
316.8431942458759067
 51
56.9515039820739588
  0
ARC
  5
9E9E
  8
0
 10
4120.9731602424726589
 20
161.5632899920773013
 30
0.0
 40
0.0624626587848663
 50
276.1370786141098961
 51
309.0799842145731873
  0
ARC
  5
9E9F
  8
0
 10
4120.3739460623919513
 20
161.5656533492391134
 30
0.0
 40
0.6189723784264777
 50
356.2308963187679751
 51
358.1912626521041716
  0
ARC
  5
9EA0
  8
0
 10
4120.9540122766193235
 20
161.5287259627077106
 30
0.0
 40
0.0377551864780754
 50
296.357870054435125
 51
354.2825476687157789
  0
ARC
  5
9EA1
  8
0
 10
4120.924771822724324
 20
161.5840410515731094
 30
0.0
 40
0.1003151450689531
 50
255.8836307827828023
 51
297.2957389486683724
  0
ARC
  5
9EA2
  8
0
 10
4120.9063833774189334
 20
161.5574657168509134
 30
0.0
 40
0.0709712389803116
 50
212.0747226673130115
 51
265.0874566173698099
  0
ARC
  5
9EA3
  8
0
 10
4120.8806265959146913
 20
161.5350071994625978
 30
0.0
 40
0.0376029861354309
 50
179.3861783896653037
 51
203.8907292936125941
  0
ARC
  5
9EA4
  8
0
 10
4121.6613899070116531
 20
161.584990219138291
 30
0.0
 40
0.8198646587721484
 50
182.0230361123551006
 51
183.4669982068296008
  0
ARC
  5
9EA5
  8
0
 10
4120.9195103461051986
 20
161.5334081592023949
 30
0.0
 40
0.0360502931115243
 50
227.3211926984533022
 51
304.1129199366473017
  0
ARC
  5
9EA6
  8
0
 10
4120.9155871155799105
 20
161.4810222934574142
 30
0.0
 40
0.0330270260972603
 50
43.0337604292298366
 51
128.4003522058798126
  0
ARC
  5
9EA7
  8
0
 10
4121.1091003020092103
 20
161.7547153245920128
 30
0.0
 40
0.0702151414657249
 50
224.5633156108710864
 51
253.7390567014508065
  0
ARC
  5
9EA8
  8
0
 10
4121.0678339304304245
 20
161.7140732370064882
 30
0.0
 40
0.0122954323281365
 50
114.8104627067377947
 51
224.5633156108704895
  0
ARC
  5
9EA9
  8
0
 10
4121.1428447809821591
 20
161.5518127059193034
 30
0.0
 40
0.1910553485541025
 50
56.9515039820748612
 51
114.8104627067377947
  0
ARC
  5
9EAA
  8
0
 10
4121.2394131521768941
 20
161.7002397656845858
 30
0.0
 40
0.0139789741113734
 50
316.8431942458759067
 51
56.9515039820739588
  0
ARC
  5
9EAB
  8
0
 10
4121.2102338455315476
 20
161.7391658651752095
 30
0.0
 40
0.0624626587848663
 50
276.1370786141098961
 51
309.0799842145731873
  0
ARC
  5
9EAC
  8
0
 10
4120.6110196654517495
 20
161.7415292223369931
 30
0.0
 40
0.6189723784264777
 50
356.2308963187679751
 51
358.1912626521041716
  0
ARC
  5
9EAD
  8
0
 10
4121.1910858796782122
 20
161.7046018358055903
 30
0.0
 40
0.0377551864780754
 50
296.357870054435125
 51
354.2825476687157789
  0
ARC
  5
9EAE
  8
0
 10
4121.1618454257832127
 20
161.7599169246709039
 30
0.0
 40
0.1003151450689531
 50
255.8836307827828023
 51
297.2957389486683724
  0
ARC
  5
9EAF
  8
0
 10
4121.1434569804769126
 20
161.7333415899487932
 30
0.0
 40
0.0709712389803116
 50
212.0747226673130115
 51
265.0874566173698099
  0
ARC
  5
9EB0
  8
0
 10
4121.117700198975399
 20
161.710883072560506
 30
0.0
 40
0.0376029861354309
 50
179.3861783896653037
 51
203.8907292936125941
  0
ARC
  5
9EB1
  8
0
 10
4121.8984635100696323
 20
161.7608660922361992
 30
0.0
 40
0.8198646587721484
 50
182.0230361123551006
 51
183.4669982068296008
  0
ARC
  5
9EB2
  8
0
 10
4121.1565839491640872
 20
161.7092840323001894
 30
0.0
 40
0.0360502931115243
 50
227.3211926984533022
 51
304.1129199366473017
  0
ARC
  5
9EB3
  8
0
 10
4121.1526607186378897
 20
161.6568981665552087
 30
0.0
 40
0.0330270260972603
 50
43.0337604292298366
 51
128.4003522058798126
  0
ARC
  5
9EB4
  8
0
 10
4121.4519765289878706
 20
161.9228252857892016
 30
0.0
 40
0.0702151414657249
 50
224.5633156108710864
 51
253.7390567014508065
  0
ARC
  5
9EB5
  8
0
 10
4121.4107101574099943
 20
161.8821831982039043
 30
0.0
 40
0.0122954323281365
 50
114.8104627067377947
 51
224.5633156108704895
  0
ARC
  5
9EB6
  8
0
 10
4121.4857210079599099
 20
161.7199226671166059
 30
0.0
 40
0.1910553485541025
 50
56.9515039820748612
 51
114.8104627067377947
  0
ARC
  5
9EB7
  8
0
 10
4121.5822893791546448
 20
161.8683497268818883
 30
0.0
 40
0.0139789741113734
 50
316.8431942458759067
 51
56.9515039820739588
  0
ARC
  5
9EB8
  8
0
 10
4121.5531100725102078
 20
161.9072758263723983
 30
0.0
 40
0.0624626587848663
 50
276.1370786141098961
 51
309.0799842145731873
  0
ARC
  5
9EB9
  8
0
 10
4120.9538958924304097
 20
161.9096391835342104
 30
0.0
 40
0.6189723784264777
 50
356.2308963187679751
 51
358.1912626521041716
  0
ARC
  5
9EBA
  8
0
 10
4121.533962106655963
 20
161.8727117970028928
 30
0.0
 40
0.0377551864780754
 50
296.357870054435125
 51
354.2825476687157789
  0
ARC
  5
9EBB
  8
0
 10
4121.504721652761873
 20
161.9280268858682064
 30
0.0
 40
0.1003151450689531
 50
255.8836307827828023
 51
297.2957389486683724
  0
ARC
  5
9EBC
  8
0
 10
4121.4863332074555728
 20
161.9014515511460957
 30
0.0
 40
0.0709712389803116
 50
212.0747226673130115
 51
265.0874566173698099
  0
ARC
  5
9EBD
  8
0
 10
4121.4605764259531497
 20
161.8789930337578085
 30
0.0
 40
0.0376029861354309
 50
179.3861783896653037
 51
203.8907292936125941
  0
ARC
  5
9EBE
  8
0
 10
4122.2413397370492021
 20
161.9289760534335016
 30
0.0
 40
0.8198646587721484
 50
182.0230361123551006
 51
183.4669982068296008
  0
ARC
  5
9EBF
  8
0
 10
4121.499460176141838
 20
161.8773939934976056
 30
0.0
 40
0.0360502931115243
 50
227.3211926984533022
 51
304.1129199366473017
  0
ARC
  5
9EC0
  8
0
 10
4121.4955369456183689
 20
161.8250081277525112
 30
0.0
 40
0.0330270260972603
 50
43.0337604292298366
 51
128.4003522058798126
  0
ARC
  5
9EC1
  8
0
 10
4121.667522838005425
 20
162.182505407828387
 30
0.0
 40
0.0702151414657249
 50
224.5633156108710864
 51
253.7390567014508065
  0
ARC
  5
9EC2
  8
0
 10
4121.6262564664248202
 20
162.1418633202430044
 30
0.0
 40
0.0122954323281365
 50
114.8104627067377947
 51
224.5633156108704895
  0
ARC
  5
9EC3
  8
0
 10
4121.7012673169783739
 20
161.979602789155706
 30
0.0
 40
0.1910553485541025
 50
56.9515039820748612
 51
114.8104627067377947
  0
ARC
  5
9EC4
  8
0
 10
4121.7978356881721993
 20
162.1280298489209883
 30
0.0
 40
0.0139789741113734
 50
316.8431942458759067
 51
56.9515039820739588
  0
ARC
  5
9EC5
  8
0
 10
4121.7686563815277623
 20
162.1669559484116121
 30
0.0
 40
0.0624626587848663
 50
276.1370786141098961
 51
309.0799842145731873
  0
ARC
  5
9EC6
  8
0
 10
4121.1694422014470547
 20
162.1693193055733957
 30
0.0
 40
0.6189723784264777
 50
356.2308963187679751
 51
358.0292114512354829
  0
ARC
  5
9EC7
  8
0
 10
4121.7495084156716985
 20
162.1323919190419929
 30
0.0
 40
0.0377551864780754
 50
296.357870054435125
 51
354.2825476687157789
  0
ARC
  5
9EC8
  8
0
 10
4121.7202679617776084
 20
162.1877070079073064
 30
0.0
 40
0.1003151450689531
 50
255.8836307827828023
 51
297.2957389486683724
  0
ARC
  5
9EC9
  8
0
 10
4121.7018795164722178
 20
162.1611316731851957
 30
0.0
 40
0.0709712389803116
 50
212.0747226673130115
 51
265.0874566173698099
  0
ARC
  5
9ECA
  8
0
 10
4121.6761227349697947
 20
162.1386731557969085
 30
0.0
 40
0.0376029861354309
 50
179.3861783896653037
 51
203.8907292936125941
  0
ARC
  5
9ECB
  8
0
 10
4122.4568860460649375
 20
162.1886561754726017
 30
0.0
 40
0.8198646587721484
 50
182.0230361123551006
 51
183.4669982068296008
  0
ARC
  5
9ECC
  8
0
 10
4121.7150064851593925
 20
162.1370741155367057
 30
0.0
 40
0.0360502931115243
 50
227.3211926984533022
 51
304.1129199366473017
  0
ARC
  5
9ECD
  8
0
 10
4121.7110832546331949
 20
162.0846882497916965
 30
0.0
 40
0.0330270260972603
 50
43.0337604292298366
 51
128.4003522058798126
  0
ARC
  5
9ECE
  8
0
 10
4121.8811712497554254
 20
162.022586376078408
 30
0.0
 40
0.0702151414657249
 50
224.5633156108710864
 51
253.7390567014508065
  0
ARC
  5
9ECF
  8
0
 10
4121.8399048781748206
 20
161.981944288492997
 30
0.0
 40
0.0122954323281365
 50
114.8104627067377947
 51
224.5633156108704895
  0
ARC
  5
9ED0
  8
0
 10
4121.9149157287265552
 20
161.8196837574056985
 30
0.0
 40
0.1910553485541025
 50
56.9515039820748612
 51
114.8104627067377947
  0
ARC
  5
9ED1
  8
0
 10
4122.0114840999221997
 20
161.9681108171710946
 30
0.0
 40
0.0139789741113734
 50
316.8431942458759067
 51
56.9515039820739588
  0
ARC
  5
9ED2
  8
0
 10
4121.9823047932768532
 20
162.0070369166616047
 30
0.0
 40
0.0624626587848663
 50
276.1370786141098961
 51
309.0799842145731873
  0
ARC
  5
9ED3
  8
0
 10
4121.3830906131970551
 20
162.0094002738233883
 30
0.0
 40
0.6189723784264777
 50
356.2308963187679751
 51
358.1912626521041716
  0
ARC
  5
9ED4
  8
0
 10
4121.9631568274216988
 20
161.9724728872920991
 30
0.0
 40
0.0377551864780754
 50
296.357870054435125
 51
354.2825476687157789
  0
ARC
  5
9ED5
  8
0
 10
4121.9339163735276088
 20
162.0277879761574127
 30
0.0
 40
0.1003151450689531
 50
255.8836307827828023
 51
297.2957389486683724
  0
ARC
  5
9ED6
  8
0
 10
4121.9155279282222182
 20
162.0012126414351883
 30
0.0
 40
0.0709712389803116
 50
212.0747226673130115
 51
265.0874566173698099
  0
ARC
  5
9ED7
  8
0
 10
4121.8897711467197951
 20
161.9787541240469011
 30
0.0
 40
0.0376029861354309
 50
179.3861783896653037
 51
203.8907292936125941
  0
ARC
  5
9ED8
  8
0
 10
4122.6705344578158474
 20
162.0287371437225943
 30
0.0
 40
0.8198646587721484
 50
182.0230361123551006
 51
183.4669982068296008
  0
ARC
  5
9ED9
  8
0
 10
4121.9286548969093928
 20
161.9771550837866982
 30
0.0
 40
0.0360502931115243
 50
227.3211926984533022
 51
304.1129199366473017
  0
ARC
  5
9EDA
  8
0
 10
4121.9247316663841048
 20
161.9247692180416891
 30
0.0
 40
0.0330270260972603
 50
43.0337604292298366
 51
128.4003522058798126
  0
ARC
  5
9EDB
  8
0
 10
4121.1583751401931295
 20
162.0534906409284019
 30
0.0
 40
0.0702151414657249
 50
224.5633156108710864
 51
253.7390567014508065
  0
ARC
  5
9EDC
  8
0
 10
4121.1171087686152532
 20
162.012848553342991
 30
0.0
 40
0.0122954323281365
 50
114.8104627067377947
 51
224.5633156108704895
  0
ARC
  5
9EDD
  8
0
 10
4121.1921196191651688
 20
161.8505880222556925
 30
0.0
 40
0.1910553485541025
 50
56.9515039820748612
 51
114.8104627067377947
  0
ARC
  5
9EDE
  8
0
 10
4121.2886879903599038
 20
161.9990150820210886
 30
0.0
 40
0.0139789741113734
 50
316.8431942458759067
 51
56.9515039820739588
  0
ARC
  5
9EDF
  8
0
 10
4121.2595086837163763
 20
162.0379411815115986
 30
0.0
 40
0.0624626587848663
 50
276.1370786141098961
 51
309.0799842145731873
  0
ARC
  5
9EE0
  8
0
 10
4120.6602945036347592
 20
162.0403045386734107
 30
0.0
 40
0.6189723784264777
 50
356.2308963187679751
 51
358.1912626521041716
  0
ARC
  5
9EE1
  8
0
 10
4121.2403607178621314
 20
162.0033771521420931
 30
0.0
 40
0.0377551864780754
 50
296.357870054435125
 51
354.2825476687157789
  0
ARC
  5
9EE2
  8
0
 10
4121.2111202639671319
 20
162.058692241007293
 30
0.0
 40
0.1003151450689531
 50
255.8836307827828023
 51
297.2957389486683724
  0
ARC
  5
9EE3
  8
0
 10
4121.1927318186617413
 20
162.0321169062852107
 30
0.0
 40
0.0709712389803116
 50
212.0747226673130115
 51
265.0874566173698099
  0
ARC
  5
9EE4
  8
0
 10
4121.1669750371584087
 20
162.0096583888970088
 30
0.0
 40
0.0376029861354309
 50
179.3861783896653037
 51
203.8907292936125941
  0
ARC
  5
9EE5
  8
0
 10
4121.9477383482553705
 20
162.0596414085725883
 30
0.0
 40
0.8198646587721484
 50
182.0230361123551006
 51
183.4669982068296008
  0
ARC
  5
9EE6
  8
0
 10
4121.2058587873470969
 20
162.0080593486366922
 30
0.0
 40
0.0360502931115243
 50
227.3211926984533022
 51
304.1129199366473017
  0
ARC
  5
9EE7
  8
0
 10
4121.2019355568227184
 20
161.9556734828917115
 30
0.0
 40
0.0330270260972603
 50
43.0337604292298366
 51
128.4003522058798126
  0
ARC
  5
9EE8
  8
0
 10
4120.7894277439563666
 20
161.8888693647784009
 30
0.0
 40
0.0702151414657249
 50
224.5633156108710864
 51
253.7390567014508065
  0
ARC
  5
9EE9
  8
0
 10
4120.7481613723748524
 20
161.84822727719299
 30
0.0
 40
0.0122954323281365
 50
114.8104627067377947
 51
224.5633156108704895
  0
ARC
  5
9EEA
  8
0
 10
4120.823172222928406
 20
161.6859667461056915
 30
0.0
 40
0.1910553485541025
 50
56.9515039820748612
 51
114.8104627067377947
  0
ARC
  5
9EEB
  8
0
 10
4120.9197405941222314
 20
161.8343938058710876
 30
0.0
 40
0.0139789741113734
 50
316.8431942458759067
 51
56.9515039820739588
  0
ARC
  5
9EEC
  8
0
 10
4120.8905612874768849
 20
161.8733199053615976
 30
0.0
 40
0.0624626587848663
 50
276.1370786141098961
 51
309.0799842145731873
  0
ARC
  5
9EED
  8
0
 10
4120.2913471073961773
 20
161.8756832625234097
 30
0.0
 40
0.6189723784264777
 50
356.2308963187679751
 51
358.1912626521041716
  0
ARC
  5
9EEE
  8
0
 10
4120.8714133216217306
 20
161.8387558759920921
 30
0.0
 40
0.0377551864780754
 50
296.357870054435125
 51
354.2825476687157789
  0
ARC
  5
9EEF
  8
0
 10
4120.8421728677276406
 20
161.894070964857292
 30
0.0
 40
0.1003151450689531
 50
255.8836307827828023
 51
297.2957389486683724
  0
ARC
  5
9EF0
  8
0
 10
4120.8237844224222499
 20
161.8674956301352097
 30
0.0
 40
0.0709712389803116
 50
212.0747226673130115
 51
265.0874566173698099
  0
ARC
  5
9EF1
  8
0
 10
4120.7980276409198268
 20
161.8450371127470078
 30
0.0
 40
0.0376029861354309
 50
179.3861783896653037
 51
203.8907292936125941
  0
ARC
  5
9EF2
  8
0
 10
4121.5787909520158792
 20
161.8950201324225873
 30
0.0
 40
0.8198646587721484
 50
182.0230361123551006
 51
183.4669982068296008
  0
ARC
  5
9EF3
  8
0
 10
4120.8369113911094246
 20
161.8434380724866912
 30
0.0
 40
0.0360502931115243
 50
227.3211926984533022
 51
304.1129199366473017
  0
ARC
  5
9EF4
  8
0
 10
4120.8329881605841365
 20
161.7910522067417105
 30
0.0
 40
0.0330270260972603
 50
43.0337604292298366
 51
128.4003522058798126
  0
ARC
  5
9EF5
  8
0
 10
4120.8718652436518823
 20
162.2018583486645866
 30
0.0
 40
0.0702151414657249
 50
224.5633156108710864
 51
253.7390567014508065
  0
ARC
  5
9EF6
  8
0
 10
4120.8305988720730966
 20
162.1612162610792041
 30
0.0
 40
0.0122954323281365
 50
114.8104627067377947
 51
224.5633156108704895
  0
ARC
  5
9EF7
  8
0
 10
4120.9056097226230122
 20
161.9989557299919056
 30
0.0
 40
0.1910553485541025
 50
56.9515039820748612
 51
114.8104627067377947
  0
ARC
  5
9EF8
  8
0
 10
4121.0021780938177471
 20
162.1473827897573017
 30
0.0
 40
0.0139789741113734
 50
316.8431942458759067
 51
56.9515039820739588
  0
ARC
  5
9EF9
  8
0
 10
4120.9729987871742196
 20
162.1863088892478117
 30
0.0
 40
0.0624626587848663
 50
276.1370786141098961
 51
309.0799842145731873
  0
ARC
  5
9EFA
  8
0
 10
4120.3737846070926025
 20
162.1886722464095953
 30
0.0
 40
0.6189723784264777
 50
356.2308963187679751
 51
358.1912626521041716
  0
ARC
  5
9EFB
  8
0
 10
4120.9538508213190653
 20
162.1517448598783062
 30
0.0
 40
0.0377551864780754
 50
296.357870054435125
 51
354.2825476687157789
  0
ARC
  5
9EFC
  8
0
 10
4120.9246103674249753
 20
162.2070599487435913
 30
0.0
 40
0.1003151450689531
 50
255.8836307827828023
 51
297.2957389486683724
  0
ARC
  5
9EFD
  8
0
 10
4120.9062219221186751
 20
162.1804846140213954
 30
0.0
 40
0.0709712389803116
 50
212.0747226673130115
 51
265.0874566173698099
  0
ARC
  5
9EFE
  8
0
 10
4120.880465140616252
 20
162.1580260966331082
 30
0.0
 40
0.0376029861354309
 50
179.3861783896653037
 51
203.8907292936125941
  0
ARC
  5
9EFF
  8
0
 10
4121.6612284517132139
 20
162.2080091163088014
 30
0.0
 40
0.8198646587721484
 50
182.0230361123551006
 51
183.4669982068296008
  0
ARC
  5
9F00
  8
0
 10
4120.9193488908049403
 20
162.1564270563729053
 30
0.0
 40
0.0360502931115243
 50
227.3211926984533022
 51
304.1129199366473017
  0
ARC
  5
9F01
  8
0
 10
4120.9154256602805617
 20
162.1040411906278962
 30
0.0
 40
0.0330270260972603
 50
43.0337604292298366
 51
128.4003522058798126
  0
ARC
  5
9F02
  8
0
 10
4121.1233982713038131
 20
162.477693577428397
 30
0.0
 40
0.0702151414657249
 50
224.5633156108710864
 51
253.7390567014508065
  0
ARC
  5
9F03
  8
0
 10
4121.0821318997259368
 20
162.437051489842986
 30
0.0
 40
0.0122954323281365
 50
114.8104627067377947
 51
224.5633156108704895
  0
ARC
  5
9F04
  8
0
 10
4121.1571427502758524
 20
162.2747909587556876
 30
0.0
 40
0.1910553485541025
 50
56.9515039820748612
 51
114.8104627067377947
  0
ARC
  5
9F05
  8
0
 10
4121.2537111214705874
 20
162.4232180185211121
 30
0.0
 40
0.0139789741113734
 50
316.8431942458759067
 51
56.9515039820739588
  0
ARC
  5
9F06
  8
0
 10
4121.2245318148279694
 20
162.4621441180115937
 30
0.0
 40
0.0624626587848663
 50
276.1370786141098961
 51
309.0799842145731873
  0
ARC
  5
9F07
  8
0
 10
4120.6253176347463523
 20
162.4645074751734057
 30
0.0
 40
0.6189723784264777
 50
356.2308963187679751
 51
358.0292114512354829
  0
ARC
  5
9F08
  8
0
 10
4121.2053838489719055
 20
162.4275800886420882
 30
0.0
 40
0.0377551864780754
 50
296.357870054435125
 51
354.2825476687157789
  0
ARC
  5
9F09
  8
0
 10
4121.176143395078725
 20
162.4828951775072881
 30
0.0
 40
0.1003151450689531
 50
255.8836307827828023
 51
297.2957389486683724
  0
ARC
  5
9F0A
  8
0
 10
4121.1577549497733344
 20
162.4563198427852058
 30
0.0
 40
0.0709712389803116
 50
212.0747226673136936
 51
265.0874566173698099
  0
ARC
  5
9F0B
  8
0
 10
4121.1319981682690923
 20
162.4338613253968902
 30
0.0
 40
0.0376029861354309
 50
179.3861783896653037
 51
203.8907292936125941
  0
ARC
  5
9F0C
  8
0
 10
4121.9127614793660541
 20
162.4838443450726118
 30
0.0
 40
0.8198646587721484
 50
182.0230361123551006
 51
183.4669982068296008
  0
ARC
  5
9F0D
  8
0
 10
4121.1708819184577806
 20
162.4322622851366873
 30
0.0
 40
0.0360502931115243
 50
227.3211926984533022
 51
304.1129199366473017
  0
ARC
  5
9F0E
  8
0
 10
4121.166958687933402
 20
162.3798764193917066
 30
0.0
 40
0.0330270260972603
 50
43.0337604292298366
 51
128.4003522058798126
  0
ARC
  5
9F0F
  8
0
 10
4121.399103306053803
 20
162.3298025254784136
 30
0.0
 40
0.0702151414657249
 50
224.5633156108710864
 51
253.7390567014508065
  0
ARC
  5
9F10
  8
0
 10
4121.3578369344759267
 20
162.2891604378930026
 30
0.0
 40
0.0122954323281365
 50
114.8104627067377947
 51
224.5633156108704895
  0
ARC
  5
9F11
  8
0
 10
4121.4328477850258423
 20
162.1268999068057042
 30
0.0
 40
0.1910553485541025
 50
56.9515039820748612
 51
114.8104627067377947
  0
ARC
  5
9F12
  8
0
 10
4121.5294161562205772
 20
162.2753269665711002
 30
0.0
 40
0.0139789741113734
 50
316.8431942458759067
 51
56.9515039820739588
  0
ARC
  5
9F13
  8
0
 10
4121.5002368495779592
 20
162.3142530660616103
 30
0.0
 40
0.0624626587848663
 50
276.1370786141098961
 51
309.0799842145731873
  0
ARC
  5
9F14
  8
0
 10
4120.9010226694963421
 20
162.3166164232233939
 30
0.0
 40
0.6189723784264777
 50
356.2308963187679751
 51
358.0292114512354829
  0
ARC
  5
9F15
  8
0
 10
4121.4810888837218954
 20
162.2796890366919911
 30
0.0
 40
0.0377551864780754
 50
296.357870054435125
 51
354.2825476687157789
  0
ARC
  5
9F16
  8
0
 10
4121.4518484298287149
 20
162.3350041255573899
 30
0.0
 40
0.1003151450689531
 50
255.8836307827828023
 51
297.2957389486683724
  0
ARC
  5
9F17
  8
0
 10
4121.4334599845224147
 20
162.3084287908351939
 30
0.0
 40
0.0709712389803116
 50
212.0747226673130115
 51
265.0874566173698099
  0
ARC
  5
9F18
  8
0
 10
4121.4077032030181726
 20
162.2859702734469067
 30
0.0
 40
0.0376029861354309
 50
179.3861783896653037
 51
203.8907292936125941
  0
ARC
  5
9F19
  8
0
 10
4122.188466514116044
 20
162.3359532931225999
 30
0.0
 40
0.8198646587721484
 50
182.0230361123551006
 51
183.4669982068296008
  0
ARC
  5
9F1A
  8
0
 10
4121.4465869532077704
 20
162.2843712331867039
 30
0.0
 40
0.0360502931115243
 50
227.3211926984533022
 51
304.1129199366473017
  0
ARC
  5
9F1B
  8
0
 10
4121.4426637226833918
 20
162.2319853674416947
 30
0.0
 40
0.0330270260972603
 50
43.0337604292298366
 51
128.4003522058798126
  0
ARC
  5
9F1C
  8
0
 10
4122.29149921460521
 20
162.1940069212284072
 30
0.0
 40
0.0702151414657249
 50
224.5633156108710864
 51
253.7390567014508065
  0
ARC
  5
9F1D
  8
0
 10
4122.2502328430264242
 20
162.1533648336429962
 30
0.0
 40
0.0122954323281365
 50
114.8104627067377947
 51
224.5633156108704895
  0
ARC
  5
9F1E
  8
0
 10
4122.3252436935772494
 20
161.9911043025556978
 30
0.0
 40
0.1910553485541025
 50
56.9515039820748612
 51
114.8104627067377947
  0
ARC
  5
9F1F
  8
0
 10
4122.4218120647710748
 20
162.1395313623210939
 30
0.0
 40
0.0139789741113734
 50
316.8431942458759067
 51
56.9515039820739588
  0
ARC
  5
9F20
  8
0
 10
4122.3926327581266378
 20
162.1784574618116039
 30
0.0
 40
0.0624626587848663
 50
276.1370786141098961
 51
309.0799842145731873
  0
ARC
  5
9F21
  8
0
 10
4121.7934185780468397
 20
162.1808208189733875
 30
0.0
 40
0.6189723784264777
 50
356.2308963187679751
 51
358.1912626521041716
  0
ARC
  5
9F22
  8
0
 10
4122.373484792272393
 20
162.1438934324420984
 30
0.0
 40
0.0377551864780754
 50
296.357870054435125
 51
354.2825476687157789
  0
ARC
  5
9F23
  8
0
 10
4122.3442443383773934
 20
162.199208521307412
 30
0.0
 40
0.1003151450689531
 50
255.8836307827828023
 51
297.2957389486683724
  0
ARC
  5
9F24
  8
0
 10
4122.3258558930720028
 20
162.1726331865851876
 30
0.0
 40
0.0709712389803116
 50
212.0747226673130115
 51
265.0874566173698099
  0
ARC
  5
9F25
  8
0
 10
4122.3000991115686702
 20
162.1501746691969004
 30
0.0
 40
0.0376029861354309
 50
179.3861783896653037
 51
203.8907292936125941
  0
ARC
  5
9F26
  8
0
 10
4123.0808624226647225
 20
162.2001576888725936
 30
0.0
 40
0.8198646587721484
 50
182.0230361123551006
 51
183.4669982068296008
  0
ARC
  5
9F27
  8
0
 10
4122.3389828617591775
 20
162.1485756289366975
 30
0.0
 40
0.0360502931115243
 50
227.3211926984533022
 51
304.1129199366473017
  0
ARC
  5
9F28
  8
0
 10
4122.3350596312329799
 20
162.0961897631916884
 30
0.0
 40
0.0330270260972603
 50
43.0337604292298366
 51
128.4003522058798126
  0
ARC
  5
9F29
  8
0
 10
4122.0559949873550067
 20
162.360203411478409
 30
0.0
 40
0.0702151414657249
 50
224.5633156108710864
 51
253.7390567014508065
  0
ARC
  5
9F2A
  8
0
 10
4122.014728615776221
 20
162.319561323892998
 30
0.0
 40
0.0122954323281365
 50
114.8104627067377947
 51
224.5633156108704895
  0
ARC
  5
9F2B
  8
0
 10
4122.0897394663270461
 20
162.1573007928056995
 30
0.0
 40
0.1910553485541025
 50
56.9515039820748612
 51
114.8104627067377947
  0
ARC
  5
9F2C
  8
0
 10
4122.186307837521781
 20
162.3057278525710956
 30
0.0
 40
0.0139789741113734
 50
316.8431942458759067
 51
56.9515039820739588
  0
ARC
  5
9F2D
  8
0
 10
4122.1571285308782535
 20
162.3446539520616057
 30
0.0
 40
0.0624626587848663
 50
276.1370786141098961
 51
309.0799842145731873
  0
ARC
  5
9F2E
  8
0
 10
4121.5579143507957269
 20
162.3470173092233892
 30
0.0
 40
0.6189723784264777
 50
356.2308963187679751
 51
358.1912626521041716
  0
ARC
  5
9F2F
  8
0
 10
4122.1379805650230992
 20
162.3100899226921001
 30
0.0
 40
0.0377551864780754
 50
296.357870054435125
 51
354.2825476687157789
  0
ARC
  5
9F30
  8
0
 10
4122.1087401111280997
 20
162.3654050115574137
 30
0.0
 40
0.1003151450689531
 50
255.8836307827828023
 51
297.2957389486683724
  0
ARC
  5
9F31
  8
0
 10
4122.0903516658217995
 20
162.3388296768351893
 30
0.0
 40
0.0709712389803116
 50
212.0747226673130115
 51
265.0874566173698099
  0
ARC
  5
9F32
  8
0
 10
4122.0645948843193764
 20
162.3163711594469021
 30
0.0
 40
0.0376029861354309
 50
179.3861783896653037
 51
203.8907292936125941
  0
ARC
  5
9F33
  8
0
 10
4122.8453581954154288
 20
162.3663541791225953
 30
0.0
 40
0.8198646587721484
 50
182.0230361123551006
 51
183.4669982068296008
  0
ARC
  5
9F34
  8
0
 10
4122.1034786345089742
 20
162.3147721191866992
 30
0.0
 40
0.0360502931115243
 50
227.3211926984533022
 51
304.1129199366473017
  0
ARC
  5
9F35
  8
0
 10
4122.0995554039827766
 20
162.2623862534416901
 30
0.0
 40
0.0330270260972603
 50
43.0337604292298366
 51
128.4003522058798126
  0
ARC
  5
9F36
  8
0
 10
4121.7862631627540395
 20
162.532177336078405
 30
0.0
 40
0.0702151414657249
 50
224.5633156108710864
 51
253.7390567014508065
  0
ARC
  5
9F37
  8
0
 10
4121.7449967911761632
 20
162.491535248492994
 30
0.0
 40
0.0122954323281365
 50
114.8104627067377947
 51
224.5633156108704895
  0
ARC
  5
9F38
  8
0
 10
4121.8200076417260789
 20
162.3292747174056956
 30
0.0
 40
0.1910553485541025
 50
56.9515039820748612
 51
114.8104627067377947
  0
ARC
  5
9F39
  8
0
 10
4121.9165760129208138
 20
162.4777017771710916
 30
0.0
 40
0.0139789741113734
 50
316.8431942458759067
 51
56.9515039820739588
  0
ARC
  5
9F3A
  8
0
 10
4121.8873967062772863
 20
162.5166278766616017
 30
0.0
 40
0.0624626587848663
 50
276.1370786141098961
 51
309.0799842145731873
  0
ARC
  5
9F3B
  8
0
 10
4121.2881825261956692
 20
162.5189912338234137
 30
0.0
 40
0.6189723784264777
 50
356.2308963187679751
 51
358.1912626521041716
  0
ARC
  5
9F3C
  8
0
 10
4121.8682487404230415
 20
162.4820638472920962
 30
0.0
 40
0.0377551864780754
 50
296.357870054435125
 51
354.2825476687157789
  0
ARC
  5
9F3D
  8
0
 10
4121.8390082865280419
 20
162.5373789361574097
 30
0.0
 40
0.1003151450689531
 50
255.8836307827828023
 51
297.2957389486683724
  0
ARC
  5
9F3E
  8
0
 10
4121.8206198412217418
 20
162.510803601435299
 30
0.0
 40
0.0709712389803116
 50
212.0747226673136936
 51
265.0874566173698099
  0
ARC
  5
9F3F
  8
0
 10
4121.7948630597193187
 20
162.4883450840468981
 30
0.0
 40
0.0376029861354309
 50
179.3861783896653037
 51
203.8907292936125941
  0
ARC
  5
9F40
  8
0
 10
4122.575626370815371
 20
162.5383281037225913
 30
0.0
 40
0.8198646587721484
 50
182.0230361123551006
 51
183.4669982068296008
  0
ARC
  5
9F41
  8
0
 10
4121.833746809908007
 20
162.4867460437866953
 30
0.0
 40
0.0360502931115243
 50
227.3211926984533022
 51
304.1129199366473017
  0
ARC
  5
9F42
  8
0
 10
4121.8298235793836284
 20
162.4343601780416861
 30
0.0
 40
0.0330270260972603
 50
43.0337604292298366
 51
128.4003522058798126
  0
ARC
  5
9F43
  8
0
 10
4121.516116470956149
 20
162.7023710061783959
 30
0.0
 40
0.0702151414657249
 50
224.5633156108710864
 51
253.7390567014508065
  0
ARC
  5
9F44
  8
0
 10
4121.4748500993764537
 20
162.6617289185930133
 30
0.0
 40
0.0122954323281365
 50
114.8104627067377947
 51
224.5633156108704895
  0
ARC
  5
9F45
  8
0
 10
4121.5498609499272789
 20
162.4994683875056865
 30
0.0
 40
0.1910553485541025
 50
56.9515039820748612
 51
114.8104627067377947
  0
ARC
  5
9F46
  8
0
 10
4121.6464293211220138
 20
162.6478954472711109
 30
0.0
 40
0.0139789741113734
 50
316.8431942458759067
 51
56.9515039820739588
  0
ARC
  5
9F47
  8
0
 10
4121.6172500144775768
 20
162.6868215467615926
 30
0.0
 40
0.0624626587848663
 50
276.1370786141098961
 51
309.0799842145731873
  0
ARC
  5
9F48
  8
0
 10
4121.0180358343968692
 20
162.6891849039234046
 30
0.0
 40
0.6189723784264777
 50
356.2308963187679751
 51
358.1912626521041716
  0
ARC
  5
9F49
  8
0
 10
4121.5981020486224224
 20
162.652257517392087
 30
0.0
 40
0.0377551864780754
 50
296.357870054435125
 51
354.2825476687157789
  0
ARC
  5
9F4A
  8
0
 10
4121.5688615947283324
 20
162.7075726062572869
 30
0.0
 40
0.1003151450689531
 50
255.8836307827828023
 51
297.2957389486683724
  0
ARC
  5
9F4B
  8
0
 10
4121.5504731494220323
 20
162.6809972715352046
 30
0.0
 40
0.0709712389803116
 50
212.0747226673136936
 51
265.0874566173698099
  0
ARC
  5
9F4C
  8
0
 10
4121.5247163679186997
 20
162.658538754146889
 30
0.0
 40
0.0376029861354309
 50
179.3861783896653037
 51
203.8907292936125941
  0
ARC
  5
9F4D
  8
0
 10
4122.3054796790156615
 20
162.7085217738226106
 30
0.0
 40
0.8198646587721484
 50
182.0230361123551006
 51
183.4669982068296008
  0
ARC
  5
9F4E
  8
0
 10
4121.563600118109207
 20
162.6569397138866861
 30
0.0
 40
0.0360502931115243
 50
227.3211926984533022
 51
304.1129199366473017
  0
ARC
  5
9F4F
  8
0
 10
4121.5596768875839189
 20
162.6045538481417054
 30
0.0
 40
0.0330270260972603
 50
43.0337604292298366
 51
128.4003522058798126
  0
ARC
  5
9F50
  8
0
 10
4121.9972464817819855
 20
162.8501686838129103
 30
0.0
 40
0.0702151414657249
 50
224.5633156108710864
 51
253.7390567014508065
  0
ARC
  5
9F51
  8
0
 10
4121.9559801102022902
 20
162.809526596227613
 30
0.0
 40
0.0122954323281365
 50
114.8104627067377947
 51
224.5633156108704895
  0
ARC
  5
9F52
  8
0
 10
4122.0309909607540249
 20
162.6472660651402862
 30
0.0
 40
0.1910553485541025
 50
56.9515039820748612
 51
114.8104627067377947
  0
ARC
  5
9F53
  8
0
 10
4122.1275593319487598
 20
162.795693124905597
 30
0.0
 40
0.0139789741113734
 50
316.8431942458759067
 51
56.9515039820739588
  0
ARC
  5
9F54
  8
0
 10
4122.0983800253043228
 20
162.8346192243961923
 30
0.0
 40
0.0624626587848663
 50
276.1370786141098961
 51
309.0799842145731873
  0
ARC
  5
9F55
  8
0
 10
4121.4991658452227057
 20
162.8369825815578906
 30
0.0
 40
0.6189723784264777
 50
356.2308963187679751
 51
358.1912626521041716
  0
ARC
  5
9F56
  8
0
 10
4122.0792320594491684
 20
162.8000551950266015
 30
0.0
 40
0.0377551864780754
 50
296.357870054435125
 51
354.2825476687157789
  0
ARC
  5
9F57
  8
0
 10
4122.0499916055550784
 20
162.8553702838918866
 30
0.0
 40
0.1003151450689531
 50
255.8836307827828023
 51
297.2957389486683724
  0
ARC
  5
9F58
  8
0
 10
4122.0316031602478688
 20
162.8287949491698043
 30
0.0
 40
0.0709712389803116
 50
212.0747226673136936
 51
265.0874566173698099
  0
ARC
  5
9F59
  8
0
 10
4122.0058463787472647
 20
162.8063364317814887
 30
0.0
 40
0.0376029861354309
 50
179.3861783896653037
 51
203.8907292936125941
  0
ARC
  5
9F5A
  8
0
 10
4122.7866096898424075
 20
162.8563194514572103
 30
0.0
 40
0.8198646587721484
 50
182.0230361123551006
 51
183.4669982068296008
  0
ARC
  5
9F5B
  8
0
 10
4122.044730128935953
 20
162.8047373915212859
 30
0.0
 40
0.0360502931115243
 50
227.3211926984533022
 51
304.1129199366473017
  0
ARC
  5
9F5C
  8
0
 10
4122.0408068984097554
 20
162.7523515257761915
 30
0.0
 40
0.0330270260972603
 50
43.0337604292298366
 51
128.4003522058798126
  0
ARC
  5
9F5D
  8
0
 10
4122.2803960003548127
 20
162.6433813426783956
 30
0.0
 40
0.0702151414657249
 50
224.5633156108710864
 51
253.7390567014508065
  0
ARC
  5
9F5E
  8
0
 10
4122.2391296287760269
 20
162.6027392550930131
 30
0.0
 40
0.0122954323281365
 50
114.8104627067377947
 51
224.5633156108704895
  0
ARC
  5
9F5F
  8
0
 10
4122.3141404793268521
 20
162.4404787240056862
 30
0.0
 40
0.1910553485541025
 50
56.9515039820748612
 51
114.8104627067377947
  0
ARC
  5
9F60
  8
0
 10
4122.4107088505206775
 20
162.5889057837711107
 30
0.0
 40
0.0139789741113734
 50
316.8431942458759067
 51
56.9515039820739588
  0
ARC
  5
9F61
  8
0
 10
4122.38152954387715
 20
162.6278318832615923
 30
0.0
 40
0.0624626587848663
 50
276.1370786141098961
 51
309.0799842145731873
  0
ARC
  5
9F62
  8
0
 10
4121.7823153637964424
 20
162.6301952404234044
 30
0.0
 40
0.6189723784264777
 50
356.2308963187679751
 51
358.1912626521041716
  0
ARC
  5
9F63
  8
0
 10
4122.3623815780229052
 20
162.5932678538920868
 30
0.0
 40
0.0377551864780754
 50
296.357870054435125
 51
354.2825476687157789
  0
ARC
  5
9F64
  8
0
 10
4122.3331411241279056
 20
162.6485829427574004
 30
0.0
 40
0.1003151450689531
 50
255.8836307827828023
 51
297.2957389486683724
  0
ARC
  5
9F65
  8
0
 10
4122.3147526788216055
 20
162.6220076080352044
 30
0.0
 40
0.0709712389803116
 50
212.0747226673136936
 51
265.0874566173698099
  0
ARC
  5
9F66
  8
0
 10
4122.2889958973191824
 20
162.5995490906468888
 30
0.0
 40
0.0376029861354309
 50
179.3861783896653037
 51
203.8907292936125941
  0
ARC
  5
9F67
  8
0
 10
4123.0697592084161442
 20
162.6495321103226104
 30
0.0
 40
0.8198646587721484
 50
182.0230361123551006
 51
183.4669982068296008
  0
ARC
  5
9F68
  8
0
 10
4122.3278796475078707
 20
162.5979500503866859
 30
0.0
 40
0.0360502931115243
 50
227.3211926984533022
 51
304.1129199366473017
  0
ARC
  5
9F69
  8
0
 10
4122.3239564169825826
 20
162.5455641846417052
 30
0.0
 40
0.0330270260972603
 50
43.0337604292298366
 51
128.4003522058798126
  0
ARC
  5
9F6A
  8
0
 10
4122.3452344559646008
 20
161.4654750598799069
 30
0.0
 40
0.1088965088310405
 50
224.9894812524188978
 51
258.3994667242700984
  0
ARC
  5
9F6B
  8
0
 10
4122.3979433874183087
 20
161.450127945775705
 30
0.0
 40
0.0949184493503961
 50
271.8455532299670949
 51
317.5553854604523281
  0
ARC
  5
9F6C
  8
0
 10
4122.4474926526927447
 20
161.4048124461459111
 30
0.0
 40
0.0277721598326812
 50
317.5553854604523281
 51
40.9849817767679809
  0
ARC
  5
9F6D
  8
0
 10
4122.3652835420771225
 20
161.3018613999529975
 30
0.0
 40
0.1591413421210027
 50
49.5852811771670972
 51
130.7698944549275097
  0
ARC
  5
9F6E
  8
0
 10
4122.2911920182868926
 20
161.4107782677527894
 30
0.0
 40
0.0320098997704313
 50
158.7397094155263915
 51
224.1359806581754128
  0
ARC
  5
9F6F
  8
0
 10
4122.3467435467991891
 20
161.4170899302644102
 30
0.0
 40
0.0628112260764687
 50
191.3948931482574096
 51
261.5168595913216905
  0
ARC
  5
9F70
  8
0
 10
4122.3687075854750219
 20
161.470390858826903
 30
0.0
 40
0.119575181854539
 50
254.8603048914330884
 51
297.2828097919040147
  0
ARC
  5
9F71
  8
0
 10
4122.4004237727576765
 20
161.4066018797965114
 30
0.0
 40
0.0483557036613997
 50
298.5292437113444066
 51
350.3424916802318876
  0
ARC
  5
9F72
  8
0
 10
4121.7804686718100129
 20
161.4407430498866916
 30
0.0
 40
0.6689612579730367
 50
356.3786467536099849
 51
359.6745692686192228
  0
ARC
  5
9F73
  8
0
 10
2203.3421035306050726
 20
79.5836169679029126
 30
0.0
 40
1920.6866429267809053
 50
2.4415334527235362
 51
2.4425437273155288
  0
ARC
  5
9F74
  8
0
 10
4122.3680908742771862
 20
161.4128846512984978
 30
0.0
 40
0.0432639590425946
 50
227.5840748172624899
 51
304.7752510215332791
  0
ARC
  5
9F75
  8
0
 10
4122.3880018448835472
 20
161.3842100973485003
 30
0.0
 40
0.008354407417331
 50
304.7752510215314032
 51
27.6293205032176985
  0
ARC
  5
9F76
  8
0
 10
4122.3656885224418147
 20
161.3590328250274979
 30
0.0
 40
0.0415569593451303
 50
44.3532104034047165
 51
130.6283859145781889
  0
ARC
  5
9F77
  8
0
 10
4122.3458219810909213
 20
161.3859636850847892
 30
0.0
 40
0.0085430602456074
 50
147.3522758147416027
 51
215.9829312019998042
  0
ARC
  5
9F78
  8
0
 10
4122.0686581980944538
 20
161.6648020356597044
 30
0.0
 40
0.1088965088310405
 50
224.9894812524188978
 51
258.3994667242700984
  0
ARC
  5
9F79
  8
0
 10
4122.1213671295481618
 20
161.6494549215555878
 30
0.0
 40
0.0949184493503961
 50
271.8455532299670949
 51
317.5553854604523281
  0
ARC
  5
9F7A
  8
0
 10
4122.1709163948225978
 20
161.6041394219257938
 30
0.0
 40
0.0277721598326812
 50
317.5553854604523281
 51
40.9849817767679809
  0
ARC
  5
9F7B
  8
0
 10
4122.0887072842078851
 20
161.5011883757329088
 30
0.0
 40
0.1591413421210027
 50
49.5852811771670972
 51
130.7698944549275097
  0
ARC
  5
9F7C
  8
0
 10
4122.0146157604158361
 20
161.6101052435325869
 30
0.0
 40
0.0320098997704313
 50
158.7397094155263915
 51
224.1359806581754128
  0
ARC
  5
9F7D
  8
0
 10
4122.0701672889290421
 20
161.6164169060442077
 30
0.0
 40
0.0628112260764687
 50
191.3948931482574096
 51
261.5168595913216905
  0
ARC
  5
9F7E
  8
0
 10
4122.092131327604875
 20
161.6697178346067858
 30
0.0
 40
0.119575181854539
 50
254.8603048914330884
 51
297.2828097919040147
  0
ARC
  5
9F7F
  8
0
 10
4122.123847514888439
 20
161.6059288555763942
 30
0.0
 40
0.0483557036613997
 50
298.5292437113444066
 51
350.3424916802318876
  0
ARC
  5
9F80
  8
0
 10
4121.5038924139389565
 20
161.6400700256666028
 30
0.0
 40
0.6689612579730367
 50
356.3786467536099849
 51
359.6745692686192228
  0
ARC
  5
9F81
  8
0
 10
2203.0655272727358351
 20
79.7829439436828096
 30
0.0
 40
1920.6866429267809053
 50
2.4415334527235362
 51
2.4425437273155288
  0
ARC
  5
9F82
  8
0
 10
4122.0915146164088583
 20
161.6122116270782954
 30
0.0
 40
0.0432639590425946
 50
227.5840748172624899
 51
304.7752510215332791
  0
ARC
  5
9F83
  8
0
 10
4122.1114255870134002
 20
161.5835370731284115
 30
0.0
 40
0.008354407417331
 50
304.7752510215314032
 51
27.6293205032176985
  0
ARC
  5
9F84
  8
0
 10
4122.0891122645743962
 20
161.5583598008074091
 30
0.0
 40
0.0415569593451303
 50
44.3532104034047165
 51
130.6283859145781889
  0
ARC
  5
9F85
  8
0
 10
4122.0692457232207744
 20
161.5852906608647004
 30
0.0
 40
0.0085430602456074
 50
147.3522758147416027
 51
215.9829312019998042
  0
ARC
  5
9F86
  8
0
 10
4122.1659313530053623
 20
161.9158968292275063
 30
0.0
 40
0.1088965088310405
 50
224.9894812524188978
 51
258.3994667242700984
  0
ARC
  5
9F87
  8
0
 10
4122.2186402844590702
 20
161.9005497151233897
 30
0.0
 40
0.0949184493503961
 50
271.8455532299670949
 51
317.5553854604523281
  0
ARC
  5
9F88
  8
0
 10
4122.2681895497344158
 20
161.8552342154935104
 30
0.0
 40
0.0277721598326812
 50
317.5553854604523281
 51
40.9849817767679809
  0
ARC
  5
9F89
  8
0
 10
4122.1859804391178841
 20
161.7522831693005969
 30
0.0
 40
0.1591413421210027
 50
49.5852811771670972
 51
130.7698944549275097
  0
ARC
  5
9F8A
  8
0
 10
4122.1118889153267446
 20
161.8612000371003887
 30
0.0
 40
0.0320098997704313
 50
158.7397094155263915
 51
224.1359806581754128
  0
ARC
  5
9F8B
  8
0
 10
4122.1674404438399506
 20
161.8675116996118959
 30
0.0
 40
0.0628112260764687
 50
191.3948931482574096
 51
261.5168595913216905
  0
ARC
  5
9F8C
  8
0
 10
4122.189404482514874
 20
161.9208126281745876
 30
0.0
 40
0.119575181854539
 50
254.8603048914330884
 51
297.2828097919040147
  0
ARC
  5
9F8D
  8
0
 10
4122.221120669798438
 20
161.8570236491441108
 30
0.0
 40
0.0483557036613997
 50
298.5292437113444066
 51
350.3424916802318876
  0
ARC
  5
9F8E
  8
0
 10
4121.6011655688507744
 20
161.8911648192342909
 30
0.0
 40
0.6689612579730367
 50
356.3786467536099849
 51
359.6745692686192228
  0
ARC
  5
9F8F
  8
0
 10
2203.1628004276458341
 20
80.0340387372505262
 30
0.0
 40
1920.6866429267809053
 50
2.4415334527235362
 51
2.4425437273155288
  0
ARC
  5
9F90
  8
0
 10
4122.1887877713179478
 20
161.8633064206460972
 30
0.0
 40
0.0432639590425946
 50
227.5840748172624899
 51
304.7752510215332791
  0
ARC
  5
9F91
  8
0
 10
4122.2086987419243087
 20
161.8346318666960997
 30
0.0
 40
0.008354407417331
 50
304.7752510215314032
 51
27.6293205032176985
  0
ARC
  5
9F92
  8
0
 10
4122.1863854194843952
 20
161.8094545943750973
 30
0.0
 40
0.0415569593451303
 50
44.3532104034047165
 51
130.6283859145781889
  0
ARC
  5
9F93
  8
0
 10
4122.1665188781298639
 20
161.8363854544323885
 30
0.0
 40
0.0085430602456074
 50
147.3522758147416027
 51
215.9829312019998042
  0
ARC
  5
9F94
  8
0
 10
4122.5882593021442517
 20
161.2955992886354863
 30
0.0
 40
0.5501450019762656
 50
89.9338878999476492
 51
101.635635816930801
  0
ARC
  5
9F95
  8
0
 10
4122.5601140138278424
 20
161.4322807964886977
 30
0.0
 40
0.4105957567492682
 50
101.635635816930602
 51
123.142895685967602
  0
ARC
  5
9F96
  8
0
 10
4122.4189440081845532
 20
161.6484811606773064
 30
0.0
 40
0.1523873758463405
 50
123.142895685967602
 51
153.0821160059601027
  0
ARC
  5
9F97
  8
0
 10
4122.38824660420687
 20
161.6640668923762973
 30
0.0
 40
0.1179599791455173
 50
153.0821160059593069
 51
220.0370840892844058
  0
ARC
  5
9F98
  8
0
 10
4122.5105703092722251
 20
161.7668436588249108
 30
0.0
 40
0.2777290391745784
 50
220.0370840892844058
 51
258.9361398421049216
  0
ARC
  5
9F99
  8
0
 10
4122.5875807494321634
 20
161.9979479795069892
 30
0.0
 40
0.5202547230717459
 50
255.4947573043660896
 51
270.1446397630788283
  0
ARC
  5
9F9A
  8
0
 10
4122.5886829108467282
 20
161.3081143247788134
 30
0.0
 40
0.5244623041731239
 50
89.976939695911696
 51
101.1796441305767047
  0
ARC
  5
9F9B
  8
0
 10
4122.5636421497083575
 20
161.4348156437766875
 30
0.0
 40
0.3953102079678277
 50
101.1796441305767047
 51
122.5865117495208949
  0
ARC
  5
9F9C
  8
0
 10
4122.4381063025703043
 20
161.6312124251406033
 30
0.0
 40
0.1622202153749377
 50
122.5865117495208949
 51
159.6826077078154071
  0
ARC
  5
9F9D
  8
0
 10
4122.3726518575658702
 20
161.6554473497110109
 30
0.0
 40
0.092423253123346
 50
159.6826077078154071
 51
204.8012414067511031
  0
ARC
  5
9F9E
  8
0
 10
4122.4818941785761126
 20
161.7059272608346134
 30
0.0
 40
0.2127648757081451
 50
204.8012414067511031
 51
227.3390251357427019
  0
ARC
  5
9F9F
  8
0
 10
4122.5364931550202527
 20
160.2756025254415135
 30
0.0
 40
0.0208
 50
189.8473431914090952
 51
270.0
  0
LINE
  5
9FA0
  8
0
 10
4120.4246767098884447
 20
161.9569909059734982
 30
0.0
 11
4120.4371639080882233
 21
162.4822796217235066
 31
0.0
  0
ARC
  5
9FA1
  8
0
 10
4122.9970083184980467
 20
161.4092506469849013
 30
0.0
 40
2.209726324443813
 50
57.112691225379109
 51
71.845736764683565
  0
ARC
  5
9FA2
  8
0
 10
4123.347983581275912
 20
161.9520393909999996
 30
0.0
 40
1.563349301560282
 50
42.8772413722010697
 51
57.112691225379109
  0
ARC
  5
9FA3
  8
0
 10
4123.7633971301593192
 20
162.3377581008629136
 30
0.0
 40
0.9964742361948328
 50
22.2025649277795694
 51
42.8772413722010697
  0
ARC
  5
9FA4
  8
0
 10
4123.9768281434562596
 20
162.4248688299792889
 30
0.0
 40
0.7659507524360578
 50
4.2985581837179083
 51
22.2025649277795694
  0
ARC
  5
9FA5
  8
0
 10
4123.796805080233753
 20
161.983285257905095
 30
0.0
 40
0.9566678327448849
 50
334.5546298821685127
 51
358.4250069980756166
  0
ARC
  5
9FA6
  8
0
 10
4123.6020579929900123
 20
162.1441845209369035
 30
0.0
 40
1.203232749691143
 50
307.752567557814416
 51
331.6192008793727268
  0
ARC
  5
9FA7
  8
0
 10
4122.9502343780486626
 20
163.0197023490621007
 30
0.0
 40
2.294645385623983
 50
284.7402484086218237
 51
307.23654641781701
  0
ARC
  5
9FA8
  8
0
 10
4122.8668165063891138
 20
162.9615339980989006
 30
0.0
 40
2.261632066502004
 50
284.4553152086974137
 51
287.1596562714145762
  0
ARC
  5
9FA9
  8
0
 10
4123.6492810116624241
 20
159.9262045542598116
 30
0.0
 40
0.8729293916047298
 50
104.4553152086973995
 51
116.0382684033617977
  0
ARC
  5
9FAA
  8
0
 10
4123.3849029010943923
 20
160.4673423854389966
 30
0.0
 40
0.2706620608614934
 50
116.0382684033617977
 51
168.096387723028613
  0
ARC
  5
9FAB
  8
0
 10
4126.331111111010614
 20
160.3214640920035094
 30
0.0
 40
3.2173789557434862
 50
176.405607378988293
 51
181.5565034670559044
  0
ARC
  5
9FAC
  8
0
 10
3986.7458699182047894
 20
155.0314001269661048
 30
0.0
 40
136.4682578948998071
 50
0.6381759525895779
 51
2.18485494848349
  0
ARC
  5
9FAD
  8
0
 10
4123.1116856970729714
 20
156.5629992277399083
 30
0.0
 40
0.0946914432977151
 50
295.9227077630848157
 51
352.9573077780522112
  0
ARC
  5
9FAE
  8
0
 10
4122.7326191717138499
 20
157.5369845916443126
 30
0.0
 40
1.139554933674239
 50
288.9255031231518274
 51
291.6521133602108762
  0
ARC
  5
9FAF
  8
0
 10
4123.0734826612042525
 20
156.5689279761380135
 30
0.0
 40
0.1135906413189376
 50
280.8932931988578048
 51
284.6549087203064232
  0
ARC
  5
9FB0
  8
0
 10
4123.076894223776435
 20
156.4822398505218928
 30
0.0
 40
0.0307210667512626
 50
291.8151479766193006
 51
338.7670452430522232
  0
ARC
  5
9FB1
  8
0
 10
4122.5912094401919603
 20
157.9333299786696045
 30
0.0
 40
1.5608839820495151
 50
285.5151977263817002
 51
288.5706707357741152
  0
ARC
  5
9FB2
  8
0
 10
4122.6969695156822127
 20
157.4990453667400061
 30
0.0
 40
1.1142260060772919
 50
276.0716688606314051
 51
286.2486187997582761
  0
ARC
  5
9FB3
  8
0
 10
4122.4948782325636785
 20
161.3705352639105968
 30
0.0
 40
4.9897336516063433
 50
271.0796229942757805
 51
273.6763723827739909
  0
ARC
  5
9FB4
  8
0
 10
4123.0923254049630486
 20
156.4800612835821028
 30
0.0
 40
0.0233273599743456
 50
296.9146226067408065
 51
340.0038118920963939
  0
ARC
  5
9FB5
  8
0
 10
4123.1283969017104027
 20
156.3053481627582073
 30
0.0
 40
0.1673355275606529
 50
94.8509042981754078
 51
111.1523789021988051
  0
ARC
  5
9FB6
  8
0
 10
4122.5912055537646665
 20
157.8916545907704005
 30
0.0
 40
1.507629876314319
 50
277.7125359794459882
 51
288.437110874094401
  0
ARC
  5
9FB7
  8
0
 10
4122.5780891880649506
 20
158.0629041247983082
 30
0.0
 40
1.679120204312939
 50
270.368693151429909
 51
277.3718382578077808
  0
ARC
  5
9FB8
  8
0
 10
4122.5485503653508204
 20
158.0872561849963915
 30
0.0
 40
4.9992995615350759
 50
87.9070440326512141
 51
89.5376250649318735
  0
ARC
  5
9FB9
  8
0
 10
4122.590370465970409
 20
159.4962822799217008
 30
0.0
 40
3.5896991501890589
 50
84.502206404090515
 51
87.7527532073196852
  0
ARC
  5
9FBA
  8
0
 10
4122.6054648788658596
 20
159.6531070519646107
 30
0.0
 40
3.4321496328080832
 50
78.5940709046143695
 51
84.502206404090515
  0
ARC
  5
9FBB
  8
0
 10
4122.725482987986652
 20
160.2480128120826919
 30
0.0
 40
2.8252582010522609
 50
62.6587912550235373
 51
78.5940709046143695
  0
ARC
  5
9FBC
  8
0
 10
4123.3298917635229373
 20
161.4169697365194907
 30
0.0
 40
1.5092907777721869
 50
44.933032194958102
 51
62.6587912550235373
  0
ARC
  5
9FBD
  8
0
 10
4123.6444481901262407
 20
161.730791708654408
 30
0.0
 40
1.0649598473704269
 50
25.0856095114576796
 51
44.933032194958102
  0
ARC
  5
9FBE
  8
0
 10
4124.0043235187549726
 20
161.8992594235243132
 30
0.0
 40
0.6676040582982804
 50
357.7504394509049916
 51
25.0856095114576796
  0
ARC
  5
9FBF
  8
0
 10
4123.8887630385861485
 20
161.9037989194546867
 30
0.0
 40
0.7832536653010609
 50
318.1337507181787032
 51
357.7504394509049916
  0
ARC
  5
9FC0
  8
0
 10
4123.1886956153175561
 20
162.5311895137245983
 30
0.0
 40
1.723313958527777
 50
291.3262130860755974
 51
318.1337507181787032
  0
ARC
  5
9FC1
  8
0
 10
4122.3964969863582155
 20
164.560330419100012
 30
0.0
 40
3.9016140943202209
 50
284.1408232830875136
 51
291.3262130860755974
  0
ARC
  5
9FC2
  8
0
 10
4122.6759768435140359
 20
163.4510202512805108
 30
0.0
 40
2.7576394272127112
 50
270.1336238258575122
 51
284.1408232830875136
  0
ARC
  5
9FC3
  8
0
 10
4122.5944935470733981
 20
164.1598475616069948
 30
0.0
 40
3.4276817530199981
 50
272.4251645933055102
 51
281.5563138234330722
  0
ARC
  5
9FC4
  8
0
 10
4122.7228327232860465
 20
163.5321986193224006
 30
0.0
 40
2.7870460227474352
 50
281.5563138234330722
 51
294.1950049790423805
  0
ARC
  5
9FC5
  8
0
 10
4123.1280083249175732
 20
162.6304317681234011
 30
0.0
 40
1.798435522055053
 50
294.1950049790423805
 51
310.4617469428939103
  0
ARC
  5
9FC6
  8
0
 10
4123.5805529191329697
 20
162.0998532310059943
 30
0.0
 40
1.101076078294527
 50
310.4617469428939103
 51
325.5386793641173995
  0
ARC
  5
9FC7
  8
0
 10
4123.7701626663028946
 20
161.9697264394951901
 30
0.0
 40
0.8711090413275308
 50
325.5386793641173995
 51
343.6888274295096153
  0
ARC
  5
9FC8
  8
0
 10
4123.9716825111991056
 20
161.9107552543084978
 30
0.0
 40
0.661137975299475
 50
343.6888274295096153
 51
13.5179166043439292
  0
ARC
  5
9FC9
  8
0
 10
4123.8068012467001608
 20
161.8711162301013076
 30
0.0
 40
0.830717112056341
 50
13.5179166043439292
 51
41.1538348713251168
  0
ARC
  5
9FCA
  8
0
 10
4123.2975177389589589
 20
161.4259965413577902
 30
0.0
 40
1.507105483159398
 50
41.1538348713251168
 51
60.7101025392002995
  0
ARC
  5
9FCB
  8
0
 10
4122.8512339225344476
 20
160.6303994648000923
 30
0.0
 40
2.4193247293000191
 50
60.7101025392002995
 51
74.5461184908792802
  0
ARC
  5
9FCC
  8
0
 10
4122.6307497796988173
 20
159.8328670629555859
 30
0.0
 40
3.2467733314703899
 50
74.5461184908792802
 51
83.0228415979829464
  0
ARC
  5
9FCD
  8
0
 10
4122.5866907199424531
 20
159.4728483312401011
 30
0.0
 40
3.6094780156594979
 50
83.0228415979829464
 51
87.9905111078132194
  0
ARC
  5
9FCE
  8
0
 10
4123.2197358051716947
 20
183.6309234322569068
 30
0.0
 40
20.5570569770449616
 50
268.2414679946504066
 51
268.5882206187146153
  0
ARC
  5
9FCF
  8
0
 10
4122.5803943732180414
 20
164.1881077644117113
 30
0.0
 40
3.4670307849015671
 50
271.987851743929923
 51
282.6720489204964224
  0
ARC
  5
9FD0
  8
0
 10
4122.731650901170724
 20
163.5153996110016124
 30
0.0
 40
2.7775274876558318
 50
282.6720489204964224
 51
297.2866414815035796
  0
ARC
  5
9FD1
  8
0
 10
4123.3148545350031782
 20
162.384816589398099
 30
0.0
 40
1.5053858103051361
 50
297.2866414815035796
 51
317.538116632172887
  0
ARC
  5
9FD2
  8
0
 10
4123.7360708833111858
 20
161.9993581123682134
 30
0.0
 40
0.9344204439332239
 50
317.538116632172887
 51
335.0502916282238743
  0
ARC
  5
9FD3
  8
0
 10
4123.9269936808950661
 20
161.9105332894590958
 30
0.0
 40
0.7238465523840859
 50
335.0502916282238743
 51
6.5584313099106604
  0
ARC
  5
9FD4
  8
0
 10
4124.00598238042312
 20
161.9196145243554099
 30
0.0
 40
0.644337537295159
 50
6.5584313099106604
 51
24.9688559838365016
  0
ARC
  5
9FD5
  8
0
 10
4123.6599474728518544
 20
161.7584847310463942
 30
0.0
 40
1.0260481181676639
 50
24.9688559838365016
 51
46.6011012814643166
  0
ARC
  5
9FD6
  8
0
 10
4123.262682146422776
 20
161.3383722521303127
 30
0.0
 40
1.6042472486784991
 50
46.6011012814643166
 51
61.3861336822298327
  0
ARC
  5
9FD7
  8
0
 10
4122.3899416564172498
 20
159.7385742972685989
 30
0.0
 40
3.4266164372001562
 50
61.3861336822298327
 51
65.3946394476901247
  0
LINE
  5
9FD8
  8
0
 10
4124.6311218490618558
 20
161.9581174973152997
 30
0.0
 11
4124.6283926148689716
 21
162.0862769437106863
 31
0.0
  0
ARC
  5
9FD9
  8
0
 10
4121.6548781795336254
 20
160.4468258125153
 30
0.0
 40
1.021967141967093
 50
350.1526568085748181
 51
357.3649061891384804
  0
ARC
  5
9FDA
  8
0
 10
4117.9920153460916481
 20
160.615403642338606
 30
0.0
 40
4.6887071956560904
 50
357.3649061891384804
 51
0.7472877441923729
  0
ARC
  5
9FDB
  8
0
 10
4122.7427612092587879
 20
160.6773693841469139
 30
0.0
 40
0.0624427714114261
 50
133.6449696027974028
 51
180.7472877441923913
  0
ARC
  5
9FDC
  8
0
 10
4122.7445808861157275
 20
160.6503501550504893
 30
0.0
 40
0.0850355793498252
 50
93.4024653205001556
 51
121.8848031352758028
  0
ARC
  5
9FDD
  8
0
 10
4122.7950114378309081
 20
161.0520568981586109
 30
0.0
 40
0.1255962046781304
 50
148.1396614413804969
 51
187.1778875203636119
  0
ARC
  5
9FDE
  8
0
 10
4132.8304105130000607
 20
161.1365551972143919
 30
0.0
 40
10.1605049830788907
 50
180.5649963359146
 51
182.5948594511015131
  0
ARC
  5
9FDF
  8
0
 10
4129.2149472019373206
 20
161.795528707308705
 30
0.0
 40
6.5616458332144783
 50
185.9235930862429029
 51
189.2991667446663087
  0
ARC
  5
9FE0
  8
0
 10
4122.8125046577606554
 20
161.3018613999529975
 30
0.0
 40
0.1591413421210027
 50
49.2301055450724689
 51
130.4147188228328957
  0
ARC
  5
9FE1
  8
0
 10
4122.5895288976944357
 20
161.2955992886354863
 30
0.0
 40
0.5501450019762656
 50
78.3643641830692417
 51
90.0661121000523508
  0
ARC
  5
9FE2
  8
0
 10
4122.6176741860099355
 20
161.4322807964886977
 30
0.0
 40
0.4105957567492682
 50
56.8571043140323766
 51
78.3643641830694122
  0
ARC
  5
9FE3
  8
0
 10
4122.7588441916532247
 20
161.6484811606773064
 30
0.0
 40
0.1523873758463405
 50
26.9178839940399115
 51
56.857104314031929
  0
ARC
  5
9FE4
  8
0
 10
4122.7895415956318175
 20
161.6640668923762973
 30
0.0
 40
0.1179599791455173
 50
319.9629159107150258
 51
26.9178839940399115
  0
ARC
  5
9FE5
  8
0
 10
4122.6672178905646433
 20
161.7668436588249108
 30
0.0
 40
0.2777290391745784
 50
281.0638601578950784
 51
319.9629159107150258
  0
ARC
  5
9FE6
  8
0
 10
4122.5902074504056145
 20
161.9979479795069892
 30
0.0
 40
0.5202547230717459
 50
269.8553602369211717
 51
284.5052426956339104
  0
ARC
  5
9FE7
  8
0
 10
4122.5891052889910497
 20
161.3081143247788134
 30
0.0
 40
0.5244623041731239
 50
78.8203558694233095
 51
90.023060304088304
  0
ARC
  5
9FE8
  8
0
 10
4122.6141460501294205
 20
161.4348156437766875
 30
0.0
 40
0.3953102079678277
 50
57.4134882504790269
 51
78.8203558694233095
  0
ARC
  5
9FE9
  8
0
 10
4122.7396818972683832
 20
161.6312124251406033
 30
0.0
 40
0.1622202153749377
 50
20.3173922921845502
 51
57.4134882504790269
  0
ARC
  5
9FEA
  8
0
 10
4122.8051363422709983
 20
161.6554473497110109
 30
0.0
 40
0.092423253123346
 50
335.1987585932488969
 51
20.3173922921845502
  0
ARC
  5
9FEB
  8
0
 10
4122.6958940212616653
 20
161.7059272608346134
 30
0.0
 40
0.2127648757081451
 50
312.6609748642572981
 51
335.1987585932488969
  0
ARC
  5
9FEC
  8
0
 10
4122.6412950448193442
 20
160.2756025254415135
 30
0.0
 40
0.0208
 50
270.0
 51
350.1526568085909048
  0
LINE
  5
9FED
  8
0
 10
4124.7531114899502427
 20
161.9569909059734982
 30
0.0
 11
4124.7406242917495547
 21
162.4822796217235066
 31
0.0
  0
ARC
  5
9FEE
  8
0
 10
4122.5488348797971412
 20
159.0354762730009099
 30
0.0
 40
4.6480386479875291
 50
86.1204165064440161
 51
89.5061889900607781
  0
ARC
  5
9FEF
  8
0
 10
4122.5954290802619653
 20
160.1845464156097023
 30
0.0
 40
3.4985887449257529
 50
71.845736764683565
 51
85.6084962951424586
  0
LINE
  5
9FF0
  8
0
 10
4122.1558231293884091
 20
156.3096669100523002
 30
0.0
 11
4122.1558231293884091
 21
156.4330605387289097
 31
0.0
  0
LINE
  5
9FF1
  8
0
 10
4123.0219648616875929
 20
156.2869534222735126
 30
0.0
 11
4123.0219648616875929
 21
156.433060478789514
 31
0.0
  0
ARC
  5
9FF2
  8
0
 10
4122.5678718187791674
 20
162.0182317893209927
 30
0.0
 40
0.1088965088310405
 50
224.9894812524188978
 51
258.3994667242700984
  0
ARC
  5
9FF3
  8
0
 10
4122.6205807502337848
 20
162.0028846752169045
 30
0.0
 40
0.0949184493503961
 50
271.8455532299670949
 51
317.5553854604523281
  0
ARC
  5
9FF4
  8
0
 10
4122.6701300155091303
 20
161.9575691755869968
 30
0.0
 40
0.0277721598326812
 50
317.5553854604523281
 51
40.9849817767679809
  0
ARC
  5
9FF5
  8
0
 10
4122.5879209048925986
 20
161.8546181293941117
 30
0.0
 40
0.1591413421210027
 50
49.5852811771670972
 51
130.7698944549275097
  0
ARC
  5
9FF6
  8
0
 10
4122.5138293811023686
 20
161.9635349971939036
 30
0.0
 40
0.0320098997704313
 50
158.7397094155263915
 51
224.1359806581754128
  0
ARC
  5
9FF7
  8
0
 10
4122.5693809096146651
 20
161.969846659705496
 30
0.0
 40
0.0628112260764687
 50
191.3948931482574096
 51
261.5168595913216905
  0
ARC
  5
9FF8
  8
0
 10
4122.591344948292317
 20
162.0231475882681025
 30
0.0
 40
0.119575181854539
 50
254.8603048914330884
 51
297.2828097919040147
  0
ARC
  5
9FF9
  8
0
 10
4122.6230611355731526
 20
161.9593586092377109
 30
0.0
 40
0.0483557036613997
 50
298.5292437113444066
 51
350.3424916802318876
  0
ARC
  5
9FFA
  8
0
 10
4122.0031060346245795
 20
161.9934997793278058
 30
0.0
 40
0.6689612579730367
 50
356.3786467536099849
 51
359.6745692686192228
  0
ARC
  5
9FFB
  8
0
 10
2203.5647408934219129
 20
80.1363736973440695
 30
0.0
 40
1920.6866429267809053
 50
2.4415334527235362
 51
2.4425437273155288
  0
ARC
  5
9FFC
  8
0
 10
4122.5907282370953908
 20
161.965641380739612
 30
0.0
 40
0.0432639590425946
 50
227.5840748172624899
 51
304.7752510215332791
  0
ARC
  5
9FFD
  8
0
 10
4122.6106392076990232
 20
161.9369668267896998
 30
0.0
 40
0.008354407417331
 50
304.7752510215314032
 51
27.6293205032176985
  0
ARC
  5
9FFE
  8
0
 10
4122.5883258852591098
 20
161.9117895544686974
 30
0.0
 40
0.0415569593451303
 50
44.3532104034047165
 51
130.6283859145781889
  0
ARC
  5
9FFF
  8
0
 10
4122.5684593439063974
 20
161.9387204145259034
 30
0.0
 40
0.0085430602456074
 50
147.3522758147416027
 51
215.9829312019998042
  0
ARC
  5
A000
  8
0
 10
4122.5444397005358041
 20
162.4254445262641866
 30
0.0
 40
0.0702151414657249
 50
224.5633156108710864
 51
253.7390567014508065
  0
ARC
  5
A001
  8
0
 10
4122.5031733289579279
 20
162.384802438678804
 30
0.0
 40
0.0122954323281365
 50
114.8104627067377947
 51
224.5633156108704895
  0
ARC
  5
A002
  8
0
 10
4122.5781841795078435
 20
162.2225419075915056
 30
0.0
 40
0.1910553485541025
 50
56.9515039820748612
 51
114.8104627067377947
  0
ARC
  5
A003
  8
0
 10
4122.6747525507025784
 20
162.3709689673569017
 30
0.0
 40
0.0139789741113734
 50
316.8431942458759067
 51
56.9515039820739588
  0
ARC
  5
A004
  8
0
 10
4122.6455732440590509
 20
162.4098950668474117
 30
0.0
 40
0.0624626587848663
 50
276.1370786141098961
 51
309.0799842145731873
  0
ARC
  5
A005
  8
0
 10
4122.0463590639783433
 20
162.4122584240091953
 30
0.0
 40
0.6189723784264777
 50
356.2308963187679751
 51
358.0292114512354829
  0
ARC
  5
A006
  8
0
 10
4122.6264252782038966
 20
162.3753310374779062
 30
0.0
 40
0.0377551864780754
 50
296.357870054435125
 51
354.2825476687157789
  0
ARC
  5
A007
  8
0
 10
4122.5971848243098066
 20
162.4306461263431913
 30
0.0
 40
0.1003151450689531
 50
255.8836307827828023
 51
297.2957389486683724
  0
ARC
  5
A008
  8
0
 10
4122.5787963790053254
 20
162.404070791621109
 30
0.0
 40
0.0709712389803116
 50
212.0747226673130115
 51
265.0874566173698099
  0
ARC
  5
A009
  8
0
 10
4122.5530395975010833
 20
162.3816122742327934
 30
0.0
 40
0.0376029861354309
 50
179.3861783896653037
 51
203.8907292936125941
  0
ARC
  5
A00A
  8
0
 10
4123.3338029085971357
 20
162.4315952939084013
 30
0.0
 40
0.8198646587721484
 50
182.0230361123551006
 51
183.4669982068296008
  0
ARC
  5
A00B
  8
0
 10
4122.5919233476897716
 20
162.3800132339725053
 30
0.0
 40
0.0360502931115243
 50
227.3211926984533022
 51
304.1129199366473017
  0
ARC
  5
A00C
  8
0
 10
4122.588000117165393
 20
162.3276273682274962
 30
0.0
 40
0.0330270260972603
 50
43.0337604292298366
 51
128.4003522058798126
  0
ARC
  5
A00D
  8
0
 10
4122.5452196441201522
 20
162.8977730839987998
 30
0.0
 40
0.0702151414657249
 50
224.5633156108710864
 51
253.7390567014508065
  0
ARC
  5
A00E
  8
0
 10
4122.5039532725395475
 20
162.8571309964135025
 30
0.0
 40
0.0122954323281365
 50
114.8104627067377947
 51
224.5633156108704895
  0
ARC
  5
A00F
  8
0
 10
4122.5789641230921916
 20
162.6948704653262041
 30
0.0
 40
0.1910553485541025
 50
56.9515039820748612
 51
114.8104627067377947
  0
ARC
  5
A010
  8
0
 10
4122.675532494286017
 20
162.8432975250914865
 30
0.0
 40
0.0139789741113734
 50
316.8431942458759067
 51
56.9515039820739588
  0
ARC
  5
A011
  8
0
 10
4122.646353187643399
 20
162.8822236245821102
 30
0.0
 40
0.0624626587848663
 50
276.1370786141098961
 51
309.0799842145731873
  0
ARC
  5
A012
  8
0
 10
4122.0471390075617819
 20
162.8845869817438086
 30
0.0
 40
0.6189723784264777
 50
356.2308963187679751
 51
358.1912626521041716
  0
ARC
  5
A013
  8
0
 10
4122.6272052217873352
 20
162.847659595212491
 30
0.0
 40
0.0377551864780754
 50
296.357870054435125
 51
354.2825476687157789
  0
ARC
  5
A014
  8
0
 10
4122.5979647678932452
 20
162.9029746840778046
 30
0.0
 40
0.1003151450689531
 50
255.8836307827828023
 51
297.2957389486683724
  0
ARC
  5
A015
  8
0
 10
4122.5795763225878545
 20
162.8763993493556939
 30
0.0
 40
0.0709712389803116
 50
212.0747226673130115
 51
265.0874566173698099
  0
ARC
  5
A016
  8
0
 10
4122.5538195410836124
 20
162.8539408319674067
 30
0.0
 40
0.0376029861354309
 50
179.3861783896653037
 51
203.8907292936125941
  0
ARC
  5
A017
  8
0
 10
4123.3345828521796648
 20
162.9039238516429862
 30
0.0
 40
0.8198646587721484
 50
182.0230361123551006
 51
183.4669982068296008
  0
ARC
  5
A018
  8
0
 10
4122.5927032912741197
 20
162.8523417917072038
 30
0.0
 40
0.0360502931115243
 50
227.3211926984533022
 51
304.1129199366473017
  0
ARC
  5
A019
  8
0
 10
4122.5887800607479221
 20
162.7999559259621094
 30
0.0
 40
0.0330270260972603
 50
43.0337604292298366
 51
128.4003522058798126
  0
ARC
  5
A01A
  8
0
 10
4123.1280083249175732
 20
162.6304317681234011
 30
0.0
 40
1.798435522055053
 50
294.1950049790423805
 51
310.4617469428939103
  0
ARC
  5
A01B
  8
0
 10
4123.3148545350031782
 20
162.384816589398099
 30
0.0
 40
1.5053858103051361
 50
297.2866414815035796
 51
317.538116632172887
  0
ARC
  5
A01C
  8
0
 10
4123.1770160424230198
 20
160.9325972176501125
 30
0.0
 40
0.0702151414657249
 50
286.260943298549023
 51
315.4366843891289136
  0
ARC
  5
A01D
  8
0
 10
4123.2182824140018056
 20
160.8919551300647015
 30
0.0
 40
0.0122954323281365
 50
315.436684389129482
 51
65.1895372932622053
  0
ARC
  5
A01E
  8
0
 10
4123.1432715634509805
 20
160.7296945989774031
 30
0.0
 40
0.1910553485541025
 50
65.1895372932622053
 51
123.0484960179251033
  0
ARC
  5
A01F
  8
0
 10
4123.0467031922562455
 20
160.8781216587427991
 30
0.0
 40
0.0139789741113734
 50
123.0484960179259986
 51
223.1568057541242069
  0
ARC
  5
A020
  8
0
 10
4123.0758824988988636
 20
160.9170477582333092
 30
0.0
 40
0.0624626587848663
 50
230.9200157854263011
 51
263.8629213858901039
  0
ARC
  5
A021
  8
0
 10
4123.6750966789813901
 20
160.9194111153950075
 30
0.0
 40
0.6189723784264777
 50
181.8087373478948905
 51
183.7691036812319965
  0
ARC
  5
A022
  8
0
 10
4123.0950304647549274
 20
160.88248372886369
 30
0.0
 40
0.0377551864780754
 50
185.7174523312841075
 51
243.6421299455645908
  0
ARC
  5
A023
  8
0
 10
4123.1242709186490174
 20
160.9377988177290035
 30
0.0
 40
0.1003151450689531
 50
242.7042610513315992
 51
284.1163692172173114
  0
ARC
  5
A024
  8
0
 10
4123.1426593639553175
 20
160.9112234830068928
 30
0.0
 40
0.0709712389803116
 50
274.9125433826300764
 51
327.925277332686278
  0
ARC
  5
A025
  8
0
 10
4123.1684161454586501
 20
160.8887649656186056
 30
0.0
 40
0.0376029861354309
 50
336.1092707063872922
 51
0.6138216103347112
  0
ARC
  5
A026
  8
0
 10
4122.3876528343607788
 20
160.9387479852942988
 30
0.0
 40
0.8198646587721484
 50
356.5330017931696034
 51
357.9769638876448994
  0
ARC
  5
A027
  8
0
 10
4123.1295323952690524
 20
160.8871659253584028
 30
0.0
 40
0.0360502931115243
 50
235.8870800633526983
 51
312.6788073015467262
  0
ARC
  5
A028
  8
0
 10
4123.1334556257943404
 20
160.8347800596133084
 30
0.0
 40
0.0330270260972603
 50
51.5996477941202016
 51
136.9662395707701137
  0
ARC
  5
A029
  8
0
 10
4123.1521460194808242
 20
161.0615329278406023
 30
0.0
 40
0.0702151414657249
 50
286.260943298549023
 51
315.4366843891289136
  0
ARC
  5
A02A
  8
0
 10
4123.1934123910587005
 20
161.0208908402551913
 30
0.0
 40
0.0122954323281365
 50
315.436684389129482
 51
65.1895372932622053
  0
ARC
  5
A02B
  8
0
 10
4123.1184015405087848
 20
160.8586303091678928
 30
0.0
 40
0.1910553485541025
 50
65.1895372932622053
 51
123.0484960179251033
  0
ARC
  5
A02C
  8
0
 10
4123.0218331693140499
 20
161.0070573689332036
 30
0.0
 40
0.0139789741113734
 50
123.0484960179259986
 51
223.1568057541242069
  0
ARC
  5
A02D
  8
0
 10
4123.0510124759575774
 20
161.045983468423799
 30
0.0
 40
0.0624626587848663
 50
230.9200157854263011
 51
263.8629213858901039
  0
ARC
  5
A02E
  8
0
 10
4123.6502266560391945
 20
161.0483468255854973
 30
0.0
 40
0.6189723784264777
 50
181.8087373478948905
 51
183.7691036812319965
  0
ARC
  5
A02F
  8
0
 10
4123.0701604418127317
 20
161.0114194390542082
 30
0.0
 40
0.0377551864780754
 50
185.7174523312841075
 51
243.6421299455645908
  0
ARC
  5
A030
  8
0
 10
4123.0994008957068218
 20
161.0667345279194933
 30
0.0
 40
0.1003151450689531
 50
242.7042610513315992
 51
284.1163692172173114
  0
ARC
  5
A031
  8
0
 10
4123.1177893410131219
 20
161.040159193197411
 30
0.0
 40
0.0709712389803116
 50
274.9125433826300764
 51
327.925277332686278
  0
ARC
  5
A032
  8
0
 10
4123.1435461225164545
 20
161.0177006758090954
 30
0.0
 40
0.0376029861354309
 50
336.1092707063872922
 51
0.6138216103347112
  0
ARC
  5
A033
  8
0
 10
4122.3627828114204021
 20
161.0676836954847886
 30
0.0
 40
0.8198646587721484
 50
356.5330017931696034
 51
357.9769638876448994
  0
ARC
  5
A034
  8
0
 10
4123.1046623723259472
 20
161.0161016355488925
 30
0.0
 40
0.0360502931115243
 50
235.8870800633526983
 51
312.6788073015467262
  0
ARC
  5
A035
  8
0
 10
4123.1085856028521448
 20
160.9637157698039118
 30
0.0
 40
0.0330270260972603
 50
51.5996477941202016
 51
136.9662395707701137
  0
ARC
  5
A036
  8
0
 10
4123.6667280581659725
 20
161.075269066248012
 30
0.0
 40
0.0702151414657249
 50
286.260943298549023
 51
315.4366843891289136
  0
ARC
  5
A037
  8
0
 10
4123.7079944297456677
 20
161.034626978662601
 30
0.0
 40
0.0122954323281365
 50
315.436684389129482
 51
65.1895372932622053
  0
ARC
  5
A038
  8
0
 10
4123.6329835791939331
 20
160.8723664475753026
 30
0.0
 40
0.1910553485541025
 50
65.1895372932622053
 51
123.0484960179251033
  0
ARC
  5
A039
  8
0
 10
4123.5364152080001077
 20
161.0207935073406134
 30
0.0
 40
0.0139789741113734
 50
123.0484960179259986
 51
223.1568057541242069
  0
ARC
  5
A03A
  8
0
 10
4123.5655945146427257
 20
161.0597196068312087
 30
0.0
 40
0.0624626587848663
 50
230.9200157854263011
 51
263.8629213858901039
  0
ARC
  5
A03B
  8
0
 10
4124.1648086947243428
 20
161.0620829639929923
 30
0.0
 40
0.6189723784264777
 50
181.8087373478948905
 51
183.7691036812319965
  0
ARC
  5
A03C
  8
0
 10
4123.58474248049788
 20
161.0251555774615895
 30
0.0
 40
0.0377551864780754
 50
185.7174523312841075
 51
243.6421299455645908
  0
ARC
  5
A03D
  8
0
 10
4123.6139829343928795
 20
161.080470666326903
 30
0.0
 40
0.1003151450689531
 50
242.7042610513315992
 51
284.1163692172173114
  0
ARC
  5
A03E
  8
0
 10
4123.6323713796991797
 20
161.0538953316047923
 30
0.0
 40
0.0709712389803116
 50
274.9125433826300764
 51
327.925277332686278
  0
ARC
  5
A03F
  8
0
 10
4123.6581281612016028
 20
161.0314368142165051
 30
0.0
 40
0.0376029861354309
 50
336.1092707063872922
 51
0.6138216103347112
  0
ARC
  5
A040
  8
0
 10
4122.8773648501046409
 20
161.0814198338921983
 30
0.0
 40
0.8198646587721484
 50
356.5330017931696034
 51
357.9769638876448994
  0
ARC
  5
A041
  8
0
 10
4123.619244411012005
 20
161.0298377739563023
 30
0.0
 40
0.0360502931115243
 50
235.8870800633526983
 51
312.6788073015467262
  0
ARC
  5
A042
  8
0
 10
4123.6231676415372931
 20
160.9774519082112931
 30
0.0
 40
0.0330270260972603
 50
51.5996477941202016
 51
136.9662395707701137
  0
ARC
  5
A043
  8
0
 10
4123.6023157182407886
 20
161.2208465336622112
 30
0.0
 40
0.0702151414657249
 50
286.260943298549023
 51
315.4366843891289136
  0
ARC
  5
A044
  8
0
 10
4123.6435820898213933
 20
161.1802044460768002
 30
0.0
 40
0.0122954323281365
 50
315.436684389129482
 51
65.1895372932622053
  0
ARC
  5
A045
  8
0
 10
4123.5685712392687492
 20
161.0179439149895018
 30
0.0
 40
0.1910553485541025
 50
65.1895372932622053
 51
123.0484960179251033
  0
ARC
  5
A046
  8
0
 10
4123.4720028680749238
 20
161.1663709747548978
 30
0.0
 40
0.0139789741113734
 50
123.0484960179259986
 51
223.1568057541242069
  0
ARC
  5
A047
  8
0
 10
4123.5011821747184513
 20
161.2052970742454079
 30
0.0
 40
0.0624626587848663
 50
230.9200157854263011
 51
263.8629213858901039
  0
ARC
  5
A048
  8
0
 10
4124.1003963548000684
 20
161.2076604314071915
 30
0.0
 40
0.6189723784264777
 50
181.8087373478948905
 51
183.7691036812319965
  0
ARC
  5
A049
  8
0
 10
4123.5203301405736056
 20
161.1707330448759024
 30
0.0
 40
0.0377551864780754
 50
185.7174523312841075
 51
243.6421299455645908
  0
ARC
  5
A04A
  8
0
 10
4123.5495705944676956
 20
161.2260481337411875
 30
0.0
 40
0.1003151450689531
 50
242.7042610513315992
 51
284.1163692172173114
  0
ARC
  5
A04B
  8
0
 10
4123.5679590397739958
 20
161.1994727990189915
 30
0.0
 40
0.0709712389803116
 50
274.9125433826300764
 51
327.925277332686278
  0
ARC
  5
A04C
  8
0
 10
4123.5937158212773284
 20
161.1770142816307043
 30
0.0
 40
0.0376029861354309
 50
336.1092707063872922
 51
0.6138216103347112
  0
ARC
  5
A04D
  8
0
 10
4122.8129525101803665
 20
161.2269973013063975
 30
0.0
 40
0.8198646587721484
 50
356.5330017931696034
 51
357.9769638876448994
  0
ARC
  5
A04E
  8
0
 10
4123.5548320710868211
 20
161.1754152413705015
 30
0.0
 40
0.0360502931115243
 50
235.8870800633526983
 51
312.6788073015467262
  0
ARC
  5
A04F
  8
0
 10
4123.5587553016130187
 20
161.1230293756254923
 30
0.0
 40
0.0330270260972603
 50
51.5996477941202016
 51
136.9662395707701137
  0
ARC
  5
A050
  8
0
 10
4123.1173267528811266
 20
161.2034162773477988
 30
0.0
 40
0.0702151414657249
 50
286.260943298549023
 51
315.4366843891289136
  0
ARC
  5
A051
  8
0
 10
4123.1585931244599124
 20
161.1627741897623878
 30
0.0
 40
0.0122954323281365
 50
315.436684389129482
 51
65.1895372932622053
  0
ARC
  5
A052
  8
0
 10
4123.0835822739090872
 20
161.0005136586750893
 30
0.0
 40
0.1910553485541025
 50
65.1895372932622053
 51
123.0484960179251033
  0
ARC
  5
A053
  8
0
 10
4122.9870139027143523
 20
161.1489407184404001
 30
0.0
 40
0.0139789741113734
 50
123.0484960179259986
 51
223.1568057541242069
  0
ARC
  5
A054
  8
0
 10
4123.0161932093578798
 20
161.1878668179309955
 30
0.0
 40
0.0624626587848663
 50
230.9200157854263011
 51
263.8629213858901039
  0
ARC
  5
A055
  8
0
 10
4123.6154073894385874
 20
161.1902301750926938
 30
0.0
 40
0.6189723784264777
 50
181.8087373478948905
 51
183.7691036812319965
  0
ARC
  5
A056
  8
0
 10
4123.0353411752130341
 20
161.1533027885614047
 30
0.0
 40
0.0377551864780754
 50
185.7174523312841075
 51
243.6421299455645908
  0
ARC
  5
A057
  8
0
 10
4123.0645816291071242
 20
161.2086178774266898
 30
0.0
 40
0.1003151450689531
 50
242.7042610513315992
 51
284.1163692172173114
  0
ARC
  5
A058
  8
0
 10
4123.0829700744134243
 20
161.1820425427046075
 30
0.0
 40
0.0709712389803116
 50
274.9125433826300764
 51
327.925277332686278
  0
ARC
  5
A059
  8
0
 10
4123.1087268559167569
 20
161.1595840253162919
 30
0.0
 40
0.0376029861354309
 50
336.1092707063872922
 51
0.6138216103347112
  0
ARC
  5
A05A
  8
0
 10
4122.3279635448207046
 20
161.2095670449920135
 30
0.0
 40
0.8198646587721484
 50
356.5330017931696034
 51
357.9769638876448994
  0
ARC
  5
A05B
  8
0
 10
4123.0698431057271591
 20
161.157984985056089
 30
0.0
 40
0.0360502931115243
 50
235.8870800633526983
 51
312.6788073015467262
  0
ARC
  5
A05C
  8
0
 10
4123.0737663362524472
 20
161.1055991193111083
 30
0.0
 40
0.0330270260972603
 50
51.5996477941202016
 51
136.9662395707701137
  0
ARC
  5
A05D
  8
0
 10
4122.8862890535901897
 20
161.3012362605410033
 30
0.0
 40
0.0702151414657249
 50
286.260943298549023
 51
315.4366843891289136
  0
ARC
  5
A05E
  8
0
 10
4122.9275554251689755
 20
161.2605941729555923
 30
0.0
 40
0.0122954323281365
 50
315.436684389129482
 51
65.1895372932622053
  0
ARC
  5
A05F
  8
0
 10
4122.8525445746181504
 20
161.0983336418682939
 30
0.0
 40
0.1910553485541025
 50
65.1895372932622053
 51
123.0484960179251033
  0
ARC
  5
A060
  8
0
 10
4122.7559762034234154
 20
161.2467607016336046
 30
0.0
 40
0.0139789741113734
 50
123.0484960179259986
 51
223.1568057541242069
  0
ARC
  5
A061
  8
0
 10
4122.7851555100678524
 20
161.2856868011242
 30
0.0
 40
0.0624626587848663
 50
230.9200157854263011
 51
263.8629213858901039
  0
ARC
  5
A062
  8
0
 10
4123.38436969014856
 20
161.2880501582858983
 30
0.0
 40
0.6189723784264777
 50
181.8087373478948905
 51
183.7691036812319965
  0
ARC
  5
A063
  8
0
 10
4122.8043034759220973
 20
161.2511227717546092
 30
0.0
 40
0.0377551864780754
 50
185.7174523312841075
 51
243.6421299455645908
  0
ARC
  5
A064
  8
0
 10
4122.8335439298170968
 20
161.3064378606198943
 30
0.0
 40
0.1003151450689531
 50
242.7042610513315992
 51
284.1163692172173114
  0
ARC
  5
A065
  8
0
 10
4122.8519323751215779
 20
161.279862525897812
 30
0.0
 40
0.0709712389803116
 50
274.9125433826300764
 51
327.925277332686278
  0
ARC
  5
A066
  8
0
 10
4122.87768915662582
 20
161.2574040085094964
 30
0.0
 40
0.0376029861354309
 50
336.1092707063872922
 51
0.6138216103347112
  0
ARC
  5
A067
  8
0
 10
4122.0969258455297677
 20
161.3073870281851896
 30
0.0
 40
0.8198646587721484
 50
356.5330017931696034
 51
357.9769638876448994
  0
ARC
  5
A068
  8
0
 10
4122.8388054064362223
 20
161.2558049682492936
 30
0.0
 40
0.0360502931115243
 50
235.8870800633526983
 51
312.6788073015467262
  0
ARC
  5
A069
  8
0
 10
4122.8427286369606009
 20
161.2034191025041991
 30
0.0
 40
0.0330270260972603
 50
51.5996477941202016
 51
136.9662395707701137
  0
ARC
  5
A06A
  8
0
 10
4123.5073906704456022
 20
161.3796952336427069
 30
0.0
 40
0.0702151414657249
 50
286.260943298549023
 51
315.4366843891289136
  0
ARC
  5
A06B
  8
0
 10
4123.5486570420243879
 20
161.3390531460572959
 30
0.0
 40
0.0122954323281365
 50
315.436684389129482
 51
65.1895372932622053
  0
ARC
  5
A06C
  8
0
 10
4123.4736461914726533
 20
161.1767926149699974
 30
0.0
 40
0.1910553485541025
 50
65.1895372932622053
 51
123.0484960179251033
  0
ARC
  5
A06D
  8
0
 10
4123.3770778202779184
 20
161.3252196747353935
 30
0.0
 40
0.0139789741113734
 50
123.0484960179259986
 51
223.1568057541242069
  0
ARC
  5
A06E
  8
0
 10
4123.4062571269232649
 20
161.3641457742259036
 30
0.0
 40
0.0624626587848663
 50
230.9200157854263011
 51
263.8629213858901039
  0
ARC
  5
A06F
  8
0
 10
4124.005471307003063
 20
161.3665091313876871
 30
0.0
 40
0.6189723784264777
 50
181.8087373478948905
 51
183.7691036812319965
  0
ARC
  5
A070
  8
0
 10
4123.4254050927766002
 20
161.329581744856398
 30
0.0
 40
0.0377551864780754
 50
185.7174523312841075
 51
243.6421299455645908
  0
ARC
  5
A071
  8
0
 10
4123.4546455466715997
 20
161.3848968337217116
 30
0.0
 40
0.1003151450689531
 50
242.7042610513315992
 51
284.1163692172173114
  0
ARC
  5
A072
  8
0
 10
4123.4730339919769904
 20
161.3583214989996009
 30
0.0
 40
0.0709712389803116
 50
274.9125433826300764
 51
327.925277332686278
  0
ARC
  5
A073
  8
0
 10
4123.4987907734812325
 20
161.3358629816113137
 30
0.0
 40
0.0376029861354309
 50
336.1092707063872922
 51
0.6138216103347112
  0
ARC
  5
A074
  8
0
 10
4122.7180274623842706
 20
161.3858460012868932
 30
0.0
 40
0.8198646587721484
 50
356.5330017931696034
 51
357.9769638876448994
  0
ARC
  5
A075
  8
0
 10
4123.4599070232907252
 20
161.3342639413511108
 30
0.0
 40
0.0360502931115243
 50
235.8870800633526983
 51
312.6788073015467262
  0
ARC
  5
A076
  8
0
 10
4123.4638302538169228
 20
161.281878075605988
 30
0.0
 40
0.0330270260972603
 50
51.5996477941202016
 51
136.9662395707701137
  0
ARC
  5
A077
  8
0
 10
4123.2945472007104399
 20
161.4701711715264025
 30
0.0
 40
0.0702151414657249
 50
286.260943298549023
 51
315.4366843891289136
  0
ARC
  5
A078
  8
0
 10
4123.3358135722883162
 20
161.4295290839409915
 30
0.0
 40
0.0122954323281365
 50
315.436684389129482
 51
65.1895372932622053
  0
ARC
  5
A079
  8
0
 10
4123.2608027217365816
 20
161.2672685528536931
 30
0.0
 40
0.1910553485541025
 50
65.1895372932622053
 51
123.0484960179251033
  0
ARC
  5
A07A
  8
0
 10
4123.1642343505418467
 20
161.4156956126190892
 30
0.0
 40
0.0139789741113734
 50
123.0484960179259986
 51
223.1568057541242069
  0
ARC
  5
A07B
  8
0
 10
4123.1934136571871932
 20
161.4546217121095992
 30
0.0
 40
0.0624626587848663
 50
230.9200157854263011
 51
263.8629213858901039
  0
ARC
  5
A07C
  8
0
 10
4123.7926278372679008
 20
161.4569850692714112
 30
0.0
 40
0.6189723784264777
 50
181.8087373478948905
 51
183.7691036812319965
  0
ARC
  5
A07D
  8
0
 10
4123.212561623041438
 20
161.4200576827400937
 30
0.0
 40
0.0377551864780754
 50
185.7174523312841075
 51
243.6421299455645908
  0
ARC
  5
A07E
  8
0
 10
4123.2418020769364375
 20
161.4753727716054073
 30
0.0
 40
0.1003151450689531
 50
242.7042610513315992
 51
284.1163692172173114
  0
ARC
  5
A07F
  8
0
 10
4123.2601905222409187
 20
161.4487974368832965
 30
0.0
 40
0.0709712389803116
 50
274.9125433826300764
 51
327.925277332686278
  0
ARC
  5
A080
  8
0
 10
4123.2859473037442513
 20
161.4263389194950093
 30
0.0
 40
0.0376029861354309
 50
336.1092707063872922
 51
0.6138216103347112
  0
ARC
  5
A081
  8
0
 10
4122.5051839926481989
 20
161.4763219391705888
 30
0.0
 40
0.8198646587721484
 50
356.5330017931696034
 51
357.9769638876448994
  0
ARC
  5
A082
  8
0
 10
4123.2470635535546535
 20
161.4247398792346928
 30
0.0
 40
0.0360502931115243
 50
235.8870800633526983
 51
312.6788073015467262
  0
ARC
  5
A083
  8
0
 10
4123.2509867840808511
 20
161.3723540134897121
 30
0.0
 40
0.0330270260972603
 50
51.5996477941202016
 51
136.9662395707701137
  0
ARC
  5
A084
  8
0
 10
4123.4522481816466097
 20
161.7450404515979017
 30
0.0
 40
0.0702151414657249
 50
286.260943298549023
 51
315.4366843891289136
  0
ARC
  5
A085
  8
0
 10
4123.4935145532253955
 20
161.7043983640124907
 30
0.0
 40
0.0122954323281365
 50
315.436684389129482
 51
65.1895372932622053
  0
ARC
  5
A086
  8
0
 10
4123.4185037026745704
 20
161.5421378329251922
 30
0.0
 40
0.1910553485541025
 50
65.1895372932622053
 51
123.0484960179251033
  0
ARC
  5
A087
  8
0
 10
4123.3219353314798354
 20
161.690564892690503
 30
0.0
 40
0.0139789741113734
 50
123.0484960179259986
 51
223.1568057541242069
  0
ARC
  5
A088
  8
0
 10
4123.351114638125182
 20
161.7294909921810984
 30
0.0
 40
0.0624626587848663
 50
230.9200157854263011
 51
263.8629213858901039
  0
ARC
  5
A089
  8
0
 10
4123.9503288182049801
 20
161.7318543493429104
 30
0.0
 40
0.6189723784264777
 50
181.8087373478948905
 51
183.7691036812319965
  0
ARC
  5
A08A
  8
0
 10
4123.3702626039794268
 20
161.6949269628115076
 30
0.0
 40
0.0377551864780754
 50
185.7174523312841075
 51
243.6421299455645908
  0
ARC
  5
A08B
  8
0
 10
4123.3995030578726073
 20
161.7502420516767927
 30
0.0
 40
0.1003151450689531
 50
242.7042610513315992
 51
284.1163692172173114
  0
ARC
  5
A08C
  8
0
 10
4123.4178915031789074
 20
161.7236667169547104
 30
0.0
 40
0.0709712389803116
 50
274.9125433826300764
 51
327.925277332686278
  0
ARC
  5
A08D
  8
0
 10
4123.44364828468224
 20
161.7012081995663948
 30
0.0
 40
0.0376029861354309
 50
336.1092707063872922
 51
0.6138216103347112
  0
ARC
  5
A08E
  8
0
 10
4122.6628849735861877
 20
161.751191219242088
 30
0.0
 40
0.8198646587721484
 50
356.5330017931696034
 51
357.9769638876448994
  0
ARC
  5
A08F
  8
0
 10
4123.4047645344926423
 20
161.6996091593061919
 30
0.0
 40
0.0360502931115243
 50
235.8870800633526983
 51
312.6788073015467262
  0
ARC
  5
A090
  8
0
 10
4123.4086877650170209
 20
161.6472232935612112
 30
0.0
 40
0.0330270260972603
 50
51.5996477941202016
 51
136.9662395707701137
  0
ARC
  5
A091
  8
0
 10
4123.7238625134323229
 20
161.6388341399716069
 30
0.0
 40
0.0702151414657249
 50
286.260943298549023
 51
315.4366843891289136
  0
ARC
  5
A092
  8
0
 10
4123.7651288850101992
 20
161.5981920523861959
 30
0.0
 40
0.0122954323281365
 50
315.436684389129482
 51
65.1895372932622053
  0
ARC
  5
A093
  8
0
 10
4123.690118034459374
 20
161.4359315212988975
 30
0.0
 40
0.1910553485541025
 50
65.1895372932622053
 51
123.0484960179251033
  0
ARC
  5
A094
  8
0
 10
4123.5935496632637296
 20
161.5843585810642082
 30
0.0
 40
0.0139789741113734
 50
123.0484960179259986
 51
223.1568057541242069
  0
ARC
  5
A095
  8
0
 10
4123.6227289699090761
 20
161.6232846805548036
 30
0.0
 40
0.0624626587848663
 50
230.9200157854263011
 51
263.8629213858901039
  0
ARC
  5
A096
  8
0
 10
4124.2219431499888742
 20
161.6256480377165872
 30
0.0
 40
0.6189723784264777
 50
181.8087373478948905
 51
183.7691036812319965
  0
ARC
  5
A097
  8
0
 10
4123.6418769357642304
 20
161.5887206511852128
 30
0.0
 40
0.0377551864780754
 50
185.7174523312841075
 51
243.6421299455645908
  0
ARC
  5
A098
  8
0
 10
4123.6711173896583205
 20
161.6440357400504979
 30
0.0
 40
0.1003151450689531
 50
242.7042610513315992
 51
284.1163692172173114
  0
ARC
  5
A099
  8
0
 10
4123.6895058349628016
 20
161.6174604053283872
 30
0.0
 40
0.0709712389803116
 50
274.9125433826300764
 51
327.925277332686278
  0
ARC
  5
A09A
  8
0
 10
4123.7152626164670437
 20
161.5950018879401
 30
0.0
 40
0.0376029861354309
 50
336.1092707063872922
 51
0.6138216103347112
  0
ARC
  5
A09B
  8
0
 10
4122.9344993053709914
 20
161.6449849076157932
 30
0.0
 40
0.8198646587721484
 50
356.5330017931696034
 51
357.9769638876448994
  0
ARC
  5
A09C
  8
0
 10
4123.6763788662774459
 20
161.5934028476798971
 30
0.0
 40
0.0360502931115243
 50
235.8870800633526983
 51
312.6788073015467262
  0
ARC
  5
A09D
  8
0
 10
4123.6803020968018245
 20
161.541016981934888
 30
0.0
 40
0.0330270260972603
 50
51.5996477941202016
 51
136.9662395707701137
  0
ARC
  5
A09E
  8
0
 10
4123.9209369804666494
 20
161.4636307051871995
 30
0.0
 40
0.0702151414657249
 50
286.260943298549023
 51
315.4366843891289136
  0
ARC
  5
A09F
  8
0
 10
4123.9622033520454352
 20
161.4229886176019022
 30
0.0
 40
0.0122954323281365
 50
315.436684389129482
 51
65.1895372932622053
  0
ARC
  5
A0A0
  8
0
 10
4123.8871925014937005
 20
161.2607280865144901
 30
0.0
 40
0.1910553485541025
 50
65.1895372932622053
 51
123.0484960179251033
  0
ARC
  5
A0A1
  8
0
 10
4123.7906241302989656
 20
161.4091551462798861
 30
0.0
 40
0.0139789741113734
 50
123.0484960179259986
 51
223.1568057541242069
  0
ARC
  5
A0A2
  8
0
 10
4123.8198034369434026
 20
161.4480812457705099
 30
0.0
 40
0.0624626587848663
 50
230.9200157854263011
 51
263.8629213858901039
  0
ARC
  5
A0A3
  8
0
 10
4124.4190176170241102
 20
161.4504446029322082
 30
0.0
 40
0.6189723784264777
 50
181.8087373478948905
 51
183.7691036812319965
  0
ARC
  5
A0A4
  8
0
 10
4123.8389514027976475
 20
161.4135172164008907
 30
0.0
 40
0.0377551864780754
 50
185.7174523312841075
 51
243.6421299455645908
  0
ARC
  5
A0A5
  8
0
 10
4123.868191856692647
 20
161.4688323052662042
 30
0.0
 40
0.1003151450689531
 50
242.7042610513315992
 51
284.1163692172173114
  0
ARC
  5
A0A6
  8
0
 10
4123.8865803019989471
 20
161.4422569705440935
 30
0.0
 40
0.0709712389803116
 50
274.9125433826300764
 51
327.925277332686278
  0
ARC
  5
A0A7
  8
0
 10
4123.9123370835022797
 20
161.4197984531558063
 30
0.0
 40
0.0376029861354309
 50
336.1092707063872922
 51
0.6138216103347112
  0
ARC
  5
A0A8
  8
0
 10
4123.1315737724053179
 20
161.4697814728314995
 30
0.0
 40
0.8198646587721484
 50
356.5330017931696034
 51
357.9769638876448994
  0
ARC
  5
A0A9
  8
0
 10
4123.8734533333117724
 20
161.4181994128956035
 30
0.0
 40
0.0360502931115243
 50
235.8870800633526983
 51
312.6788073015467262
  0
ARC
  5
A0AA
  8
0
 10
4123.87737656383797
 20
161.3658135471505091
 30
0.0
 40
0.0330270260972603
 50
51.5996477941202016
 51
136.9662395707701137
  0
ARC
  5
A0AB
  8
0
 10
4124.0561697689672656
 20
161.2984999355986986
 30
0.0
 40
0.0702151414657249
 50
286.260943298549023
 51
315.4366843891289136
  0
ARC
  5
A0AC
  8
0
 10
4124.0974361405460513
 20
161.2578578480132876
 30
0.0
 40
0.0122954323281365
 50
315.436684389129482
 51
65.1895372932622053
  0
ARC
  5
A0AD
  8
0
 10
4124.0224252899943167
 20
161.0955973169259892
 30
0.0
 40
0.1910553485541025
 50
65.1895372932622053
 51
123.0484960179251033
  0
ARC
  5
A0AE
  8
0
 10
4123.9258569187995818
 20
161.2440243766914136
 30
0.0
 40
0.0139789741113734
 50
123.0484960179259986
 51
223.1568057541242069
  0
ARC
  5
A0AF
  8
0
 10
4123.9550362254440188
 20
161.2829504761818953
 30
0.0
 40
0.0624626587848663
 50
230.9200157854263011
 51
263.8629213858901039
  0
ARC
  5
A0B0
  8
0
 10
4124.5542504055256359
 20
161.2853138333437073
 30
0.0
 40
0.6189723784264777
 50
181.8087373478948905
 51
183.7691036812319965
  0
ARC
  5
A0B1
  8
0
 10
4123.9741841913000826
 20
161.2483864468123897
 30
0.0
 40
0.0377551864780754
 50
185.7174523312841075
 51
243.6421299455645908
  0
ARC
  5
A0B2
  8
0
 10
4124.0034246451932631
 20
161.3037015356777033
 30
0.0
 40
0.1003151450689531
 50
242.7042610513315992
 51
284.1163692172173114
  0
ARC
  5
A0B3
  8
0
 10
4124.0218130904986538
 20
161.2771262009555926
 30
0.0
 40
0.0709712389803116
 50
274.9125433826300764
 51
327.925277332686278
  0
ARC
  5
A0B4
  8
0
 10
4124.0475698720028959
 20
161.2546676835673054
 30
0.0
 40
0.0376029861354309
 50
336.1092707063872922
 51
0.6138216103347112
  0
ARC
  5
A0B5
  8
0
 10
4123.266806560905934
 20
161.3046507032429133
 30
0.0
 40
0.8198646587721484
 50
356.5330017931696034
 51
357.9769638876448994
  0
ARC
  5
A0B6
  8
0
 10
4124.0086861218123886
 20
161.2530686433071025
 30
0.0
 40
0.0360502931115243
 50
235.8870800633526983
 51
312.6788073015467262
  0
ARC
  5
A0B7
  8
0
 10
4124.0126093523367672
 20
161.2006827775620081
 30
0.0
 40
0.0330270260972603
 50
51.5996477941202016
 51
136.9662395707701137
  0
ARC
  5
A0B8
  8
0
 10
4124.3057615008865469
 20
161.5788394514941047
 30
0.0
 40
0.0702151414657249
 50
286.260943298549023
 51
315.4366843891289136
  0
ARC
  5
A0B9
  8
0
 10
4124.3470278724662421
 20
161.5381973639086937
 30
0.0
 40
0.0122954323281365
 50
315.436684389129482
 51
65.1895372932622053
  0
ARC
  5
A0BA
  8
0
 10
4124.272017021915417
 20
161.3759368328213952
 30
0.0
 40
0.1910553485541025
 50
65.1895372932622053
 51
123.0484960179251033
  0
ARC
  5
A0BB
  8
0
 10
4124.1754486507197726
 20
161.5243638925867913
 30
0.0
 40
0.0139789741113734
 50
123.0484960179259986
 51
223.1568057541242069
  0
ARC
  5
A0BC
  8
0
 10
4124.2046279573642096
 20
161.5632899920773013
 30
0.0
 40
0.0624626587848663
 50
230.9200157854263011
 51
263.8629213858901039
  0
ARC
  5
A0BD
  8
0
 10
4124.8038421374449172
 20
161.5656533492391134
 30
0.0
 40
0.6189723784264777
 50
181.8087373478948905
 51
183.7691036812319965
  0
ARC
  5
A0BE
  8
0
 10
4124.2237759232193639
 20
161.5287259627077106
 30
0.0
 40
0.0377551864780754
 50
185.7174523312841075
 51
243.6421299455645908
  0
ARC
  5
A0BF
  8
0
 10
4124.2530163771134539
 20
161.5840410515731094
 30
0.0
 40
0.1003151450689531
 50
242.7042610513315992
 51
284.1163692172173114
  0
ARC
  5
A0C0
  8
0
 10
4124.2714048224197541
 20
161.5574657168509134
 30
0.0
 40
0.0709712389803116
 50
274.9125433826300764
 51
327.925277332686278
  0
ARC
  5
A0C1
  8
0
 10
4124.2971616039230867
 20
161.5350071994625978
 30
0.0
 40
0.0376029861354309
 50
336.1092707063872922
 51
0.6138216103347112
  0
ARC
  5
A0C2
  8
0
 10
4123.5163982928261248
 20
161.584990219138291
 30
0.0
 40
0.8198646587721484
 50
356.5330017931696034
 51
357.9769638876448994
  0
ARC
  5
A0C3
  8
0
 10
4124.2582778537325794
 20
161.5334081592023949
 30
0.0
 40
0.0360502931115243
 50
235.8870800633526983
 51
312.6788073015467262
  0
ARC
  5
A0C4
  8
0
 10
4124.262201084258777
 20
161.4810222934574142
 30
0.0
 40
0.0330270260972603
 50
51.5996477941202016
 51
136.9662395707701137
  0
ARC
  5
A0C5
  8
0
 10
4124.0686878978276582
 20
161.7547153245920128
 30
0.0
 40
0.0702151414657249
 50
286.260943298549023
 51
315.4366843891289136
  0
ARC
  5
A0C6
  8
0
 10
4124.1099542694073534
 20
161.7140732370064882
 30
0.0
 40
0.0122954323281365
 50
315.436684389129482
 51
65.1895372932622053
  0
ARC
  5
A0C7
  8
0
 10
4124.0349434188556188
 20
161.5518127059193034
 30
0.0
 40
0.1910553485541025
 50
65.1895372932622053
 51
123.0484960179251033
  0
ARC
  5
A0C8
  8
0
 10
4123.9383750476617934
 20
161.7002397656845858
 30
0.0
 40
0.0139789741113734
 50
123.0484960179259986
 51
223.1568057541242069
  0
ARC
  5
A0C9
  8
0
 10
4123.9675543543062304
 20
161.7391658651752095
 30
0.0
 40
0.0624626587848663
 50
230.9200157854263011
 51
263.8629213858901039
  0
ARC
  5
A0CA
  8
0
 10
4124.5667685343860285
 20
161.7415292223369931
 30
0.0
 40
0.6189723784264777
 50
181.8087373478948905
 51
183.7691036812319965
  0
ARC
  5
A0CB
  8
0
 10
4123.9867023201613847
 20
161.7046018358055903
 30
0.0
 40
0.0377551864780754
 50
185.7174523312841075
 51
243.6421299455645908
  0
ARC
  5
A0CC
  8
0
 10
4124.0159427740563842
 20
161.7599169246709039
 30
0.0
 40
0.1003151450689531
 50
242.7042610513315992
 51
284.1163692172173114
  0
ARC
  5
A0CD
  8
0
 10
4124.0343312193608654
 20
161.7333415899487932
 30
0.0
 40
0.0709712389803116
 50
274.9125433826300764
 51
327.925277332686278
  0
ARC
  5
A0CE
  8
0
 10
4124.060088000864198
 20
161.710883072560506
 30
0.0
 40
0.0376029861354309
 50
336.1092707063872922
 51
0.6138216103347112
  0
ARC
  5
A0CF
  8
0
 10
4123.2793246897681456
 20
161.7608660922361992
 30
0.0
 40
0.8198646587721484
 50
356.5330017931696034
 51
357.9769638876448994
  0
ARC
  5
A0D0
  8
0
 10
4124.0212042506736907
 20
161.7092840323001894
 30
0.0
 40
0.0360502931115243
 50
235.8870800633526983
 51
312.6788073015467262
  0
ARC
  5
A0D1
  8
0
 10
4124.0251274811998883
 20
161.6568981665552087
 30
0.0
 40
0.0330270260972603
 50
51.5996477941202016
 51
136.9662395707701137
  0
ARC
  5
A0D2
  8
0
 10
4123.7258116708499074
 20
161.9228252857892016
 30
0.0
 40
0.0702151414657249
 50
286.260943298549023
 51
315.4366843891289136
  0
ARC
  5
A0D3
  8
0
 10
4123.7670780424286932
 20
161.8821831982039043
 30
0.0
 40
0.0122954323281365
 50
315.436684389129482
 51
65.1895372932622053
  0
ARC
  5
A0D4
  8
0
 10
4123.6920671918769585
 20
161.7199226671166059
 30
0.0
 40
0.1910553485541025
 50
65.1895372932622053
 51
123.0484960179251033
  0
ARC
  5
A0D5
  8
0
 10
4123.5954988206831331
 20
161.8683497268818883
 30
0.0
 40
0.0139789741113734
 50
123.0484960179259986
 51
223.1568057541242069
  0
ARC
  5
A0D6
  8
0
 10
4123.6246781273266606
 20
161.9072758263723983
 30
0.0
 40
0.0624626587848663
 50
230.9200157854263011
 51
263.8629213858901039
  0
ARC
  5
A0D7
  8
0
 10
4124.2238923074082777
 20
161.9096391835342104
 30
0.0
 40
0.6189723784264777
 50
181.8087373478948905
 51
183.7691036812319965
  0
ARC
  5
A0D8
  8
0
 10
4123.6438260931809054
 20
161.8727117970028928
 30
0.0
 40
0.0377551864780754
 50
185.7174523312841075
 51
243.6421299455645908
  0
ARC
  5
A0D9
  8
0
 10
4123.673066547075905
 20
161.9280268858682064
 30
0.0
 40
0.1003151450689531
 50
242.7042610513315992
 51
284.1163692172173114
  0
ARC
  5
A0DA
  8
0
 10
4123.6914549923822051
 20
161.9014515511460957
 30
0.0
 40
0.0709712389803116
 50
274.9125433826300764
 51
327.925277332686278
  0
ARC
  5
A0DB
  8
0
 10
4123.7172117738846282
 20
161.8789930337578085
 30
0.0
 40
0.0376029861354309
 50
336.1092707063872922
 51
0.6138216103347112
  0
ARC
  5
A0DC
  8
0
 10
4122.9364484627885759
 20
161.9289760534335016
 30
0.0
 40
0.8198646587721484
 50
356.5330017931696034
 51
357.9769638876448994
  0
ARC
  5
A0DD
  8
0
 10
4123.6783280236959399
 20
161.8773939934976056
 30
0.0
 40
0.0360502931115243
 50
235.8870800633526983
 51
312.6788073015467262
  0
ARC
  5
A0DE
  8
0
 10
4123.682251254221228
 20
161.8250081277525112
 30
0.0
 40
0.0330270260972603
 50
51.5996477941202016
 51
136.9662395707701137
  0
ARC
  5
A0DF
  8
0
 10
4123.5102653618332624
 20
162.182505407828387
 30
0.0
 40
0.0702151414657249
 50
286.260943298549023
 51
315.4366843891289136
  0
ARC
  5
A0E0
  8
0
 10
4123.5515317334111387
 20
162.1418633202430044
 30
0.0
 40
0.0122954323281365
 50
315.436684389129482
 51
65.1895372932622053
  0
ARC
  5
A0E1
  8
0
 10
4123.4765208828612231
 20
161.979602789155706
 30
0.0
 40
0.1910553485541025
 50
65.1895372932622053
 51
123.0484960179251033
  0
ARC
  5
A0E2
  8
0
 10
4123.3799525116655786
 20
162.1280298489209883
 30
0.0
 40
0.0139789741113734
 50
123.0484960179259986
 51
223.1568057541242069
  0
ARC
  5
A0E3
  8
0
 10
4123.4091318183109252
 20
162.1669559484116121
 30
0.0
 40
0.0624626587848663
 50
230.9200157854263011
 51
263.8629213858901039
  0
ARC
  5
A0E4
  8
0
 10
4124.0083459983907233
 20
162.1693193055733957
 30
0.0
 40
0.6189723784264777
 50
181.9707885487636929
 51
183.7691036812319965
  0
ARC
  5
A0E5
  8
0
 10
4123.428279784166989
 20
162.1323919190419929
 30
0.0
 40
0.0377551864780754
 50
185.7174523312841075
 51
243.6421299455645908
  0
ARC
  5
A0E6
  8
0
 10
4123.4575202380601695
 20
162.1877070079073064
 30
0.0
 40
0.1003151450689531
 50
242.7042610513315992
 51
284.1163692172173114
  0
ARC
  5
A0E7
  8
0
 10
4123.4759086833646506
 20
162.1611316731851957
 30
0.0
 40
0.0709712389803116
 50
274.9125433826300764
 51
327.925277332686278
  0
ARC
  5
A0E8
  8
0
 10
4123.5016654648688927
 20
162.1386731557969085
 30
0.0
 40
0.0376029861354309
 50
336.1092707063872922
 51
0.6138216103347112
  0
ARC
  5
A0E9
  8
0
 10
4122.7209021537728404
 20
162.1886561754726017
 30
0.0
 40
0.8198646587721484
 50
356.5330017931696034
 51
357.9769638876448994
  0
ARC
  5
A0EA
  8
0
 10
4123.462781714679295
 20
162.1370741155367057
 30
0.0
 40
0.0360502931115243
 50
235.8870800633526983
 51
312.6788073015467262
  0
ARC
  5
A0EB
  8
0
 10
4123.4667049452036736
 20
162.0846882497916965
 30
0.0
 40
0.0330270260972603
 50
51.5996477941202016
 51
136.9662395707701137
  0
ARC
  5
A0EC
  8
0
 10
4123.2966169500832621
 20
162.022586376078408
 30
0.0
 40
0.0702151414657249
 50
286.260943298549023
 51
315.4366843891289136
  0
ARC
  5
A0ED
  8
0
 10
4123.3378833216620478
 20
161.981944288492997
 30
0.0
 40
0.0122954323281365
 50
315.436684389129482
 51
65.1895372932622053
  0
ARC
  5
A0EE
  8
0
 10
4123.2628724711112227
 20
161.8196837574056985
 30
0.0
 40
0.1910553485541025
 50
65.1895372932622053
 51
123.0484960179251033
  0
ARC
  5
A0EF
  8
0
 10
4123.1663040999173973
 20
161.9681108171710946
 30
0.0
 40
0.0139789741113734
 50
123.0484960179259986
 51
223.1568057541242069
  0
ARC
  5
A0F0
  8
0
 10
4123.1954834065600153
 20
162.0070369166616047
 30
0.0
 40
0.0624626587848663
 50
230.9200157854263011
 51
263.8629213858901039
  0
ARC
  5
A0F1
  8
0
 10
4123.7946975866407229
 20
162.0094002738233883
 30
0.0
 40
0.6189723784264777
 50
181.8087373478948905
 51
183.7691036812319965
  0
ARC
  5
A0F2
  8
0
 10
4123.2146313724160791
 20
161.9724728872920991
 30
0.0
 40
0.0377551864780754
 50
185.7174523312841075
 51
243.6421299455645908
  0
ARC
  5
A0F3
  8
0
 10
4123.2438718263101691
 20
162.0277879761574127
 30
0.0
 40
0.1003151450689531
 50
242.7042610513315992
 51
284.1163692172173114
  0
ARC
  5
A0F4
  8
0
 10
4123.2622602716146503
 20
162.0012126414351883
 30
0.0
 40
0.0709712389803116
 50
274.9125433826300764
 51
327.925277332686278
  0
ARC
  5
A0F5
  8
0
 10
4123.2880170531188924
 20
161.9787541240469011
 30
0.0
 40
0.0376029861354309
 50
336.1092707063872922
 51
0.6138216103347112
  0
ARC
  5
A0F6
  8
0
 10
4122.50725374202284
 20
162.0287371437225943
 30
0.0
 40
0.8198646587721484
 50
356.5330017931696034
 51
357.9769638876448994
  0
ARC
  5
A0F7
  8
0
 10
4123.2491333029292946
 20
161.9771550837866982
 30
0.0
 40
0.0360502931115243
 50
235.8870800633526983
 51
312.6788073015467262
  0
ARC
  5
A0F8
  8
0
 10
4123.2530565334545827
 20
161.9247692180416891
 30
0.0
 40
0.0330270260972603
 50
51.5996477941202016
 51
136.9662395707701137
  0
ARC
  5
A0F9
  8
0
 10
4124.019413059643739
 20
162.0534906409284019
 30
0.0
 40
0.0702151414657249
 50
286.260943298549023
 51
315.4366843891289136
  0
ARC
  5
A0FA
  8
0
 10
4124.0606794312234342
 20
162.012848553342991
 30
0.0
 40
0.0122954323281365
 50
315.436684389129482
 51
65.1895372932622053
  0
ARC
  5
A0FB
  8
0
 10
4123.9856685806716996
 20
161.8505880222556925
 30
0.0
 40
0.1910553485541025
 50
65.1895372932622053
 51
123.0484960179251033
  0
ARC
  5
A0FC
  8
0
 10
4123.8891002094778742
 20
161.9990150820210886
 30
0.0
 40
0.0139789741113734
 50
123.0484960179259986
 51
223.1568057541242069
  0
ARC
  5
A0FD
  8
0
 10
4123.9182795161223112
 20
162.0379411815115986
 30
0.0
 40
0.0624626587848663
 50
230.9200157854263011
 51
263.8629213858901039
  0
ARC
  5
A0FE
  8
0
 10
4124.5174936962030188
 20
162.0403045386734107
 30
0.0
 40
0.6189723784264777
 50
181.8087373478948905
 51
183.7691036812319965
  0
ARC
  5
A0FF
  8
0
 10
4123.9374274819756465
 20
162.0033771521420931
 30
0.0
 40
0.0377551864780754
 50
185.7174523312841075
 51
243.6421299455645908
  0
ARC
  5
A100
  8
0
 10
4123.966667935870646
 20
162.058692241007293
 30
0.0
 40
0.1003151450689531
 50
242.7042610513315992
 51
284.1163692172173114
  0
ARC
  5
A101
  8
0
 10
4123.9850563811769462
 20
162.0321169062852107
 30
0.0
 40
0.0709712389803116
 50
274.9125433826300764
 51
327.925277332686278
  0
ARC
  5
A102
  8
0
 10
4124.0108131626802788
 20
162.0096583888970088
 30
0.0
 40
0.0376029861354309
 50
336.1092707063872922
 51
0.6138216103347112
  0
ARC
  5
A103
  8
0
 10
4123.2300498515842264
 20
162.0596414085725883
 30
0.0
 40
0.8198646587721484
 50
356.5330017931696034
 51
357.9769638876448994
  0
ARC
  5
A104
  8
0
 10
4123.971929412490681
 20
162.0080593486366922
 30
0.0
 40
0.0360502931115243
 50
235.8870800633526983
 51
312.6788073015467262
  0
ARC
  5
A105
  8
0
 10
4123.9758526430159691
 20
161.9556734828917115
 30
0.0
 40
0.0330270260972603
 50
51.5996477941202016
 51
136.9662395707701137
  0
ARC
  5
A106
  8
0
 10
4124.3883604558832303
 20
161.8888693647784009
 30
0.0
 40
0.0702151414657249
 50
286.260943298549023
 51
315.4366843891289136
  0
ARC
  5
A107
  8
0
 10
4124.4296268274620161
 20
161.84822727719299
 30
0.0
 40
0.0122954323281365
 50
315.436684389129482
 51
65.1895372932622053
  0
ARC
  5
A108
  8
0
 10
4124.354615976911191
 20
161.6859667461056915
 30
0.0
 40
0.1910553485541025
 50
65.1895372932622053
 51
123.0484960179251033
  0
ARC
  5
A109
  8
0
 10
4124.2580476057155465
 20
161.8343938058710876
 30
0.0
 40
0.0139789741113734
 50
123.0484960179259986
 51
223.1568057541242069
  0
ARC
  5
A10A
  8
0
 10
4124.2872269123599835
 20
161.8733199053615976
 30
0.0
 40
0.0624626587848663
 50
230.9200157854263011
 51
263.8629213858901039
  0
ARC
  5
A10B
  8
0
 10
4124.8864410924406911
 20
161.8756832625234097
 30
0.0
 40
0.6189723784264777
 50
181.8087373478948905
 51
183.7691036812319965
  0
ARC
  5
A10C
  8
0
 10
4124.3063748782160474
 20
161.8387558759920921
 30
0.0
 40
0.0377551864780754
 50
185.7174523312841075
 51
243.6421299455645908
  0
ARC
  5
A10D
  8
0
 10
4124.3356153321101374
 20
161.894070964857292
 30
0.0
 40
0.1003151450689531
 50
242.7042610513315992
 51
284.1163692172173114
  0
ARC
  5
A10E
  8
0
 10
4124.3540037774146185
 20
161.8674956301352097
 30
0.0
 40
0.0709712389803116
 50
274.9125433826300764
 51
327.925277332686278
  0
ARC
  5
A10F
  8
0
 10
4124.3797605589188606
 20
161.8450371127470078
 30
0.0
 40
0.0376029861354309
 50
336.1092707063872922
 51
0.6138216103347112
  0
ARC
  5
A110
  8
0
 10
4123.5989972478228083
 20
161.8950201324225873
 30
0.0
 40
0.8198646587721484
 50
356.5330017931696034
 51
357.9769638876448994
  0
ARC
  5
A111
  8
0
 10
4124.3408768087292628
 20
161.8434380724866912
 30
0.0
 40
0.0360502931115243
 50
235.8870800633526983
 51
312.6788073015467262
  0
ARC
  5
A112
  8
0
 10
4124.3448000392545509
 20
161.7910522067417105
 30
0.0
 40
0.0330270260972603
 50
51.5996477941202016
 51
136.9662395707701137
  0
ARC
  5
A113
  8
0
 10
4124.3059229561868051
 20
162.2018583486645866
 30
0.0
 40
0.0702151414657249
 50
286.260943298549023
 51
315.4366843891289136
  0
ARC
  5
A114
  8
0
 10
4124.3471893277655909
 20
162.1612162610792041
 30
0.0
 40
0.0122954323281365
 50
315.436684389129482
 51
65.1895372932622053
  0
ARC
  5
A115
  8
0
 10
4124.2721784772147657
 20
161.9989557299919056
 30
0.0
 40
0.1910553485541025
 50
65.1895372932622053
 51
123.0484960179251033
  0
ARC
  5
A116
  8
0
 10
4124.1756101060200308
 20
162.1473827897573017
 30
0.0
 40
0.0139789741113734
 50
123.0484960179259986
 51
223.1568057541242069
  0
ARC
  5
A117
  8
0
 10
4124.2047894126635583
 20
162.1863088892478117
 30
0.0
 40
0.0624626587848663
 50
230.9200157854263011
 51
263.8629213858901039
  0
ARC
  5
A118
  8
0
 10
4124.8040035927451754
 20
162.1886722464095953
 30
0.0
 40
0.6189723784264777
 50
181.8087373478948905
 51
183.7691036812319965
  0
ARC
  5
A119
  8
0
 10
4124.2239373785187126
 20
162.1517448598783062
 30
0.0
 40
0.0377551864780754
 50
185.7174523312841075
 51
243.6421299455645908
  0
ARC
  5
A11A
  8
0
 10
4124.2531778324137122
 20
162.2070599487435913
 30
0.0
 40
0.1003151450689531
 50
242.7042610513315992
 51
284.1163692172173114
  0
ARC
  5
A11B
  8
0
 10
4124.2715662777191028
 20
162.1804846140213954
 30
0.0
 40
0.0709712389803116
 50
274.9125433826300764
 51
327.925277332686278
  0
ARC
  5
A11C
  8
0
 10
4124.2973230592233449
 20
162.1580260966331082
 30
0.0
 40
0.0376029861354309
 50
336.1092707063872922
 51
0.6138216103347112
  0
ARC
  5
A11D
  8
0
 10
4123.5165597481263831
 20
162.2080091163088014
 30
0.0
 40
0.8198646587721484
 50
356.5330017931696034
 51
357.9769638876448994
  0
ARC
  5
A11E
  8
0
 10
4124.2584393090328376
 20
162.1564270563729053
 30
0.0
 40
0.0360502931115243
 50
235.8870800633526983
 51
312.6788073015467262
  0
ARC
  5
A11F
  8
0
 10
4124.2623625395581257
 20
162.1040411906278962
 30
0.0
 40
0.0330270260972603
 50
51.5996477941202016
 51
136.9662395707701137
  0
ARC
  5
A120
  8
0
 10
4124.0543899285339648
 20
162.477693577428397
 30
0.0
 40
0.0702151414657249
 50
286.260943298549023
 51
315.4366843891289136
  0
ARC
  5
A121
  8
0
 10
4124.0956563001118411
 20
162.437051489842986
 30
0.0
 40
0.0122954323281365
 50
315.436684389129482
 51
65.1895372932622053
  0
ARC
  5
A122
  8
0
 10
4124.020645449561016
 20
162.2747909587556876
 30
0.0
 40
0.1910553485541025
 50
65.1895372932622053
 51
123.0484960179251033
  0
ARC
  5
A123
  8
0
 10
4123.9240770783662811
 20
162.4232180185211121
 30
0.0
 40
0.0139789741113734
 50
123.0484960179259986
 51
223.1568057541242069
  0
ARC
  5
A124
  8
0
 10
4123.9532563850098086
 20
162.4621441180115937
 30
0.0
 40
0.0624626587848663
 50
230.9200157854263011
 51
263.8629213858901039
  0
ARC
  5
A125
  8
0
 10
4124.5524705650914257
 20
162.4645074751734057
 30
0.0
 40
0.6189723784264777
 50
181.9707885487636929
 51
183.7691036812319965
  0
ARC
  5
A126
  8
0
 10
4123.9724043508649629
 20
162.4275800886420882
 30
0.0
 40
0.0377551864780754
 50
185.7174523312841075
 51
243.6421299455645908
  0
ARC
  5
A127
  8
0
 10
4124.0016448047590529
 20
162.4828951775072881
 30
0.0
 40
0.1003151450689531
 50
242.7042610513315992
 51
284.1163692172173114
  0
ARC
  5
A128
  8
0
 10
4124.0200332500662626
 20
162.4563198427852058
 30
0.0
 40
0.0709712389803116
 50
274.9125433826300764
 51
327.925277332686278
  0
ARC
  5
A129
  8
0
 10
4124.0457900315677762
 20
162.4338613253968902
 30
0.0
 40
0.0376029861354309
 50
336.1092707063872922
 51
0.6138216103347112
  0
ARC
  5
A12A
  8
0
 10
4123.2650267204717238
 20
162.4838443450726118
 30
0.0
 40
0.8198646587721484
 50
356.5330017931696034
 51
357.9769638876448994
  0
ARC
  5
A12B
  8
0
 10
4124.0069062813790879
 20
162.4322622851366873
 30
0.0
 40
0.0360502931115243
 50
235.8870800633526983
 51
312.6788073015467262
  0
ARC
  5
A12C
  8
0
 10
4124.010829511904376
 20
162.3798764193917066
 30
0.0
 40
0.0330270260972603
 50
51.5996477941202016
 51
136.9662395707701137
  0
ARC
  5
A12D
  8
0
 10
4123.7786848937830655
 20
162.3298025254784136
 30
0.0
 40
0.0702151414657249
 50
286.260943298549023
 51
315.4366843891289136
  0
ARC
  5
A12E
  8
0
 10
4123.8199512653627608
 20
162.2891604378930026
 30
0.0
 40
0.0122954323281365
 50
315.436684389129482
 51
65.1895372932622053
  0
ARC
  5
A12F
  8
0
 10
4123.7449404148110261
 20
162.1268999068057042
 30
0.0
 40
0.1910553485541025
 50
65.1895372932622053
 51
123.0484960179251033
  0
ARC
  5
A130
  8
0
 10
4123.6483720436162912
 20
162.2753269665711002
 30
0.0
 40
0.0139789741113734
 50
123.0484960179259986
 51
223.1568057541242069
  0
ARC
  5
A131
  8
0
 10
4123.6775513502607282
 20
162.3142530660616103
 30
0.0
 40
0.0624626587848663
 50
230.9200157854263011
 51
263.8629213858901039
  0
ARC
  5
A132
  8
0
 10
4124.2767655303423453
 20
162.3166164232233939
 30
0.0
 40
0.6189723784264777
 50
181.9707885487636929
 51
183.7691036812319965
  0
ARC
  5
A133
  8
0
 10
4123.696699316114973
 20
162.2796890366919911
 30
0.0
 40
0.0377551864780754
 50
185.7174523312841075
 51
243.6421299455645908
  0
ARC
  5
A134
  8
0
 10
4123.7259397700099726
 20
162.3350041255573899
 30
0.0
 40
0.1003151450689531
 50
242.7042610513315992
 51
284.1163692172173114
  0
ARC
  5
A135
  8
0
 10
4123.7443282153162727
 20
162.3084287908351939
 30
0.0
 40
0.0709712389803116
 50
274.9125433826300764
 51
327.925277332686278
  0
ARC
  5
A136
  8
0
 10
4123.7700849968177863
 20
162.2859702734469067
 30
0.0
 40
0.0376029861354309
 50
336.1092707063872922
 51
0.6138216103347112
  0
ARC
  5
A137
  8
0
 10
4122.989321685721734
 20
162.3359532931225999
 30
0.0
 40
0.8198646587721484
 50
356.5330017931696034
 51
357.9769638876448994
  0
ARC
  5
A138
  8
0
 10
4123.731201246629098
 20
162.2843712331867039
 30
0.0
 40
0.0360502931115243
 50
235.8870800633526983
 51
312.6788073015467262
  0
ARC
  5
A139
  8
0
 10
4123.7351244771543861
 20
162.2319853674416947
 30
0.0
 40
0.0330270260972603
 50
51.5996477941202016
 51
136.9662395707701137
  0
ARC
  5
A13A
  8
0
 10
4122.8862889852343869
 20
162.1940069212284072
 30
0.0
 40
0.0702151414657249
 50
286.260943298549023
 51
315.4366843891289136
  0
ARC
  5
A13B
  8
0
 10
4122.9275553568122632
 20
162.1533648336429962
 30
0.0
 40
0.0122954323281365
 50
315.436684389129482
 51
65.1895372932622053
  0
ARC
  5
A13C
  8
0
 10
4122.8525445062614381
 20
161.9911043025556978
 30
0.0
 40
0.1910553485541025
 50
65.1895372932622053
 51
123.0484960179251033
  0
ARC
  5
A13D
  8
0
 10
4122.7559761350657936
 20
162.1395313623210939
 30
0.0
 40
0.0139789741113734
 50
123.0484960179259986
 51
223.1568057541242069
  0
ARC
  5
A13E
  8
0
 10
4122.7851554417111402
 20
162.1784574618116039
 30
0.0
 40
0.0624626587848663
 50
230.9200157854263011
 51
263.8629213858901039
  0
ARC
  5
A13F
  8
0
 10
4123.3843696217909383
 20
162.1808208189733875
 30
0.0
 40
0.6189723784264777
 50
181.8087373478948905
 51
183.7691036812319965
  0
ARC
  5
A140
  8
0
 10
4122.804303407565385
 20
162.1438934324420984
 30
0.0
 40
0.0377551864780754
 50
185.7174523312841075
 51
243.6421299455645908
  0
ARC
  5
A141
  8
0
 10
4122.8335438614603845
 20
162.199208521307412
 30
0.0
 40
0.1003151450689531
 50
242.7042610513315992
 51
284.1163692172173114
  0
ARC
  5
A142
  8
0
 10
4122.8519323067648656
 20
162.1726331865851876
 30
0.0
 40
0.0709712389803116
 50
274.9125433826300764
 51
327.925277332686278
  0
ARC
  5
A143
  8
0
 10
4122.8776890882691077
 20
162.1501746691969004
 30
0.0
 40
0.0376029861354309
 50
336.1092707063872922
 51
0.6138216103347112
  0
ARC
  5
A144
  8
0
 10
4122.0969257771739649
 20
162.2001576888725936
 30
0.0
 40
0.8198646587721484
 50
356.5330017931696034
 51
357.9769638876448994
  0
ARC
  5
A145
  8
0
 10
4122.8388053380786005
 20
162.1485756289366975
 30
0.0
 40
0.0360502931115243
 50
235.8870800633526983
 51
312.6788073015467262
  0
ARC
  5
A146
  8
0
 10
4122.8427285686038886
 20
162.0961897631916884
 30
0.0
 40
0.0330270260972603
 50
51.5996477941202016
 51
136.9662395707701137
  0
ARC
  5
A147
  8
0
 10
4123.1217932124827712
 20
162.360203411478409
 30
0.0
 40
0.0702151414657249
 50
286.260943298549023
 51
315.4366843891289136
  0
ARC
  5
A148
  8
0
 10
4123.163059584061557
 20
162.319561323892998
 30
0.0
 40
0.0122954323281365
 50
315.436684389129482
 51
65.1895372932622053
  0
ARC
  5
A149
  8
0
 10
4123.0880487335116413
 20
162.1573007928056995
 30
0.0
 40
0.1910553485541025
 50
65.1895372932622053
 51
123.0484960179251033
  0
ARC
  5
A14A
  8
0
 10
4122.9914803623159969
 20
162.3057278525710956
 30
0.0
 40
0.0139789741113734
 50
123.0484960179259986
 51
223.1568057541242069
  0
ARC
  5
A14B
  8
0
 10
4123.0206596689613434
 20
162.3446539520616057
 30
0.0
 40
0.0624626587848663
 50
230.9200157854263011
 51
263.8629213858901039
  0
ARC
  5
A14C
  8
0
 10
4123.619873849042051
 20
162.3470173092233892
 30
0.0
 40
0.6189723784264777
 50
181.8087373478948905
 51
183.7691036812319965
  0
ARC
  5
A14D
  8
0
 10
4123.0398076348155882
 20
162.3100899226921001
 30
0.0
 40
0.0377551864780754
 50
185.7174523312841075
 51
243.6421299455645908
  0
ARC
  5
A14E
  8
0
 10
4123.0690480887096783
 20
162.3654050115574137
 30
0.0
 40
0.1003151450689531
 50
242.7042610513315992
 51
284.1163692172173114
  0
ARC
  5
A14F
  8
0
 10
4123.0874365340159784
 20
162.3388296768351893
 30
0.0
 40
0.0709712389803116
 50
274.9125433826300764
 51
327.925277332686278
  0
ARC
  5
A150
  8
0
 10
4123.1131933155202205
 20
162.3163711594469021
 30
0.0
 40
0.0376029861354309
 50
336.1092707063872922
 51
0.6138216103347112
  0
ARC
  5
A151
  8
0
 10
4122.3324300044223492
 20
162.3663541791225953
 30
0.0
 40
0.8198646587721484
 50
356.5330017931696034
 51
357.9769638876448994
  0
ARC
  5
A152
  8
0
 10
4123.0743095653288037
 20
162.3147721191866992
 30
0.0
 40
0.0360502931115243
 50
235.8870800633526983
 51
312.6788073015467262
  0
ARC
  5
A153
  8
0
 10
4123.0782327958550013
 20
162.2623862534416901
 30
0.0
 40
0.0330270260972603
 50
51.5996477941202016
 51
136.9662395707701137
  0
ARC
  5
A154
  8
0
 10
4123.3915250370828289
 20
162.532177336078405
 30
0.0
 40
0.0702151414657249
 50
286.260943298549023
 51
315.4366843891289136
  0
ARC
  5
A155
  8
0
 10
4123.4327914086634337
 20
162.491535248492994
 30
0.0
 40
0.0122954323281365
 50
315.436684389129482
 51
65.1895372932622053
  0
ARC
  5
A156
  8
0
 10
4123.3577805581107896
 20
162.3292747174056956
 30
0.0
 40
0.1910553485541025
 50
65.1895372932622053
 51
123.0484960179251033
  0
ARC
  5
A157
  8
0
 10
4123.2612121869169641
 20
162.4777017771710916
 30
0.0
 40
0.0139789741113734
 50
123.0484960179259986
 51
223.1568057541242069
  0
ARC
  5
A158
  8
0
 10
4123.2903914935614011
 20
162.5166278766616017
 30
0.0
 40
0.0624626587848663
 50
230.9200157854263011
 51
263.8629213858901039
  0
ARC
  5
A159
  8
0
 10
4123.8896056736421087
 20
162.5189912338234137
 30
0.0
 40
0.6189723784264777
 50
181.8087373478948905
 51
183.7691036812319965
  0
ARC
  5
A15A
  8
0
 10
4123.3095394594147365
 20
162.4820638472920962
 30
0.0
 40
0.0377551864780754
 50
185.7174523312841075
 51
243.6421299455645908
  0
ARC
  5
A15B
  8
0
 10
4123.338779913309736
 20
162.5373789361574097
 30
0.0
 40
0.1003151450689531
 50
242.7042610513315992
 51
284.1163692172173114
  0
ARC
  5
A15C
  8
0
 10
4123.3571683586160361
 20
162.510803601435299
 30
0.0
 40
0.0709712389803116
 50
274.9125433826300764
 51
327.925277332686278
  0
ARC
  5
A15D
  8
0
 10
4123.3829251401193687
 20
162.4883450840468981
 30
0.0
 40
0.0376029861354309
 50
336.1092707063872922
 51
0.6138216103347112
  0
ARC
  5
A15E
  8
0
 10
4122.6021618290224069
 20
162.5383281037225913
 30
0.0
 40
0.8198646587721484
 50
356.5330017931696034
 51
357.9769638876448994
  0
ARC
  5
A15F
  8
0
 10
4123.344041389929771
 20
162.4867460437866953
 30
0.0
 40
0.0360502931115243
 50
235.8870800633526983
 51
312.6788073015467262
  0
ARC
  5
A160
  8
0
 10
4123.347964620455059
 20
162.4343601780416861
 30
0.0
 40
0.0330270260972603
 50
51.5996477941202016
 51
136.9662395707701137
  0
ARC
  5
A161
  8
0
 10
4123.6616717288834479
 20
162.7023710061783959
 30
0.0
 40
0.0702151414657249
 50
286.260943298549023
 51
315.4366843891289136
  0
ARC
  5
A162
  8
0
 10
4123.7029381004622337
 20
162.6617289185930133
 30
0.0
 40
0.0122954323281365
 50
315.436684389129482
 51
65.1895372932622053
  0
ARC
  5
A163
  8
0
 10
4123.6279272499123181
 20
162.4994683875056865
 30
0.0
 40
0.1910553485541025
 50
65.1895372932622053
 51
123.0484960179251033
  0
ARC
  5
A164
  8
0
 10
4123.5313588787157641
 20
162.6478954472711109
 30
0.0
 40
0.0139789741113734
 50
123.0484960179259986
 51
223.1568057541242069
  0
ARC
  5
A165
  8
0
 10
4123.5605381853611107
 20
162.6868215467615926
 30
0.0
 40
0.0624626587848663
 50
230.9200157854263011
 51
263.8629213858901039
  0
ARC
  5
A166
  8
0
 10
4124.1597523654418183
 20
162.6891849039234046
 30
0.0
 40
0.6189723784264777
 50
181.8087373478948905
 51
183.7691036812319965
  0
ARC
  5
A167
  8
0
 10
4123.579686151216265
 20
162.652257517392087
 30
0.0
 40
0.0377551864780754
 50
185.7174523312841075
 51
243.6421299455645908
  0
ARC
  5
A168
  8
0
 10
4123.608926605110355
 20
162.7075726062572869
 30
0.0
 40
0.1003151450689531
 50
242.7042610513315992
 51
284.1163692172173114
  0
ARC
  5
A169
  8
0
 10
4123.6273150504148362
 20
162.6809972715352046
 30
0.0
 40
0.0709712389803116
 50
274.9125433826300764
 51
327.925277332686278
  0
ARC
  5
A16A
  8
0
 10
4123.6530718319190782
 20
162.658538754146889
 30
0.0
 40
0.0376029861354309
 50
336.1092707063872922
 51
0.6138216103347112
  0
ARC
  5
A16B
  8
0
 10
4122.8723085208230259
 20
162.7085217738226106
 30
0.0
 40
0.8198646587721484
 50
356.5330017931696034
 51
357.9769638876448994
  0
ARC
  5
A16C
  8
0
 10
4123.614188081728571
 20
162.6569397138866861
 30
0.0
 40
0.0360502931115243
 50
235.8870800633526983
 51
312.6788073015467262
  0
ARC
  5
A16D
  8
0
 10
4123.6181113122538591
 20
162.6045538481417054
 30
0.0
 40
0.0330270260972603
 50
51.5996477941202016
 51
136.9662395707701137
  0
ARC
  5
A16E
  8
0
 10
4123.1805417180557924
 20
162.8501686838129103
 30
0.0
 40
0.0702151414657249
 50
286.260943298549023
 51
315.4366843891289136
  0
ARC
  5
A16F
  8
0
 10
4123.2218080896345782
 20
162.809526596227613
 30
0.0
 40
0.0122954323281365
 50
315.436684389129482
 51
65.1895372932622053
  0
ARC
  5
A170
  8
0
 10
4123.1467972390837531
 20
162.6472660651402862
 30
0.0
 40
0.1910553485541025
 50
65.1895372932622053
 51
123.0484960179251033
  0
ARC
  5
A171
  8
0
 10
4123.0502288678899276
 20
162.795693124905597
 30
0.0
 40
0.0139789741113734
 50
123.0484960179259986
 51
223.1568057541242069
  0
ARC
  5
A172
  8
0
 10
4123.0794081745343647
 20
162.8346192243961923
 30
0.0
 40
0.0624626587848663
 50
230.9200157854263011
 51
263.8629213858901039
  0
ARC
  5
A173
  8
0
 10
4123.6786223546150723
 20
162.8369825815578906
 30
0.0
 40
0.6189723784264777
 50
181.8087373478948905
 51
183.7691036812319965
  0
ARC
  5
A174
  8
0
 10
4123.0985561403904285
 20
162.8000551950266015
 30
0.0
 40
0.0377551864780754
 50
185.7174523312841075
 51
243.6421299455645908
  0
ARC
  5
A175
  8
0
 10
4123.127796594283609
 20
162.8553702838918866
 30
0.0
 40
0.1003151450689531
 50
242.7042610513315992
 51
284.1163692172173114
  0
ARC
  5
A176
  8
0
 10
4123.1461850395889996
 20
162.8287949491698043
 30
0.0
 40
0.0709712389803116
 50
274.9125433826300764
 51
327.925277332686278
  0
ARC
  5
A177
  8
0
 10
4123.1719418210923322
 20
162.8063364317814887
 30
0.0
 40
0.0376029861354309
 50
336.1092707063872922
 51
0.6138216103347112
  0
ARC
  5
A178
  8
0
 10
4122.3911785099962799
 20
162.8563194514572103
 30
0.0
 40
0.8198646587721484
 50
356.5330017931696034
 51
357.9769638876448994
  0
ARC
  5
A179
  8
0
 10
4123.133058070901825
 20
162.8047373915212859
 30
0.0
 40
0.0360502931115243
 50
235.8870800633526983
 51
312.6788073015467262
  0
ARC
  5
A17A
  8
0
 10
4123.1369813014280226
 20
162.7523515257761915
 30
0.0
 40
0.0330270260972603
 50
51.5996477941202016
 51
136.9662395707701137
  0
ARC
  5
A17B
  8
0
 10
4122.8973921994838747
 20
162.6433813426783956
 30
0.0
 40
0.0702151414657249
 50
286.260943298549023
 51
315.4366843891289136
  0
ARC
  5
A17C
  8
0
 10
4122.9386585710626605
 20
162.6027392550930131
 30
0.0
 40
0.0122954323281365
 50
315.436684389129482
 51
65.1895372932622053
  0
ARC
  5
A17D
  8
0
 10
4122.8636477205100164
 20
162.4404787240056862
 30
0.0
 40
0.1910553485541025
 50
65.1895372932622053
 51
123.0484960179251033
  0
ARC
  5
A17E
  8
0
 10
4122.7670793493171004
 20
162.5889057837711107
 30
0.0
 40
0.0139789741113734
 50
123.0484960179259986
 51
223.1568057541242069
  0
ARC
  5
A17F
  8
0
 10
4122.7962586559597185
 20
162.6278318832615923
 30
0.0
 40
0.0624626587848663
 50
230.9200157854263011
 51
263.8629213858901039
  0
ARC
  5
A180
  8
0
 10
4123.395472836042245
 20
162.6301952404234044
 30
0.0
 40
0.6189723784264777
 50
181.8087373478948905
 51
183.7691036812319965
  0
ARC
  5
A181
  8
0
 10
4122.8154066218157823
 20
162.5932678538920868
 30
0.0
 40
0.0377551864780754
 50
185.7174523312841075
 51
243.6421299455645908
  0
ARC
  5
A182
  8
0
 10
4122.8446470757098723
 20
162.6485829427574004
 30
0.0
 40
0.1003151450689531
 50
242.7042610513315992
 51
284.1163692172173114
  0
ARC
  5
A183
  8
0
 10
4122.8630355210161724
 20
162.6220076080352044
 30
0.0
 40
0.0709712389803116
 50
274.9125433826300764
 51
327.925277332686278
  0
ARC
  5
A184
  8
0
 10
4122.8887923025204145
 20
162.5995490906468888
 30
0.0
 40
0.0376029861354309
 50
336.1092707063872922
 51
0.6138216103347112
  0
ARC
  5
A185
  8
0
 10
4122.1080289914216337
 20
162.6495321103226104
 30
0.0
 40
0.8198646587721484
 50
356.5330017931696034
 51
357.9769638876448994
  0
ARC
  5
A186
  8
0
 10
4122.8499085523280883
 20
162.5979500503866859
 30
0.0
 40
0.0360502931115243
 50
235.8870800633526983
 51
312.6788073015467262
  0
ARC
  5
A187
  8
0
 10
4122.8538317828551953
 20
162.5455641846417052
 30
0.0
 40
0.0330270260972603
 50
51.5996477941202016
 51
136.9662395707701137
  0
ARC
  5
A188
  8
0
 10
4122.8325537438740866
 20
161.4654750598799069
 30
0.0
 40
0.1088965088310405
 50
281.6005332757299016
 51
315.0105187475809885
  0
ARC
  5
A189
  8
0
 10
4122.7798448124203787
 20
161.450127945775705
 30
0.0
 40
0.0949184493503961
 50
222.4446145395477004
 51
268.1544467700327914
  0
ARC
  5
A18A
  8
0
 10
4122.7302955471450332
 20
161.4048124461459111
 30
0.0
 40
0.0277721598326812
 50
139.0150182232320049
 51
222.4446145395477004
  0
ARC
  5
A18B
  8
0
 10
4122.8125046577606554
 20
161.3018613999529975
 30
0.0
 40
0.1591413421210027
 50
49.2301055450724689
 51
130.4147188228328957
  0
ARC
  5
A18C
  8
0
 10
4122.8865961815517949
 20
161.4107782677527894
 30
0.0
 40
0.0320098997704313
 50
315.8640193418245872
 51
21.2602905844736014
  0
ARC
  5
A18D
  8
0
 10
4122.8310446530385889
 20
161.4170899302644102
 30
0.0
 40
0.0628112260764687
 50
278.4831404086783095
 51
348.6051068517426188
  0
ARC
  5
A18E
  8
0
 10
4122.8090806143618465
 20
161.470390858826903
 30
0.0
 40
0.119575181854539
 50
242.7171902080959001
 51
285.1396951085670253
  0
ARC
  5
A18F
  8
0
 10
4122.7773644270801014
 20
161.4066018797965114
 30
0.0
 40
0.0483557036613997
 50
189.6575083197681124
 51
241.4707562886551102
  0
ARC
  5
A190
  8
0
 10
4123.397319528027765
 20
161.4407430498866916
 30
0.0
 40
0.6689612579730367
 50
180.3254307313800098
 51
183.6213532463899014
  0
ARC
  5
A191
  8
0
 10
6041.8356846692340696
 20
79.5836169679029126
 30
0.0
 40
1920.6866429267809053
 50
177.5574562726845045
 51
177.5584665472765096
  0
ARC
  5
A192
  8
0
 10
4122.8096973255596822
 20
161.4128846512984978
 30
0.0
 40
0.0432639590425946
 50
235.2247489784662093
 51
312.4159251827368848
  0
ARC
  5
A193
  8
0
 10
4122.7897863549551403
 20
161.3842100973485003
 30
0.0
 40
0.008354407417331
 50
152.3706794967822873
 51
235.2247489784685968
  0
ARC
  5
A194
  8
0
 10
4122.8120996773950537
 20
161.3590328250274979
 30
0.0
 40
0.0415569593451303
 50
49.3716140854217826
 51
135.6467895965953119
  0
ARC
  5
A195
  8
0
 10
4122.8319662187477661
 20
161.3859636850847892
 30
0.0
 40
0.0085430602456074
 50
324.0170687980003095
 51
32.6477241852583333
  0
ARC
  5
A196
  8
0
 10
4123.1091300017433241
 20
161.6648020356597044
 30
0.0
 40
0.1088965088310405
 50
281.6005332757299016
 51
315.0105187475809885
  0
ARC
  5
A197
  8
0
 10
4123.0564210702887067
 20
161.6494549215555878
 30
0.0
 40
0.0949184493503961
 50
222.4446145395477004
 51
268.1544467700327914
  0
ARC
  5
A198
  8
0
 10
4123.0068718050151801
 20
161.6041394219257938
 30
0.0
 40
0.0277721598326812
 50
139.0150182232320049
 51
222.4446145395477004
  0
ARC
  5
A199
  8
0
 10
4123.0890809156298928
 20
161.5011883757329088
 30
0.0
 40
0.1591413421210027
 50
49.2301055450724689
 51
130.4147188228328957
  0
ARC
  5
A19A
  8
0
 10
4123.1631724394210323
 20
161.6101052435325869
 30
0.0
 40
0.0320098997704313
 50
315.8640193418245872
 51
21.2602905844736014
  0
ARC
  5
A19B
  8
0
 10
4123.1076209109087358
 20
161.6164169060442077
 30
0.0
 40
0.0628112260764687
 50
278.4831404086783095
 51
348.6051068517426188
  0
ARC
  5
A19C
  8
0
 10
4123.085656872232903
 20
161.6697178346067858
 30
0.0
 40
0.119575181854539
 50
242.7171902080959001
 51
285.1396951085670253
  0
ARC
  5
A19D
  8
0
 10
4123.0539406849502484
 20
161.6059288555763942
 30
0.0
 40
0.0483557036613997
 50
189.6575083197681124
 51
241.4707562886551102
  0
ARC
  5
A19E
  8
0
 10
4123.673895785897912
 20
161.6400700256666028
 30
0.0
 40
0.6689612579730367
 50
180.3254307313800098
 51
183.6213532463899014
  0
ARC
  5
A19F
  8
0
 10
6042.1122609271023975
 20
79.7829439436828096
 30
0.0
 40
1920.6866429267809053
 50
177.5574562726845045
 51
177.5584665472765096
  0
ARC
  5
A1A0
  8
0
 10
4123.0862735834298292
 20
161.6122116270782954
 30
0.0
 40
0.0432639590425946
 50
235.2247489784662093
 51
312.4159251827368848
  0
ARC
  5
A1A1
  8
0
 10
4123.0663626128243777
 20
161.5835370731284115
 30
0.0
 40
0.008354407417331
 50
152.3706794967822873
 51
235.2247489784685968
  0
ARC
  5
A1A2
  8
0
 10
4123.0886759352652007
 20
161.5583598008074091
 30
0.0
 40
0.0415569593451303
 50
49.3716140854217826
 51
135.6467895965953119
  0
ARC
  5
A1A3
  8
0
 10
4123.1085424766170036
 20
161.5852906608647004
 30
0.0
 40
0.0085430602456074
 50
324.0170687980003095
 51
32.6477241852583333
  0
ARC
  5
A1A4
  8
0
 10
4123.0118568468333251
 20
161.9158968292275063
 30
0.0
 40
0.1088965088310405
 50
281.6005332757299016
 51
315.0105187475809885
  0
ARC
  5
A1A5
  8
0
 10
4122.9591479153796172
 20
161.9005497151233897
 30
0.0
 40
0.0949184493503961
 50
222.4446145395477004
 51
268.1544467700327914
  0
ARC
  5
A1A6
  8
0
 10
4122.9095986501042717
 20
161.8552342154935104
 30
0.0
 40
0.0277721598326812
 50
139.0150182232320049
 51
222.4446145395477004
  0
ARC
  5
A1A7
  8
0
 10
4122.9918077607208033
 20
161.7522831693005969
 30
0.0
 40
0.1591413421210027
 50
49.2301055450724689
 51
130.4147188228328957
  0
ARC
  5
A1A8
  8
0
 10
4123.0658992845110333
 20
161.8612000371003887
 30
0.0
 40
0.0320098997704313
 50
315.8640193418245872
 51
21.2602905844736014
  0
ARC
  5
A1A9
  8
0
 10
4123.0103477559978273
 20
161.8675116996118959
 30
0.0
 40
0.0628112260764687
 50
278.4831404086783095
 51
348.6051068517426188
  0
ARC
  5
A1AA
  8
0
 10
4122.9883837173219945
 20
161.9208126281745876
 30
0.0
 40
0.119575181854539
 50
242.7171902080959001
 51
285.1396951085670253
  0
ARC
  5
A1AB
  8
0
 10
4122.9566675300393399
 20
161.8570236491441108
 30
0.0
 40
0.0483557036613997
 50
189.6575083197681124
 51
241.4707562886551102
  0
ARC
  5
A1AC
  8
0
 10
4123.5766226309870035
 20
161.8911648192342909
 30
0.0
 40
0.6689612579730367
 50
180.3254307313800098
 51
183.6213532463899014
  0
ARC
  5
A1AD
  8
0
 10
6042.0149877721923986
 20
80.0340387372505262
 30
0.0
 40
1920.6866429267809053
 50
177.5574562726845045
 51
177.5584665472765096
  0
ARC
  5
A1AE
  8
0
 10
4122.9890004285198302
 20
161.8633064206460972
 30
0.0
 40
0.0432639590425946
 50
235.2247489784662093
 51
312.4159251827368848
  0
ARC
  5
A1AF
  8
0
 10
4122.9690894579143787
 20
161.8346318666960997
 30
0.0
 40
0.008354407417331
 50
152.3706794967822873
 51
235.2247489784685968
  0
ARC
  5
A1B0
  8
0
 10
4122.9914027803552017
 20
161.8094545943750973
 30
0.0
 40
0.0415569593451303
 50
49.3716140854217826
 51
135.6467895965953119
  0
ARC
  5
A1B1
  8
0
 10
4123.0112693217070046
 20
161.8363854544323885
 30
0.0
 40
0.0085430602456074
 50
324.0170687980003095
 51
32.6477241852583333
  0
ARC
  5
A1B2
  8
0
 10
4122.7895415956318175
 20
161.6640668923762973
 30
0.0
 40
0.1179599791455173
 50
319.9629159107150258
 51
26.9178839940399115
  0
LINE
  5
A1B3
  8
0
 10
4123.0121648616877792
 20
156.2771534222734999
 30
0.0
 11
4122.2096585425706508
 21
156.2771534222734999
 31
0.0
  0
ARC
  5
A1B4
  8
0
 10
4123.0121648616877792
 20
156.2869534222735126
 30
0.0
 40
0.0098
 50
270.0000000000259774
 51
359.9999999999894271
  0
ARC
  5
A1B5
  8
0
 10
4122.9897980290452324
 20
156.2299090689735124
 30
0.0
 40
0.047244041200001
 50
107.5065386783335981
 51
170.4056381071011117
  0
ARC
  5
A1B6
  8
0
 10
4122.9621710074188741
 20
156.2190507185538877
 30
0.0
 40
0.0093330686822762
 50
133.6335653168314082
 51
242.7637861962361967
  0
ARC
  5
A1B7
  8
0
 10
4123.0567587153827844
 20
156.4028127115753932
 30
0.0
 40
0.216009880582148
 50
242.7637861962361967
 51
245.7738251208774898
  0
LINE
  5
A1B8
  8
0
 10
4122.9557307825116368
 20
156.2258056925876133
 30
0.0
 11
4122.9432148165642502
 21
156.2377833145810939
 31
0.0
  0
LINE
  5
A1B9
  8
0
 10
4122.9432148165642502
 20
156.2377833145810939
 30
0.0
 11
4122.2868005486034235
 21
156.2377833145810939
 31
0.0
  0
LINE
  5
A1BA
  8
0
 10
4122.9557307825125463
 20
156.225805692587187
 30
0.0
 11
4122.387454182701731
 21
156.1977247104595108
 31
0.0
  0
ENDSEC
  0
EOF
