  0
SECTION
  2
HEADER
  9
$ACADVER
  1
AC1009
  9
$INSBASE
 10
4263.0562549948590458
 20
660.3282997138077235
 30
0.0
  9
$EXTMIN
 10
4246.4178017107660708
 20
650.6862661976554136
 30
-0.0015258207003583
  9
$EXTMAX
 10
4293.3481830900063869
 20
662.7402445634061223
 30
0.0000000349246037
  9
$LIMMIN
 10
0.0
 20
0.0
  9
$LIMMAX
 10
11.6929133858000007
 20
8.2677165353999982
  9
$ORTHOMODE
 70
     0
  9
$REGENMODE
 70
     1
  9
$FILLMODE
 70
     1
  9
$QTEXTMODE
 70
     0
  9
$MIRRTEXT
 70
     0
  9
$DRAGMODE
 70
     2
  9
$LTSCALE
 40
0.6431102362
  9
$OSMODE
 70
  4095
  9
$ATTMODE
 70
     1
  9
$TEXTSIZE
 40
0.2
  9
$TRACEWID
 40
0.05
  9
$TEXTSTYLE
  7
STANDARD
  9
$CLAYER
  8
0
  9
$CELTYPE
  6
BYLAYER
  9
$CECOLOR
 62
   256
  9
$DIMSCALE
 40
1.0
  9
$DIMASZ
 40
0.1875
  9
$DIMEXO
 40
0.0625
  9
$DIMDLI
 40
0.4443307087
  9
$DIMRND
 40
0.0
  9
$DIMDLE
 40
0.0
  9
$DIMEXE
 40
0.125
  9
$DIMTP
 40
0.01
  9
$DIMTM
 40
0.01
  9
$DIMTXT
 40
2.0
  9
$DIMCEN
 40
0.1052362205
  9
$DIMTSZ
 40
0.0
  9
$DIMTOL
 70
     1
  9
$DIMLIM
 70
     0
  9
$DIMTIH
 70
     1
  9
$DIMTOH
 70
     1
  9
$DIMSE1
 70
     0
  9
$DIMSE2
 70
     0
  9
$DIMTAD
 70
     0
  9
$DIMZIN
 70
     0
  9
$DIMBLK
  1

  9
$DIMASO
 70
     1
  9
$DIMSHO
 70
     1
  9
$DIMPOST
  1
\X
  9
$DIMAPOST
  1

  9
$DIMALT
 70
     1
  9
$DIMALTD
 70
     2
  9
$DIMALTF
 40
25.3999999999999986
  9
$DIMLFAC
 40
1.0
  9
$DIMTOFL
 70
     0
  9
$DIMTVP
 40
0.0
  9
$DIMTIX
 70
     0
  9
$DIMSOXD
 70
     0
  9
$DIMSAH
 70
     0
  9
$DIMBLK1
  1

  9
$DIMBLK2
  1

  9
$DIMSTYLE
  2
STANDARD
  9
$DIMCLRD
 70
     0
  9
$DIMCLRE
 70
     0
  9
$DIMCLRT
 70
     0
  9
$DIMTFAC
 40
1.0
  9
$DIMGAP
 40
0.09
  9
$LUNITS
 70
     2
  9
$LUPREC
 70
     4
  9
$SKETCHINC
 40
0.1
  9
$FILLETRAD
 40
0.0
  9
$AUNITS
 70
     0
  9
$AUPREC
 70
     0
  9
$MENU
  1
.
  9
$ELEVATION
 40
0.0
  9
$PELEVATION
 40
0.0
  9
$THICKNESS
 40
0.0
  9
$LIMCHECK
 70
     0
  9
$BLIPMODE
 70
     0
  9
$CHAMFERA
 40
0.0
  9
$CHAMFERB
 40
0.0
  9
$SKPOLY
 70
     0
  9
$TDCREATE
 40
2458060.468368056230247
  9
$TDUPDATE
 40
2460174.4497337960638106
  9
$TDINDWG
 40
0.4897422106
  9
$TDUSRTIMER
 40
0.4897422106
  9
$USRTIMER
 70
     1
  9
$ANGBASE
 50
0.0
  9
$ANGDIR
 70
     0
  9
$PDMODE
 70
     0
  9
$PDSIZE
 40
0.3125
  9
$PLINEWID
 40
0.0
  9
$COORDS
 70
     1
  9
$SPLFRAME
 70
     0
  9
$SPLINETYPE
 70
     6
  9
$SPLINESEGS
 70
     8
  9
$ATTDIA
 70
     1
  9
$ATTREQ
 70
     1
  9
$HANDLING
 70
     1
  9
$HANDSEED
  5
948C
  9
$SURFTAB1
 70
     6
  9
$SURFTAB2
 70
     6
  9
$SURFTYPE
 70
     6
  9
$SURFU
 70
     6
  9
$SURFV
 70
     6
  9
$UCSNAME
  2

  9
$UCSORG
 10
0.0
 20
0.0
 30
0.0
  9
$UCSXDIR
 10
1.0
 20
0.0
 30
0.0
  9
$UCSYDIR
 10
0.0
 20
1.0
 30
0.0
  9
$PUCSNAME
  2

  9
$PUCSORG
 10
0.0
 20
0.0
 30
0.0
  9
$PUCSXDIR
 10
1.0
 20
0.0
 30
0.0
  9
$PUCSYDIR
 10
0.0
 20
1.0
 30
0.0
  9
$USERI1
 70
     0
  9
$USERI2
 70
     0
  9
$USERI3
 70
     0
  9
$USERI4
 70
     0
  9
$USERI5
 70
     0
  9
$USERR1
 40
0.0
  9
$USERR2
 40
0.0
  9
$USERR3
 40
0.0
  9
$USERR4
 40
0.0
  9
$USERR5
 40
0.0
  9
$WORLDVIEW
 70
     1
  9
$SHADEDGE
 70
     3
  9
$SHADEDIF
 70
    70
  9
$TILEMODE
 70
     1
  9
$MAXACTVP
 70
    64
  9
$PLIMCHECK
 70
     0
  9
$PEXTMIN
 10
1.0000000000000000E+20
 20
1.0000000000000000E+20
 30
1.0000000000000000E+20
  9
$PEXTMAX
 10
-1.0000000000000000E+20
 20
-1.0000000000000000E+20
 30
-1.0000000000000000E+20
  9
$PLIMMIN
 10
0.0
 20
0.0
  9
$PLIMMAX
 10
12.0
 20
9.0
  9
$UNITMODE
 70
     0
  9
$VISRETAIN
 70
     1
  9
$PLINEGEN
 70
     0
  9
$PSLTSCALE
 70
     1
  0
ENDSEC
  0
SECTION
  2
TABLES
  0
TABLE
  2
VPORT
 70
     1
  0
VPORT
  2
*ACTIVE
 70
     0
 10
0.0
 20
0.0
 11
1.0
 21
1.0
 12
724.0891691581982741
 22
355.6542191256478986
 13
0.0
 23
0.0
 14
1.0
 24
1.0
 15
0.0
 25
0.0
 16
0.0
 26
0.0
 36
246.0436609271731072
 17
3545.7938232421870453
 27
301.0590362548828125
 37
0.0
 40
32.9769268011937911
 41
1.4307692307692299
 42
50.0
 43
0.0
 44
0.0
 50
0.0
 51
0.0
 71
     0
 72
   100
 73
     1
 74
     1
 75
     0
 76
     0
 77
     0
 78
     0
  0
ENDTAB
  0
TABLE
  2
LTYPE
 70
     2
  0
LTYPE
  2
CONTINUOUS
 70
     0
  3
Solid line
 72
    65
 73
     0
 40
0.0
  0
LTYPE
  2
PHANTOM2
 70
     0
  3
___ _ _ ___ _ _ ___ _ _ ___ _ _
 72
    65
 73
     6
 40
1.25
 49
0.625
 49
-0.125
 49
0.125
 49
-0.125
 49
0.125
 49
-0.125
  0
ENDTAB
  0
TABLE
  2
LAYER
 70
     2
  0
LAYER
  2
0
 70
     0
 62
   255
  6
CONTINUOUS
  0
LAYER
  2
DEFPOINTS
 70
     0
 62
     7
  6
CONTINUOUS
  0
ENDTAB
  0
TABLE
  2
STYLE
 70
     1
  0
STYLE
  2
STANDARD
 70
     0
 40
0.0
 41
0.8
 50
0.0
 71
     0
 42
0.2
  3
txt
  4

  0
ENDTAB
  0
TABLE
  2
VIEW
 70
     0
  0
ENDTAB
  0
TABLE
  2
UCS
 70
     0
  0
ENDTAB
  0
TABLE
  2
APPID
 70
    10
  0
APPID
  2
ACAD
 70
     0
  0
APPID
  2
ACAD_MLEADERVER
 70
     0
  0
APPID
  2
ACAD_EXEMPT_FROM_CAD_STANDARDS
 70
     0
  0
APPID
  2
ACAD_NAV_VCDISPLAY
 70
     0
  0
APPID
  2
ACAECLAYERSTANDARD
 70
     0
  0
APPID
  2
ACCMTRANSPARENCY
 70
     0
  0
APPID
  2
ACAD_DSTYLE_DIMJAG
 70
     0
  0
APPID
  2
ACAD_DSTYLE_DIMTALN
 70
     0
  0
APPID
  2
ACDBATTR
 70
     0
  0
APPID
  2
ACADANNOTATIVE
 70
     0
  0
ENDTAB
  0
TABLE
  2
DIMSTYLE
 70
     1
  0
DIMSTYLE
  2
STANDARD
 70
     0
  3

  4

  5

  6

  7

 40
1.0
 41
0.1875
 42
0.0625
 43
0.38
 44
0.125
 45
0.0
 46
0.0
 47
0.01
 48
0.01
140
0.15625
141
0.09
142
0.0
143
25.3999999999999986
144
1.0
145
0.0
146
1.0
147
0.09
 71
     1
 72
     0
 73
     1
 74
     1
 75
     0
 76
     0
 77
     0
 78
     4
170
     0
171
     2
172
     0
173
     0
174
     0
175
     0
176
     0
177
     0
178
     0
  0
ENDTAB
  0
ENDSEC
  0
SECTION
  2
BLOCKS
  0
BLOCK
  8
0
  2
$MODEL_SPACE
 70
     0
 10
0.0
 20
0.0
 30
0.0
  3
$MODEL_SPACE
  1

  0
ENDBLK
  5
21
  8
0
  0
BLOCK
 67
     1
  8
0
  2
$PAPER_SPACE
 70
     0
 10
0.0
 20
0.0
 30
0.0
  3
$PAPER_SPACE
  1

  0
ENDBLK
  5
1D
 67
     1
  8
0
  0
ENDSEC
  0
SECTION
  2
ENTITIES
  0
ATTDEF
  5
7E52
  8
DEFPOINTS
 10
4263.0526025296394437
 20
660.3323877031101574
 30
0.0
 40
0.001
  1
K-27815T-2HD
  3

  2
MODELNUMBER
 70
     0
1001
ACDBATTR
1070
     0
1070
     1
  0
ATTDEF
  5
7E53
  8
DEFPOINTS
 10
4263.0526025296394437
 20
660.330721036443606
 30
0.0
 40
0.001
  1
CAIRN
  3

  2
TRADENAME
 70
     0
1001
ACDBATTR
1070
     0
1070
     1
  0
ATTDEF
  5
7E54
  8
DEFPOINTS
 10
4263.0526025296394437
 20
660.3290543697769408
 30
0.0
 40
0.001
  1
KITCHEN SINK
  3

  2
PRODUCT
 70
     0
1001
ACDBATTR
1070
     0
1070
     1
  0
LINE
  5
933F
  8
0
 10
4279.0642246531233468
 20
660.3282997138077235
 30
0.0
 11
4247.0482853365947449
 21
660.3282997138077235
 31
0.0
  0
LINE
  5
9340
  8
0
 10
4249.6173578555317363
 20
650.7220005012077308
 30
0.0
 11
4250.5109059745664126
 21
650.7220005012077308
 31
0.0
  0
LINE
  5
9341
  8
0
 10
4279.5916880657587171
 20
659.9975910524076426
 30
0.0
 11
4246.5208219239593745
 21
659.9975910524076426
 31
0.0
  0
ARC
  5
9342
  8
0
 10
4246.7915255948146296
 20
659.9952363967960309
 30
0.0
 40
0.2707139113867166
 50
114.5935208862202046
 51
179.5016379866459033
  0
ARC
  5
9343
  8
0
 10
4247.1028123232290454
 20
659.2678934283761691
 30
0.0
 40
1.0618072718030229
 50
92.9436047931656617
 51
113.5327922142992065
  0
ARC
  5
9344
  8
0
 10
4247.2916379358221093
 20
659.9080580387601458
 30
0.0
 40
0.0898563787865454
 50
47.2101930450934333
 51
85.1377184834128968
  0
ARC
  5
9345
  8
0
 10
4247.1099503587365689
 20
659.7715904298196392
 30
0.0
 40
0.3160477601172756
 50
23.9910258720477891
 51
39.8244364602416496
  0
ARC
  5
9346
  8
0
 10
4245.1304030714591136
 20
658.6809801653075738
 30
0.0
 40
2.5751471885999742
 50
8.1423646498640387
 51
28.2561993812385701
  0
ARC
  5
9347
  8
0
 10
4237.1125501785490997
 20
657.8989496790760541
 30
0.0
 40
10.6290826174716297
 50
1.0520396872287601
 51
6.1936170325623774
  0
ARC
  5
9348
  8
0
 10
4403.3956998606581692
 20
663.7839196113336584
 30
0.0
 40
155.7598162716907098
 50
182.0934468558255048
 51
183.9116492028221899
  0
ARC
  5
9349
  8
0
 10
4250.1191041817619407
 20
653.2106491063160547
 30
0.0
 40
2.1210138531273079
 50
181.4149358727541141
 51
251.15801625386419
  0
ARC
  5
934A
  8
0
 10
4235.019864962479005
 20
647.0755282124496262
 30
0.0
 40
15.00138022972485
 50
14.2436628734864108
 51
15.7594428070203705
  0
ARC
  5
934B
  8
0
 10
4249.6173578555317363
 20
650.7811005012076748
 30
0.0
 40
0.0591
 50
194.2436628734863859
 51
270.0
  0
ARC
  5
934C
  8
0
 10
3575.6223046217269257
 20
831.7265350213536976
 30
0.0
 40
698.7835625098474566
 50
344.9913206534187111
 51
345.008200385594705
  0
ARC
  5
934D
  8
0
 10
4250.5109059745664126
 20
650.7811005012076748
 30
0.0
 40
0.0591
 50
270.0
 51
344.9913206530717957
  0
LINE
  5
934E
  8
0
 10
4257.5676227010999355
 20
650.7220005012077308
 30
0.0
 11
4263.8967671805594364
 21
650.7220005012077308
 31
0.0
  0
LINE
  5
934F
  8
0
 10
4267.9638087413522953
 20
650.7220005012077308
 30
0.0
 11
4268.8573626717534353
 21
650.7220005012077308
 31
0.0
  0
ARC
  5
9350
  8
0
 10
4267.9638087413522953
 20
650.7811005012076748
 30
0.0
 40
0.0591
 50
195.0050400244122955
 51
270.0
  0
ARC
  5
9351
  8
0
 10
4268.8573626717534353
 20
650.7811005012076748
 30
0.0
 40
0.0591
 50
270.0
 51
344.9788767302914039
  0
LINE
  5
9352
  8
0
 10
4269.6148667956003919
 20
650.7220005012077308
 30
0.0
 11
4275.0803203594532533
 21
650.7220005012077308
 31
0.0
  0
ARC
  5
9353
  8
0
 10
4263.8967327415257387
 20
650.7811005012076748
 30
0.0
 40
0.0591
 50
270.0
 51
345.0000000104403171
  0
ARC
  5
9354
  8
0
 10
4279.3204025338263818
 20
659.9948592183874325
 30
0.0
 40
0.2712992863118043
 50
0.576946614967827
 51
65.3278945121841303
  0
ARC
  5
9355
  8
0
 10
4279.0096976664890462
 20
659.2678934283761691
 30
0.0
 40
1.0618072718030229
 50
66.4672077857007508
 51
87.0563952068343241
  0
ARC
  5
9356
  8
0
 10
4278.8208720538950729
 20
659.9080580387601458
 30
0.0
 40
0.0898563787865454
 50
94.862281516587089
 51
132.7898069549065951
  0
ARC
  5
9357
  8
0
 10
4279.0025596309806133
 20
659.7715904298196392
 30
0.0
 40
0.3160477601172756
 50
140.1755635397582864
 51
156.0089741279522002
  0
ARC
  5
9358
  8
0
 10
4280.9821069182580686
 20
658.6809801653075738
 30
0.0
 40
2.5751471885999742
 50
151.7438006187614121
 51
171.8576353501360074
  0
ARC
  5
9359
  8
0
 10
4288.9999598111699015
 20
657.8989496790760541
 30
0.0
 40
10.6290826174716297
 50
173.8063829674375995
 51
178.9479603127711869
  0
ARC
  5
935A
  8
0
 10
4111.5068062578056924
 20
664.2817894412773967
 30
0.0
 40
166.9805484460644038
 50
356.1236568132447928
 51
357.8763431867267855
  0
ARC
  5
935B
  8
0
 10
4249.2676026516901402
 20
651.0990534434109804
 30
0.0
 40
0.1964397010273076
 50
14.9979771392828294
 51
32.0494312551005578
  0
ARC
  5
935C
  8
0
 10
4250.81278459888199
 20
650.9125127882488187
 30
0.0
 40
0.1984810735711956
 50
129.1532525036573134
 51
164.7716463755830887
  0
LINE
  5
935D
  8
0
 10
4250.6874642808097633
 20
651.0664269021059454
 30
0.0
 11
4257.3741501441263608
 21
650.8329226864087786
 31
0.0
  0
LINE
  5
935E
  8
0
 10
4263.9538189578606762
 20
650.7658042956525151
 30
0.0
 11
4263.9909517769356171
 21
650.9059311123706948
 31
0.0
  0
LINE
  5
935F
  8
0
 10
4265.6197597851823957
 20
652.9811209444053475
 30
0.0
 11
4265.7696230425954127
 21
655.8405829755199647
 31
0.0
  0
LINE
  5
9360
  8
0
 10
4265.7696230425954127
 20
655.8405829755199647
 30
0.0
 11
4266.4452491510010077
 21
655.8405829910952889
 31
0.0
  0
LINE
  5
9361
  8
0
 10
4266.4452491510010077
 20
655.8405829910952889
 30
0.0
 11
4266.5948610321593151
 21
652.9858181108075996
 31
0.0
  0
ARC
  5
9362
  8
0
 10
4263.5203120604910509
 20
652.931137040996191
 30
0.0
 40
2.0791731039126988
 50
283.0828099829413986
 51
324.2608833879164081
  0
ARC
  5
9363
  8
0
 10
4263.4552274331463195
 20
652.9872405428252478
 30
0.0
 40
2.1647841898375262
 50
324.0617773712210123
 51
359.962352202355703
  0
ARC
  5
9364
  8
0
 10
4257.3672801643297134
 20
650.6361922084737444
 30
0.0
 40
0.1968503938806482
 50
32.0041918847139897
 51
87.9999999542156957
  0
ARC
  5
9365
  8
0
 10
4257.5676227010999355
 20
650.7614005012077314
 30
0.0
 40
0.0394
 50
212.0041918847084901
 51
270.0
  0
LINE
  5
9366
  8
0
 10
4276.7313784158095586
 20
650.7220005012077308
 30
0.0
 11
4275.8378244922932936
 21
650.7220005012077308
 31
0.0
  0
ARC
  5
9367
  8
0
 10
4275.8378244922932936
 20
650.7811005012076748
 30
0.0
 40
0.0591
 50
194.9999999690190862
 51
270.0
  0
ARC
  5
9368
  8
0
 10
4276.7313784158095586
 20
650.7811005012076748
 30
0.0
 40
0.0591
 50
270.0
 51
344.9906917277893967
  0
ARC
  5
9369
  8
0
 10
4275.9512895192010546
 20
653.0042419829826486
 30
0.0
 40
2.1540874372318779
 50
295.1191000939699052
 51
359.7101457261480846
  0
LINE
  5
936A
  8
0
 10
4276.7884621463690564
 20
650.765795021617464
 30
0.0
 11
4276.8657023917203333
 21
651.0538723293499288
 31
0.0
  0
ARC
  5
936B
  8
0
 10
4268.8001749956110871
 20
653.1064015611657396
 30
0.0
 40
2.2687014548362772
 50
217.7743403358012984
 51
244.6518521644117072
  0
ARC
  5
936C
  8
0
 10
4268.759644754672081
 20
652.9872405428252478
 30
0.0
 40
2.1647841898375262
 50
180.0376477976442118
 51
215.9382226287791013
  0
ARC
  5
936D
  8
0
 10
4275.2806628962225659
 20
650.6361922084327034
 30
0.0
 40
0.1968503938806482
 50
92.0000000457843043
 51
147.9958081152859961
  0
ARC
  5
936E
  8
0
 10
4275.0803203594532533
 20
650.7614005011664631
 30
0.0
 40
0.0394
 50
270.0
 51
327.9958081152860245
  0
LINE
  5
936F
  8
0
 10
4267.8289043194909027
 20
651.056123637350197
 30
0.0
 11
4267.9067238707712022
 21
650.7657992741111457
 31
0.0
  0
LINE
  5
9370
  8
0
 10
4275.2737929164586603
 20
650.8329226864076418
 30
0.0
 11
4275.7512621619125639
 21
650.8495962798095889
 31
0.0
  0
ARC
  5
9371
  8
0
 10
4275.5231823744188659
 20
650.7222824933163565
 30
0.0
 40
0.2612071777241004
 50
9.5912369131298583
 51
29.1701876187230305
  0
LINE
  5
9372
  8
0
 10
4268.9144432449465967
 20
650.7657832506721434
 30
0.0
 11
4268.9245873663594466
 21
650.8035858748077089
 31
0.0
  0
ARC
  5
9373
  8
0
 10
4269.1129746590650029
 20
650.751464297219627
 30
0.0
 40
0.1954646538464766
 50
150.042202511972107
 51
164.5346987216138928
  0
LINE
  5
9374
  8
0
 10
4268.9436253622461663
 20
650.8490719125486521
 30
0.0
 11
4269.4213942416181453
 21
650.832922686307711
 31
0.0
  0
ARC
  5
9375
  8
0
 10
4269.4145242588192559
 20
650.6361922084631715
 30
0.0
 40
0.1968503938947884
 50
32.0041918857524266
 51
87.9999991064915008
  0
ARC
  5
9376
  8
0
 10
4269.6148667956003919
 20
650.7614005012077314
 30
0.0
 40
0.0394
 50
212.0041918847140039
 51
270.0
  0
LINE
  5
9377
  8
0
 10
4275.6902564846186579
 20
660.9306619185075533
 30
0.0
 11
4276.800206241477099
 21
660.9306619185075533
 31
0.0
  0
LINE
  5
9378
  8
0
 10
4275.6814823391223399
 20
662.5684162492076439
 30
0.0
 11
4276.8089915486762038
 21
662.5684162492076439
 31
0.0
  0
LINE
  5
9379
  8
0
 10
4275.6858887718062761
 20
662.6685447105077174
 30
0.0
 11
4276.804558405948228
 21
662.6685447105077174
 31
0.0
  0
ARC
  5
937A
  8
0
 10
4275.6859021398213372
 20
662.6567447050517785
 30
0.0
 40
0.011800013027982
 50
90.064909337929663
 51
179.6297641086418082
  0
LINE
  5
937B
  8
0
 10
4275.7800488760776716
 20
662.6854727195076293
 30
0.0
 11
4276.7103983017759674
 21
662.6854727195076293
 31
0.0
  0
LINE
  5
937C
  8
0
 10
4275.6841528431459665
 20
662.5290471548075857
 30
0.0
 11
4276.8063210446525773
 21
662.5290471548075857
 31
0.0
  0
LINE
  5
937D
  8
0
 10
4275.6802529170763592
 20
662.5251711683993108
 30
0.0
 11
4275.670564533347715
 21
660.9504832179318328
 31
0.0
  0
ARC
  5
937E
  8
0
 10
4275.6907539653229833
 20
660.9508485261109172
 30
0.0
 40
0.0201927366540702
 50
181.0365984131292123
 51
268.5882830300445789
  0
ARC
  5
937F
  8
0
 10
4275.6841528431459665
 20
662.5251471548076552
 30
0.0
 40
0.0039
 50
90.0000000000521254
 51
179.647208681265397
  0
ARC
  5
9380
  8
0
 10
4275.6881538656216435
 20
662.5329957637735561
 30
0.0
 40
0.0039683251862377
 50
275.7138102170117122
 51
359.0564909205118056
  0
LINE
  5
9381
  8
0
 10
4275.6921218683755797
 20
662.5329497086290758
 30
0.0
 11
4275.6924313801782773
 21
662.5684162492076439
 31
0.0
  0
LINE
  5
9382
  8
0
 10
4275.6741023731492533
 20
662.6568209542621162
 30
0.0
 11
4275.6735826396743505
 21
662.5763851594998641
 31
0.0
  0
ARC
  5
9383
  8
0
 10
4275.6814823391223399
 20
662.5763162492077072
 30
0.0
 40
0.0079
 50
179.5002127870486959
 51
270.0
  0
LINE
  5
9384
  8
0
 10
4275.6858887718062761
 20
662.6685447105077174
 30
0.0
 11
4275.7800488762122768
 21
662.6854727195076293
 31
0.0
  0
ARC
  5
9385
  8
0
 10
4276.2624139763438507
 20
653.6948074751359172
 30
0.0
 40
9.0035958164674472
 50
90.1093442931452699
 51
93.0710755105470895
  0
ARC
  5
9386
  8
0
 10
4276.2449913467553415
 20
661.4882751904940505
 30
0.0
 40
0.0962425409248655
 50
89.8617398687347162
 51
135.3908389251243136
  0
ARC
  5
9387
  8
0
 10
4276.2059465246056789
 20
661.5299093355260993
 30
0.0
 40
0.039270514436957
 50
138.6316037064011084
 51
207.9216205623955034
  0
ARC
  5
9388
  8
0
 10
4276.2373741847550264
 20
661.5629029633199707
 30
0.0
 40
0.083743075269787
 50
217.8483719914426899
 51
260.4157871919837817
  0
ARC
  5
9389
  8
0
 10
4276.2440895485824512
 20
661.5905909309790331
 30
0.0
 40
0.1121806996609006
 50
259.3882833017659095
 51
270.5928749722799012
  0
ARC
  5
938A
  8
0
 10
4276.2432183625887774
 20
661.4811722821209514
 30
0.0
 40
0.1312554253051576
 50
89.124641536505834
 51
129.8864594138777022
  0
ARC
  5
938B
  8
0
 10
4276.2037431430089782
 20
661.5295143914652272
 30
0.0
 40
0.0688511726393659
 50
130.4775314970615057
 51
176.9311243533242077
  0
ARC
  5
938C
  8
0
 10
4276.205357023554825
 20
661.54123053215244
 30
0.0
 40
0.0720193585983794
 50
192.2995588923830894
 51
245.6091973866485887
  0
ARC
  5
938D
  8
0
 10
4276.24764678228712
 20
661.6346095484881289
 30
0.0
 40
0.1745282045740294
 50
245.6243767736033874
 51
269.2044654511461204
  0
ARC
  5
938E
  8
0
 10
4276.2453065268773571
 20
662.2023076921076381
 30
0.0
 40
0.1139810690000159
 50
90.0416956790820961
 51
115.7544471207739036
  0
ARC
  5
938F
  8
0
 10
4276.2453065268773571
 20
662.2023076921077518
 30
0.0
 40
0.1139810689999624
 50
115.7544471207739036
 51
144.8305817444426964
  0
ARC
  5
9390
  8
0
 10
4276.2450996894549462
 20
662.2023944686592358
 30
0.0
 40
0.1137620164994099
 50
144.8063050819949922
 51
194.5524439499729112
  0
ARC
  5
9391
  8
0
 10
4276.2452235888758878
 20
662.2023154618076433
 30
0.0
 40
0.1102362204999761
 50
90.0
 51
137.851426783399603
  0
ARC
  5
9392
  8
0
 10
4276.2452027122653817
 20
662.2023283219448331
 30
0.0
 40
0.1102121126557122
 50
137.8491004952130936
 51
179.9189617295041899
  0
LINE
  5
9393
  8
0
 10
4276.1349907098483527
 20
661.5258887621051826
 30
0.0
 11
4276.1349907098483527
 21
662.2024842042120554
 31
0.0
  0
ARC
  5
9394
  8
0
 10
4276.8045717480281382
 20
662.6567447050730379
 30
0.0
 40
0.0118000129774828
 50
0.3702357902751461
 51
90.0647834058193126
  0
LINE
  5
9395
  8
0
 10
4276.8102209707221846
 20
662.5251711683993108
 30
0.0
 11
4276.8198981865471069
 21
660.9504832179318328
 31
0.0
  0
ARC
  5
9396
  8
0
 10
4276.7999687220208216
 20
660.9505901181678382
 30
0.0
 40
0.0199297512281232
 50
270.7149487456272823
 51
359.6926724446840922
  0
ARC
  5
9397
  8
0
 10
4276.8063210446525773
 20
662.5251471548076552
 30
0.0
 40
0.0039
 50
0.3527913187346097
 51
89.9999999999478888
  0
ARC
  5
9398
  8
0
 10
4276.8023200221759907
 20
662.5329957637735561
 30
0.0
 40
0.0039683251862377
 50
180.9435090794881944
 51
264.2861897829884015
  0
LINE
  5
9399
  8
0
 10
4276.7983520194211451
 20
662.5329497086290758
 30
0.0
 11
4276.7980425076220854
 21
662.5684162492076439
 31
0.0
  0
LINE
  5
939A
  8
0
 10
4276.8163715146502
 20
662.6568209542621162
 30
0.0
 11
4276.8168912481251027
 21
662.5763851594998641
 31
0.0
  0
ARC
  5
939B
  8
0
 10
4276.8089915486762038
 20
662.5763162492077072
 30
0.0
 40
0.0079
 50
270.0
 51
0.4997872129513058
  0
LINE
  5
939C
  8
0
 10
4276.804558405948228
 20
662.6685447105077174
 30
0.0
 11
4276.7104250115871764
 21
662.6854727195076293
 31
0.0
  0
ARC
  5
939D
  8
0
 10
4276.2205953360253261
 20
653.4259041608454481
 30
0.0
 40
9.2725154625785358
 50
86.9718850655423239
 51
89.8477714015599105
  0
ARC
  5
939E
  8
0
 10
4276.2455549672522466
 20
661.4884489585117535
 30
0.0
 40
0.0960689758020334
 50
44.5657159404125309
 51
90.1817052656794687
  0
ARC
  5
939F
  8
0
 10
4276.2845273631937744
 20
661.5299093355260993
 30
0.0
 40
0.039270514436957
 50
332.0783794376043829
 51
41.3683962935988632
  0
ARC
  5
93A0
  8
0
 10
4276.2531465849478991
 20
661.5628245297433523
 30
0.0
 40
0.0836579373492601
 50
279.5614962697889041
 51
322.1743445467373022
  0
ARC
  5
93A1
  8
0
 10
4276.2452500638573838
 20
661.6035314349411465
 30
0.0
 40
0.1251151979010987
 50
270.0001224076078756
 51
280.0309659180840072
  0
ARC
  5
93A2
  8
0
 10
4276.2472555252106758
 20
661.4811722821209514
 30
0.0
 40
0.1312554253051576
 50
50.1135405861223333
 51
90.8753584634941802
  0
ARC
  5
93A3
  8
0
 10
4276.2867307447895655
 20
661.5295143914652272
 30
0.0
 40
0.0688511726393659
 50
3.2377322185627309
 51
49.5224685029384304
  0
ARC
  5
93A4
  8
0
 10
4276.285149105587152
 20
661.5411888445495379
 30
0.0
 40
0.0719680783126995
 50
294.3811308060757028
 51
347.7255068835486895
  0
ARC
  5
93A5
  8
0
 10
4276.2421802696562736
 20
661.6375120044190226
 30
0.0
 40
0.1774399378865486
 50
270.9827432267375116
 51
294.1790669119479844
  0
ARC
  5
93A6
  8
0
 10
4276.2451673609211866
 20
662.2023076921076381
 30
0.0
 40
0.1139810690000159
 50
64.2455528792260964
 51
89.9583043209179039
  0
ARC
  5
93A7
  8
0
 10
4276.2451673609211866
 20
662.2023076921077518
 30
0.0
 40
0.1139810689999624
 50
35.1694182555572468
 51
64.2455528792260964
  0
ARC
  5
93A8
  8
0
 10
4276.2453741983435975
 20
662.2023944686592358
 30
0.0
 40
0.1137620164994099
 50
345.4475560500271172
 51
35.1936949180050007
  0
ARC
  5
93A9
  8
0
 10
4276.2452502989226559
 20
662.2023154618076433
 30
0.0
 40
0.1102362204999761
 50
42.1485732166004183
 51
90.0
  0
ARC
  5
93AA
  8
0
 10
4276.2453436483719997
 20
662.2023729657131526
 30
0.0
 40
0.1101284240563164
 50
0.057873320611839
 51
42.1589830831191321
  0
LINE
  5
93AB
  8
0
 10
4276.3554720162474041
 20
661.5258887617999335
 30
0.0
 11
4276.3554720162474041
 21
662.2024842042120554
 31
0.0
  0
LINE
  5
93AC
  8
0
 10
4275.4194049329171321
 20
660.3839819261377215
 30
0.0
 11
4275.4184597064486297
 21
660.3282997138077235
 31
0.0
  0
LINE
  5
93AD
  8
0
 10
4275.4340040758015675
 20
660.4033381137051038
 30
0.0
 11
4277.0564319338600399
 21
660.4033381137051038
 31
0.0
  0
LINE
  5
93AE
  8
0
 10
4275.7800566500936839
 20
660.5113494216052459
 30
0.0
 11
4276.7104060759484128
 21
660.5113611685662818
 31
0.0
  0
ARC
  5
93AF
  8
0
 10
4275.4411700417076645
 20
660.3827495838712593
 30
0.0
 40
0.0217999685339785
 50
109.1907698553311974
 51
176.7593682277444032
  0
LINE
  5
93B0
  8
0
 10
4275.7667865761877692
 20
660.49250691590521
 30
0.0
 11
4275.4340040758015675
 21
660.4033381137051038
 31
0.0
  0
ARC
  5
93B1
  8
0
 10
4275.7596020535456773
 20
660.5116607691423951
 30
0.0
 40
0.0204569660365185
 50
290.5608382427126912
 51
359.1279455468649076
  0
LINE
  5
93B2
  8
0
 10
4277.0710310767453848
 20
660.3839819261377215
 30
0.0
 11
4277.0720030134480112
 21
660.3282997138077235
 31
0.0
  0
ARC
  5
93B3
  8
0
 10
4277.0492659679548524
 20
660.3827495838712593
 30
0.0
 40
0.0217999685339785
 50
3.2406317722555982
 51
70.8092301446687458
  0
LINE
  5
93B4
  8
0
 10
4276.7236494334738381
 20
660.49250691590521
 30
0.0
 11
4277.0564319338600399
 21
660.4033381137051038
 31
0.0
  0
ARC
  5
93B5
  8
0
 10
4276.7306932946512461
 20
660.5115328120443792
 30
0.0
 40
0.0202879447990139
 50
180.4847491600245064
 51
249.6841911438239947
  0
LINE
  5
93B6
  8
0
 10
4275.780056650147344
 20
660.5113494216101344
 30
0.0
 11
4275.780056650147344
 21
660.9306619185075533
 31
0.0
  0
LINE
  5
93B7
  8
0
 10
4276.7104060759484128
 20
660.5113611685662818
 30
0.0
 11
4276.7104060759484128
 21
660.9306619185075533
 31
0.0
  0
ARC
  5
93B8
  8
0
 10
4262.7475793948933642
 20
650.7357497374918012
 30
0.0
 40
0.1995488126520119
 50
15.9459008840796201
 51
90.1944827177755144
  0
ARC
  5
93B9
  8
0
 10
4256.8563061338136322
 20
649.1457566658833684
 30
0.0
 40
6.3015914076724089
 50
14.8968816665127406
 51
15.13034573589219
  0
ARC
  5
93BA
  8
0
 10
4263.0031443741227122
 20
650.7810556192222293
 30
0.0
 40
0.059055118014495
 50
194.9999999613905004
 51
270.0000067186211936
  0
ARC
  5
93BB
  8
0
 10
4262.5634451813366468
 20
662.2048029854448714
 30
0.0
 40
11.2709987379963597
 50
270.9326386258202888
 51
277.9545388958881063
  0
ARC
  5
93BC
  8
0
 10
4264.1820672150915925
 20
650.8528303133005011
 30
0.0
 40
0.1983552509095998
 50
107.2614935330368979
 51
164.4722215283775029
  0
LINE
  5
93BE
  8
0
 10
4293.1153101129593779
 20
660.3282997138077235
 30
0.0
 11
4282.9971998767587138
 21
660.3282997138077235
 31
0.0
  0
LINE
  5
93BF
  8
0
 10
4284.5129479082597754
 20
660.1314493200076186
 30
0.0
 11
4282.9887931379380461
 21
660.1314493200076186
 31
0.0
  0
LINE
  5
93C0
  8
0
 10
4284.5129479082597754
 20
660.0960702494077168
 30
0.0
 11
4282.9923642806588759
 21
660.0960702494077168
 31
0.0
  0
LINE
  5
93C1
  8
0
 10
4284.5129479082597754
 20
659.9307159187076195
 30
0.0
 11
4282.9923642806588759
 21
659.9307159187076195
 31
0.0
  0
ARC
  5
93C2
  8
0
 10
4282.9971998767587138
 20
660.2298745169075573
 30
0.0
 40
0.0984251969000028
 50
90.0
 51
270.0
  0
LINE
  5
93C3
  8
0
 10
4283.1027479781587317
 20
660.1314493201075493
 30
0.0
 11
4283.105221923759018
 21
660.0960702494077168
 31
0.0
  0
LINE
  5
93C4
  8
0
 10
4283.2132533842595876
 20
660.1314493201075493
 30
0.0
 11
4283.2157273298589644
 21
660.0960702494077168
 31
0.0
  0
ARC
  5
93C5
  8
0
 10
4282.9923642806588759
 20
660.0133930841076335
 30
0.0
 40
0.1181102361999997
 50
44.4270039736465634
 51
315.5729959584446078
  0
ARC
  5
93C6
  8
0
 10
4282.9923642806588759
 20
660.0133930841076335
 30
0.0
 40
0.0826771653000016
 50
90.0
 51
270.0
  0
LINE
  5
93C7
  8
0
 10
4282.9096871153587927
 20
659.6421752814076171
 30
0.0
 11
4282.9096871153587927
 21
659.9290455042183794
 31
0.0
  0
LINE
  5
93C8
  8
0
 10
4282.9096871153587927
 20
659.9599889108366142
 30
0.0
 11
4282.9096871153587927
 21
660.0211897767303526
 31
0.0
  0
LINE
  5
93C9
  8
0
 10
4283.0750414460590036
 20
659.6421752814076171
 30
0.0
 11
4283.0750414460590036
 21
659.9290455043162638
 31
0.0
  0
ARC
  5
93CA
  8
0
 10
4282.9923642806588759
 20
660.0133930841076335
 30
0.0
 40
0.0984251968999992
 50
57.1401195181165917
 51
302.8598803746147041
  0
ARC
  5
93CB
  8
0
 10
4282.9923642807088981
 20
659.6714060734192344
 30
0.0
 40
0.0876923763615361
 50
199.4712205589698897
 51
340.5287794410301103
  0
LINE
  5
93CC
  8
0
 10
4283.1165442806586725
 20
659.9307159187076195
 30
0.0
 11
4283.2923374031861385
 21
657.4167571443095994
 31
0.0
  0
ARC
  5
93CD
  8
0
 10
4284.3918272090240862
 20
657.4934534043916301
 30
0.0
 40
1.1021615804647451
 50
183.9902736256418905
 51
270.0097263748328942
  0
LINE
  5
93CE
  8
0
 10
4284.3920143089580961
 20
656.3912918398076499
 30
0.0
 11
4284.5562549948590458
 21
656.3912918398076499
 31
0.0
  0
LINE
  5
93CF
  8
0
 10
4284.6664912153592013
 20
656.3912918398076499
 30
0.0
 11
4286.2786959397590181
 21
656.3912918398076499
 31
0.0
  0
LINE
  5
93D0
  8
0
 10
4286.3889321602591735
 20
656.3912918398076499
 30
0.0
 11
4289.7235778294598276
 21
656.3912918398076499
 31
0.0
  0
LINE
  5
93D1
  8
0
 10
4284.5562549948590458
 20
659.8559127691077038
 30
0.0
 11
4284.5562549948590458
 21
656.1393233358077168
 31
0.0
  0
LINE
  5
93D2
  8
0
 10
4284.6664912153592013
 20
659.8559127691077038
 30
0.0
 11
4284.6664912153592013
 21
656.1393233358077168
 31
0.0
  0
LINE
  5
93D3
  8
0
 10
4283.4023050936557411
 20
657.4244468343480321
 30
0.0
 11
4283.2270496867586189
 21
659.9307159187076195
 31
0.0
  0
ARC
  5
93D4
  8
0
 10
4284.3916394141897399
 20
657.4932169083131157
 30
0.0
 40
0.9917215944298778
 50
183.976317256132802
 51
270.4656138430912051
  0
ARC
  5
93D5
  8
0
 10
4284.6113731051600553
 20
656.1393233358077168
 30
0.0
 40
0.0551181101999987
 50
180.0
 51
0.0
  0
LINE
  5
93D6
  8
0
 10
4286.2786959397590181
 20
659.8559127691077038
 30
0.0
 11
4286.2786959397590181
 21
656.33617372950755
 31
0.0
  0
LINE
  5
93D7
  8
0
 10
4286.3889321602591735
 20
659.8559127691077038
 30
0.0
 11
4286.3889321602591735
 21
656.33617372950755
 31
0.0
  0
ARC
  5
93D8
  8
0
 10
4286.333814050059118
 20
656.33617372950755
 30
0.0
 40
0.0551181101999987
 50
180.0
 51
0.0
  0
LINE
  5
93D9
  8
0
 10
4284.399698545672436
 20
656.5015280603076917
 30
0.0
 11
4284.5562549948590458
 21
656.5015280603076917
 31
0.0
  0
LINE
  5
93DA
  8
0
 10
4284.6664912153592013
 20
656.5015280603076917
 30
0.0
 11
4286.2786959397590181
 21
656.5015280603076917
 31
0.0
  0
LINE
  5
93DB
  8
0
 10
4286.3889321602591735
 20
656.5015280603076917
 30
0.0
 11
4289.7235778294598276
 21
656.5015280603076917
 31
0.0
  0
LINE
  5
93DC
  8
0
 10
4284.5129479082597754
 20
660.1708733990076325
 30
0.0
 11
4284.5129479082597754
 21
659.8559127691077038
 31
0.0
  0
LINE
  5
93DD
  8
0
 10
4284.5129479082597754
 20
659.8559127691077038
 30
0.0
 11
4291.5995620814592257
 21
659.8559127691077038
 31
0.0
  0
LINE
  5
93DE
  8
0
 10
4284.5129479082597754
 20
660.1708733990076325
 30
0.0
 11
4291.5995620814592257
 21
660.1708733990076325
 31
0.0
  0
ARC
  5
93DF
  8
0
 10
4284.6113731051600553
 20
656.33617372950755
 30
0.0
 40
0.0551181101999996
 50
180.0
 51
0.0
  0
LINE
  5
93E0
  8
0
 10
4291.5995620814592257
 20
660.1314493200076186
 30
0.0
 11
4293.123716851780955
 21
660.1314493200076186
 31
0.0
  0
LINE
  5
93E1
  8
0
 10
4291.5995620814592257
 20
660.0960702494077168
 30
0.0
 11
4293.1201457090592157
 21
660.0960702494077168
 31
0.0
  0
LINE
  5
93E2
  8
0
 10
4291.5995620814592257
 20
659.9307159187076195
 30
0.0
 11
4293.1201457090592157
 21
659.9307159187076195
 31
0.0
  0
ARC
  5
93E3
  8
0
 10
4293.1153101129593779
 20
660.2298745169075573
 30
0.0
 40
0.0984251969000028
 50
270.0
 51
90.0
  0
LINE
  5
93E4
  8
0
 10
4293.0097620115602695
 20
660.1314493201075493
 30
0.0
 11
4293.0072880659590737
 21
660.0960702494077168
 31
0.0
  0
LINE
  5
93E5
  8
0
 10
4292.8992566054594135
 20
660.1314493201075493
 30
0.0
 11
4292.8967826598591273
 21
660.0960702494077168
 31
0.0
  0
ARC
  5
93E6
  8
0
 10
4293.1201457090592157
 20
660.0133930841076335
 30
0.0
 40
0.1181102361999997
 50
224.4270040415553922
 51
135.572996026353394
  0
ARC
  5
93E7
  8
0
 10
4293.1201457090592157
 20
660.0133930841076335
 30
0.0
 40
0.0826771653000016
 50
270.0
 51
90.0
  0
LINE
  5
93E8
  8
0
 10
4293.202822874359299
 20
659.6421752814076171
 30
0.0
 11
4293.202822874359299
 21
659.9290455042183794
 31
0.0
  0
LINE
  5
93E9
  8
0
 10
4293.202822874359299
 20
659.9599889108366142
 30
0.0
 11
4293.202822874359299
 21
660.0211897767303526
 31
0.0
  0
LINE
  5
93EA
  8
0
 10
4293.0374685436581785
 20
659.6421752814076171
 30
0.0
 11
4293.0374685436581785
 21
659.9290455043162638
 31
0.0
  0
ARC
  5
93EB
  8
0
 10
4293.1201457090592157
 20
660.0133930841076335
 30
0.0
 40
0.0984251968999992
 50
237.1401196253852959
 51
122.8598804818833941
  0
ARC
  5
93EC
  8
0
 10
4293.1201457090091935
 20
659.6714060734192344
 30
0.0
 40
0.0876923763615361
 50
199.4712205589698897
 51
340.5287794410301103
  0
LINE
  5
93ED
  8
0
 10
4292.9959657090594192
 20
659.9307159187076195
 30
0.0
 11
4292.8201725865328626
 21
657.4167571443095994
 31
0.0
  0
ARC
  5
93EE
  8
0
 10
4291.7206827806940055
 20
657.4934534043916301
 30
0.0
 40
1.1021615804647451
 50
269.9902736251669921
 51
356.0097263743580243
  0
LINE
  5
93EF
  8
0
 10
4291.7204956807590861
 20
656.3912918398076499
 30
0.0
 11
4291.5562549948581363
 21
656.3912918398076499
 31
0.0
  0
LINE
  5
93F0
  8
0
 10
4291.4460187743597999
 20
656.3912918398076499
 30
0.0
 11
4289.8338140499581641
 21
656.3912918398076499
 31
0.0
  0
LINE
  5
93F1
  8
0
 10
4291.5562549948581363
 20
659.8559127691077038
 30
0.0
 11
4291.5562549948581363
 21
656.1393233358077168
 31
0.0
  0
LINE
  5
93F2
  8
0
 10
4291.4460187743597999
 20
659.8559127691077038
 30
0.0
 11
4291.4460187743597999
 21
656.1393233358077168
 31
0.0
  0
LINE
  5
93F3
  8
0
 10
4292.7102048960632601
 20
657.4244468343480321
 30
0.0
 11
4292.8854603029603823
 21
659.9307159187076195
 31
0.0
  0
ARC
  5
93F4
  8
0
 10
4291.7208705755283518
 20
657.4932169083131157
 30
0.0
 40
0.9917215944298778
 50
269.5343861569086812
 51
356.0236827438670844
  0
ARC
  5
93F5
  8
0
 10
4291.5011368845589459
 20
656.1393233358077168
 30
0.0
 40
0.0551181101999987
 50
180.0
 51
0.0
  0
LINE
  5
93F6
  8
0
 10
4289.8338140499581641
 20
659.8559127691077038
 30
0.0
 11
4289.8338140499581641
 21
656.33617372950755
 31
0.0
  0
LINE
  5
93F7
  8
0
 10
4289.7235778294598276
 20
659.8559127691077038
 30
0.0
 11
4289.7235778294598276
 21
656.33617372950755
 31
0.0
  0
ARC
  5
93F8
  8
0
 10
4289.7786959396580642
 20
656.33617372950755
 30
0.0
 40
0.0551181101999987
 50
180.0
 51
0.0
  0
LINE
  5
93F9
  8
0
 10
4291.7128114440456557
 20
656.5015280603076917
 30
0.0
 11
4291.5562549948581363
 21
656.5015280603076917
 31
0.0
  0
LINE
  5
93FA
  8
0
 10
4291.4460187743597999
 20
656.5015280603076917
 30
0.0
 11
4289.8338140499581641
 21
656.5015280603076917
 31
0.0
  0
LINE
  5
93FB
  8
0
 10
4291.5995620814592257
 20
660.1708733990076325
 30
0.0
 11
4291.5995620814592257
 21
659.8559127691077038
 31
0.0
  0
ARC
  5
93FC
  8
0
 10
4291.5011368845589459
 20
656.33617372950755
 30
0.0
 40
0.0551181101999996
 50
180.0
 51
0.0
  0
ARC
  5
93FD
  8
0
 10
4249.2653110739765907
 20
651.0970062847562758
 30
0.0
 40
0.1994689914533345
 50
32.1985567063253484
 51
68.1095113895397759
  0
ARC
  5
93FE
  8
0
 10
4250.6877860414906536
 20
656.4787682860114728
 30
0.0
 40
5.368689068829994
 50
255.457073150337493
 51
271.3523069750838204
  0
ARC
  5
93FF
  8
0
 10
4250.8179386071660701
 20
650.9006004502449514
 30
0.0
 40
0.2110022795497293
 50
90.9372405396689771
 51
128.1961111919877965
  0
LINE
  5
9400
  8
0
 10
4257.3741501441263608
 20
650.8329226864087786
 30
0.0
 11
4262.9222312396414054
 21
650.8329226864087786
 31
0.0
  0
ARC
  5
9401
  8
0
 10
4275.580040512870255
 20
650.7494022885243794
 30
0.0
 40
0.1983826831920181
 50
30.3349449688748116
 51
89.7389360780254748
  0
ARC
  5
9402
  8
0
 10
4275.6636049888638809
 20
654.5566028646923087
 30
0.0
 40
3.6097665044619549
 50
268.687860997683913
 51
290.7309416408847937
  0
ARC
  5
9403
  8
0
 10
4277.1511115331413748
 20
650.9693085210737991
 30
0.0
 40
0.2976733371949071
 50
134.7920560241288968
 51
163.4959824788261074
  0
LINE
  5
9404
  8
0
 10
4269.4213942416181453
 20
650.832922686307711
 30
0.0
 11
4275.2737929164586603
 21
650.8329226864076418
 31
0.0
  0
ARC
  5
9405
  8
0
 10
4269.028142377174845
 20
654.3381261122949581
 30
0.0
 40
3.395665880894509
 50
247.424350413587689
 51
271.1483698568782756
  0
ARC
  5
9406
  8
0
 10
4269.1049720287292075
 20
650.7581478810708404
 30
0.0
 40
0.1852023927636519
 50
92.7158603785043738
 51
150.5973432128311913
  0
ARC
  5
9407
  8
0
 10
4267.6248580891760867
 20
651.0212285285010694
 30
0.0
 40
0.2070085329816259
 50
9.7045965093243804
 51
61.2154465912852785
  0
ENDSEC
  0
EOF
