  0
SECTION
  2
HEADER
  9
$ACADVER
  1
AC1009
  9
$INSBASE
 10
4352.3760347186080253
 20
140.9353462569951034
 30
0.0
  9
$EXTMIN
 10
4347.7173802094594066
 20
140.9353462569951034
 30
0.0
  9
$EXTMAX
 10
4353.3602866871588049
 20
146.5534564931951138
 30
0.0
  9
$LIMMIN
 10
0.0
 20
0.0
  9
$LIMMAX
 10
11.6929133858000007
 20
8.2677165353999982
  9
$ORTHOMODE
 70
     0
  9
$REGENMODE
 70
     1
  9
$FILLMODE
 70
     1
  9
$QTEXTMODE
 70
     0
  9
$MIRRTEXT
 70
     0
  9
$DRAGMODE
 70
     2
  9
$LTSCALE
 40
0.6431102362
  9
$OSMODE
 70
  4095
  9
$ATTMODE
 70
     1
  9
$TEXTSIZE
 40
0.2
  9
$TRACEWID
 40
0.05
  9
$TEXTSTYLE
  7
STANDARD
  9
$CLAYER
  8
0
  9
$CELTYPE
  6
BYLAYER
  9
$CECOLOR
 62
   256
  9
$DIMSCALE
 40
1.0
  9
$DIMASZ
 40
0.1875
  9
$DIMEXO
 40
0.0625
  9
$DIMDLI
 40
0.4443307087
  9
$DIMRND
 40
0.0
  9
$DIMDLE
 40
0.0
  9
$DIMEXE
 40
0.125
  9
$DIMTP
 40
0.01
  9
$DIMTM
 40
0.01
  9
$DIMTXT
 40
2.0
  9
$DIMCEN
 40
0.1052362205
  9
$DIMTSZ
 40
0.0
  9
$DIMTOL
 70
     1
  9
$DIMLIM
 70
     0
  9
$DIMTIH
 70
     1
  9
$DIMTOH
 70
     1
  9
$DIMSE1
 70
     0
  9
$DIMSE2
 70
     0
  9
$DIMTAD
 70
     0
  9
$DIMZIN
 70
     0
  9
$DIMBLK
  1

  9
$DIMASO
 70
     1
  9
$DIMSHO
 70
     1
  9
$DIMPOST
  1
\X
  9
$DIMAPOST
  1

  9
$DIMALT
 70
     1
  9
$DIMALTD
 70
     2
  9
$DIMALTF
 40
25.3999999999999986
  9
$DIMLFAC
 40
1.0
  9
$DIMTOFL
 70
     0
  9
$DIMTVP
 40
0.0
  9
$DIMTIX
 70
     0
  9
$DIMSOXD
 70
     0
  9
$DIMSAH
 70
     0
  9
$DIMBLK1
  1

  9
$DIMBLK2
  1

  9
$DIMSTYLE
  2
STANDARD
  9
$DIMCLRD
 70
     0
  9
$DIMCLRE
 70
     0
  9
$DIMCLRT
 70
     0
  9
$DIMTFAC
 40
1.0
  9
$DIMGAP
 40
0.09
  9
$LUNITS
 70
     2
  9
$LUPREC
 70
     4
  9
$SKETCHINC
 40
0.1
  9
$FILLETRAD
 40
0.0
  9
$AUNITS
 70
     0
  9
$AUPREC
 70
     0
  9
$MENU
  1
.
  9
$ELEVATION
 40
0.0
  9
$PELEVATION
 40
0.0
  9
$THICKNESS
 40
0.0
  9
$LIMCHECK
 70
     0
  9
$BLIPMODE
 70
     0
  9
$CHAMFERA
 40
0.0
  9
$CHAMFERB
 40
0.0
  9
$SKPOLY
 70
     0
  9
$TDCREATE
 40
2458060.468368056230247
  9
$TDUPDATE
 40
2459388.7134490739554167
  9
$TDINDWG
 40
0.4444167824
  9
$TDUSRTIMER
 40
0.4444167824
  9
$USRTIMER
 70
     1
  9
$ANGBASE
 50
0.0
  9
$ANGDIR
 70
     0
  9
$PDMODE
 70
     0
  9
$PDSIZE
 40
0.3125
  9
$PLINEWID
 40
0.0
  9
$COORDS
 70
     1
  9
$SPLFRAME
 70
     0
  9
$SPLINETYPE
 70
     6
  9
$SPLINESEGS
 70
     8
  9
$ATTDIA
 70
     1
  9
$ATTREQ
 70
     1
  9
$HANDLING
 70
     1
  9
$HANDSEED
  5
A528
  9
$SURFTAB1
 70
     6
  9
$SURFTAB2
 70
     6
  9
$SURFTYPE
 70
     6
  9
$SURFU
 70
     6
  9
$SURFV
 70
     6
  9
$UCSNAME
  2

  9
$UCSORG
 10
0.0
 20
0.0
 30
0.0
  9
$UCSXDIR
 10
1.0
 20
0.0
 30
0.0
  9
$UCSYDIR
 10
0.0
 20
1.0
 30
0.0
  9
$PUCSNAME
  2

  9
$PUCSORG
 10
0.0
 20
0.0
 30
0.0
  9
$PUCSXDIR
 10
1.0
 20
0.0
 30
0.0
  9
$PUCSYDIR
 10
0.0
 20
1.0
 30
0.0
  9
$USERI1
 70
     0
  9
$USERI2
 70
     0
  9
$USERI3
 70
     0
  9
$USERI4
 70
     0
  9
$USERI5
 70
     0
  9
$USERR1
 40
0.0
  9
$USERR2
 40
0.0
  9
$USERR3
 40
0.0
  9
$USERR4
 40
0.0
  9
$USERR5
 40
0.0
  9
$WORLDVIEW
 70
     1
  9
$SHADEDGE
 70
     3
  9
$SHADEDIF
 70
    70
  9
$TILEMODE
 70
     1
  9
$MAXACTVP
 70
    64
  9
$PLIMCHECK
 70
     0
  9
$PEXTMIN
 10
1.0000000000000000E+20
 20
1.0000000000000000E+20
 30
1.0000000000000000E+20
  9
$PEXTMAX
 10
-1.0000000000000000E+20
 20
-1.0000000000000000E+20
 30
-1.0000000000000000E+20
  9
$PLIMMIN
 10
0.0
 20
0.0
  9
$PLIMMAX
 10
12.0
 20
9.0
  9
$UNITMODE
 70
     0
  9
$VISRETAIN
 70
     1
  9
$PLINEGEN
 70
     0
  9
$PSLTSCALE
 70
     1
  0
ENDSEC
  0
SECTION
  2
TABLES
  0
TABLE
  2
VPORT
 70
     1
  0
VPORT
  2
*ACTIVE
 70
     0
 10
0.0
 20
0.0
 11
1.0
 21
1.0
 12
546.9947660654970605
 22
18.6781782537290688
 13
0.0
 23
0.0
 14
1.0
 24
1.0
 15
0.0
 25
0.0
 16
0.0
 26
0.0
 36
17.1152628219792007
 17
3803.5440673828129547
 27
125.9952621967499056
 37
0.0
 40
7.323171285230627
 41
2.0073221757322171
 42
50.0
 43
0.0
 44
0.0
 50
0.0
 51
0.0
 71
     0
 72
   100
 73
     1
 74
     1
 75
     0
 76
     0
 77
     0
 78
     0
  0
ENDTAB
  0
TABLE
  2
LTYPE
 70
     2
  0
LTYPE
  2
CONTINUOUS
 70
     0
  3
Solid line
 72
    65
 73
     0
 40
0.0
  0
LTYPE
  2
PHANTOM2
 70
     0
  3
___ _ _ ___ _ _ ___ _ _ ___ _ _
 72
    65
 73
     6
 40
1.25
 49
0.625
 49
-0.125
 49
0.125
 49
-0.125
 49
0.125
 49
-0.125
  0
ENDTAB
  0
TABLE
  2
LAYER
 70
     2
  0
LAYER
  2
0
 70
     0
 62
   255
  6
CONTINUOUS
  0
LAYER
  2
DEFPOINTS
 70
     0
 62
     7
  6
CONTINUOUS
  0
ENDTAB
  0
TABLE
  2
STYLE
 70
     1
  0
STYLE
  2
STANDARD
 70
     0
 40
0.0
 41
0.8
 50
0.0
 71
     0
 42
0.2
  3
txt
  4

  0
ENDTAB
  0
TABLE
  2
VIEW
 70
     0
  0
ENDTAB
  0
TABLE
  2
UCS
 70
     0
  0
ENDTAB
  0
TABLE
  2
APPID
 70
     9
  0
APPID
  2
ACAD
 70
     0
  0
APPID
  2
ACAD_MLEADERVER
 70
     0
  0
APPID
  2
ACAD_EXEMPT_FROM_CAD_STANDARDS
 70
     0
  0
APPID
  2
ACAD_NAV_VCDISPLAY
 70
     0
  0
APPID
  2
ACAECLAYERSTANDARD
 70
     0
  0
APPID
  2
ACCMTRANSPARENCY
 70
     0
  0
APPID
  2
ACAD_DSTYLE_DIMJAG
 70
     0
  0
APPID
  2
ACAD_DSTYLE_DIMTALN
 70
     0
  0
APPID
  2
ACDBATTR
 70
     0
  0
ENDTAB
  0
TABLE
  2
DIMSTYLE
 70
     1
  0
DIMSTYLE
  2
STANDARD
 70
     0
  3

  4

  5

  6

  7

 40
1.0
 41
0.1875
 42
0.0625
 43
0.38
 44
0.125
 45
0.0
 46
0.0
 47
0.01
 48
0.01
140
0.15625
141
0.09
142
0.0
143
25.3999999999999986
144
1.0
145
0.0
146
1.0
147
0.09
 71
     1
 72
     0
 73
     1
 74
     1
 75
     0
 76
     0
 77
     0
 78
     4
170
     0
171
     2
172
     0
173
     0
174
     0
175
     0
176
     0
177
     0
178
     0
  0
ENDTAB
  0
ENDSEC
  0
SECTION
  2
BLOCKS
  0
BLOCK
  8
0
  2
$MODEL_SPACE
 70
     0
 10
0.0
 20
0.0
 30
0.0
  3
$MODEL_SPACE
  1

  0
ENDBLK
  5
21
  8
0
  0
BLOCK
 67
     1
  8
0
  2
$PAPER_SPACE
 70
     0
 10
0.0
 20
0.0
 30
0.0
  3
$PAPER_SPACE
  1

  0
ENDBLK
  5
1D
 67
     1
  8
0
  0
ENDSEC
  0
SECTION
  2
ENTITIES
  0
ATTDEF
  5
3930
  8
DEFPOINTS
 10
4352.3731701958122358
 20
140.939398932583714
 30
0.0
 40
0.001
  1
K-27883T-4CD
  3

  2
MODELNUMBER
 70
     0
1001
ACDBATTR
1070
     0
1070
     1
  0
ATTDEF
  5
3931
  8
DEFPOINTS
 10
4352.3731701958122358
 20
140.937732265916992
 30
0.0
 40
0.001
  1

  3

  2
TRADENAME
 70
     0
1001
ACDBATTR
1070
     0
1070
     1
  0
ATTDEF
  5
3932
  8
DEFPOINTS
 10
4352.3731701958122358
 20
140.9360655992502984
 30
0.0
 40
0.001
  1
BATHROOM SINK FAUCET
  3

  2
PRODUCT
 70
     0
1001
ACDBATTR
1070
     0
1070
     1
  0
LINE
  5
A375
  8
0
 10
4351.5492630650587671
 20
145.4629053120951028
 30
0.0
 11
4353.202806372158193
 21
145.4629053120951028
 31
0.0
  0
LINE
  5
A376
  8
0
 10
4351.5492630650587671
 20
145.5692045246950954
 30
0.0
 11
4352.4941449548587116
 21
145.5692045246950954
 31
0.0
  0
LINE
  5
A377
  8
0
 10
4351.4114863831600815
 20
141.1321966506951071
 30
0.0
 11
4353.3405830540386887
 21
141.1321966506951071
 31
0.0
  0
LINE
  5
A378
  8
0
 10
4351.3917827501591091
 20
140.9353462569951034
 30
0.0
 11
4353.3602866870587604
 21
140.9353462569951034
 31
0.0
  0
LINE
  5
A379
  8
0
 10
4349.4626488918593168
 20
146.5534564931951138
 30
0.0
 11
4353.1634362934591991
 21
146.5534564931951138
 31
0.0
  0
LINE
  5
A37A
  8
0
 10
4353.3602866870587604
 20
141.1125116052660928
 30
0.0
 11
4353.3602866870587604
 21
140.9353462569951034
 31
0.0
  0
ARC
  5
A37B
  8
0
 10
4353.3406016329627164
 20
141.1125116052660928
 30
0.0
 40
0.0196850541965975
 50
0.0
 51
90.0540762561166446
  0
LINE
  5
A37C
  8
0
 10
4351.3917827500590647
 20
141.1125116113950924
 30
0.0
 11
4351.3917827501591091
 21
140.9353462569951034
 31
0.0
  0
ARC
  5
A37D
  8
0
 10
4351.4114678042560627
 20
141.1125116052660928
 30
0.0
 40
0.0196850541965975
 50
89.9459237968794838
 51
179.9999821609366109
  0
LINE
  5
A37E
  8
0
 10
4351.5492630650587671
 20
143.8881021624951018
 30
0.0
 11
4351.5492630650587671
 21
141.1321966506951071
 31
0.0
  0
LINE
  5
A37F
  8
0
 10
4349.2054912464027439
 20
143.8881021624951018
 30
0.0
 11
4351.5492630650587671
 21
143.8881021624951018
 31
0.0
  0
ARC
  5
A380
  8
0
 10
4349.2054912464027439
 20
143.415661217927493
 30
0.0
 40
0.4724409446675964
 50
89.9999999893173879
 51
145.0000000238646862
  0
LINE
  5
A381
  8
0
 10
4348.8184902807879553
 20
143.6866422113791941
 30
0.0
 11
4348.4913821410591481
 21
143.2194833736951125
 31
0.0
  0
LINE
  5
A382
  8
0
 10
4348.4913821410591481
 20
143.2194833736951125
 30
0.0
 11
4347.7173802094594066
 21
143.7614453607951077
 31
0.0
  0
LINE
  5
A383
  8
0
 10
4347.7173802094594066
 20
143.7614453607951077
 30
0.0
 11
4348.0444883491272776
 21
144.2286041983925031
 31
0.0
  0
ARC
  5
A384
  8
0
 10
4349.2054912464591325
 20
143.4156612176950887
 30
0.0
 40
1.4173228346000031
 50
90.0
 51
144.9999999966109101
  0
LINE
  5
A385
  8
0
 10
4349.2054912464591325
 20
144.8329840522951031
 30
0.0
 11
4351.5492630650587671
 21
144.8329840522951031
 31
0.0
  0
ARC
  5
A386
  8
0
 10
4350.8708496687468141
 20
144.3605431073951024
 30
0.0
 40
0.826707434776546
 50
325.1469962597516883
 51
34.8530037402482833
  0
LINE
  5
A387
  8
0
 10
4351.5492630650587671
 20
144.8329840522951031
 30
0.0
 11
4351.5492630650587671
 21
145.4629053120951028
 31
0.0
  0
LINE
  5
A388
  8
0
 10
4353.202806372158193
 20
141.1321966506951071
 30
0.0
 11
4353.202806372158193
 21
145.4629053120951028
 31
0.0
  0
ARC
  5
A389
  8
0
 10
4352.3418168453590624
 20
145.3374471456951937
 30
0.0
 40
0.7480314960996847
 50
161.950630909290993
 51
170.3448117634019923
  0
ARC
  5
A38A
  8
0
 10
4352.4102525917587627
 20
145.3374471456951085
 30
0.0
 40
0.7480314960999969
 50
9.6551882366012265
 51
34.6432002194973734
  0
LINE
  5
A38B
  8
0
 10
4352.4941449548587116
 20
145.5692045246950954
 30
0.0
 11
4353.202806372158193
 21
145.8271361867950873
 31
0.0
  0
LINE
  5
A38C
  8
0
 10
4353.202806372158193
 20
145.8271361867950873
 30
0.0
 11
4353.202806372158193
 21
146.5140864144950967
 31
0.0
  0
LINE
  5
A38D
  8
0
 10
4351.5492630650587671
 20
145.5692045246950954
 30
0.0
 11
4351.5492630650587671
 21
146.2384958632950998
 31
0.0
  0
ARC
  5
A38E
  8
0
 10
4353.1634362934591991
 20
146.5140864144950967
 30
0.0
 40
0.0393700786999904
 50
0.0
 51
90.0
  0
LINE
  5
A38F
  8
0
 10
4349.423278813059369
 20
146.5140864144950967
 30
0.0
 11
4349.423278813059369
 21
146.3566060996658109
 31
0.0
  0
ARC
  5
A390
  8
0
 10
4349.4626488918593168
 20
146.5140864144950967
 30
0.0
 40
0.0393700786999958
 50
90.0
 51
180.0000000000032117
  0
ARC
  5
A391
  8
0
 10
4349.4626488919302574
 20
146.3566060996658109
 30
0.0
 40
0.0393700788707037
 50
180.0000002484304957
 51
269.9999998970823185
  0
LINE
  5
A392
  8
0
 10
4349.4626488919302574
 20
146.3172360207950931
 30
0.0
 11
4351.4705229075598254
 21
146.3172360207950931
 31
0.0
  0
ARC
  5
A393
  8
0
 10
4351.4705229075598254
 20
146.2384958632950998
 30
0.0
 40
0.078740157500004
 50
0.0000000000016284
 51
90.0
  0
ARC
  5
A394
  8
0
 10
4353.2106605035596658
 20
146.0495194853951091
 30
0.0
 40
0.0196850394000003
 50
270.0
 51
340.5345699170063085
  0
LINE
  5
A395
  8
0
 10
4353.202806372158193
 20
146.0298344459951068
 30
0.0
 11
4353.2106605035596658
 21
146.0298344459951068
 31
0.0
  0
ARC
  5
A396
  8
0
 10
4352.820916608358857
 20
146.1873147608951058
 30
0.0
 40
0.4330708661000987
 50
340.5290425862493748
 51
19.4709151019860194
  0
ARC
  5
A397
  8
0
 10
4353.2106605035596658
 20
146.3251100364950901
 30
0.0
 40
0.0196850394000003
 50
19.4644989497283589
 51
90.0
  0
LINE
  5
A398
  8
0
 10
4353.202806372158193
 20
146.3447950758950924
 30
0.0
 11
4353.2106605035596658
 21
146.3447950758950924
 31
0.0
  0
ARC
  5
A399
  8
0
 10
4353.9707922864081411
 20
146.1871018037662964
 30
0.0
 40
0.7826856685980499
 50
168.8780472970069013
 51
191.1219527029946903
  0
LINE
  5
A39A
  8
0
 10
4353.202806372158193
 20
146.095329322495104
 30
0.0
 11
4353.1935055519843445
 21
146.095329322495104
 31
0.0
  0
LINE
  5
A39B
  8
0
 10
4353.202806372158193
 20
146.3152675167951031
 30
0.0
 11
4353.1986715666789678
 21
146.3152675167951031
 31
0.0
  0
ENDSEC
  0
EOF
