  0
SECTION
  2
HEADER
  9
$ACADVER
  1
AC1009
  9
$INSBASE
 10
2900.0595315550949636
 20
77.5935858225367951
 30
0.0
  9
$EXTMIN
 10
2891.7514513594737764
 20
72.5625692526765249
 30
-0.0015258207003583
  9
$EXTMAX
 10
2900.1592458421259835
 20
92.0416051554843477
 30
0.0000000349246037
  9
$LIMMIN
 10
0.0
 20
0.0
  9
$LIMMAX
 10
11.6929133858000007
 20
8.2677165353999982
  9
$ORTHOMODE
 70
     0
  9
$REGENMODE
 70
     1
  9
$FILLMODE
 70
     1
  9
$QTEXTMODE
 70
     0
  9
$MIRRTEXT
 70
     0
  9
$DRAGMODE
 70
     2
  9
$LTSCALE
 40
0.6431102362
  9
$OSMODE
 70
  4095
  9
$ATTMODE
 70
     1
  9
$TEXTSIZE
 40
0.2
  9
$TRACEWID
 40
0.05
  9
$TEXTSTYLE
  7
STANDARD
  9
$CLAYER
  8
0
  9
$CELTYPE
  6
BYLAYER
  9
$CECOLOR
 62
   256
  9
$DIMSCALE
 40
1.0
  9
$DIMASZ
 40
0.1875
  9
$DIMEXO
 40
0.0625
  9
$DIMDLI
 40
0.4443307087
  9
$DIMRND
 40
0.0
  9
$DIMDLE
 40
0.0
  9
$DIMEXE
 40
0.125
  9
$DIMTP
 40
0.01
  9
$DIMTM
 40
0.01
  9
$DIMTXT
 40
2.0
  9
$DIMCEN
 40
0.1052362205
  9
$DIMTSZ
 40
0.0
  9
$DIMTOL
 70
     1
  9
$DIMLIM
 70
     0
  9
$DIMTIH
 70
     1
  9
$DIMTOH
 70
     1
  9
$DIMSE1
 70
     0
  9
$DIMSE2
 70
     0
  9
$DIMTAD
 70
     0
  9
$DIMZIN
 70
     0
  9
$DIMBLK
  1

  9
$DIMASO
 70
     1
  9
$DIMSHO
 70
     1
  9
$DIMPOST
  1
\X
  9
$DIMAPOST
  1

  9
$DIMALT
 70
     1
  9
$DIMALTD
 70
     2
  9
$DIMALTF
 40
25.3999999999999986
  9
$DIMLFAC
 40
1.0
  9
$DIMTOFL
 70
     0
  9
$DIMTVP
 40
0.0
  9
$DIMTIX
 70
     0
  9
$DIMSOXD
 70
     0
  9
$DIMSAH
 70
     0
  9
$DIMBLK1
  1

  9
$DIMBLK2
  1

  9
$DIMSTYLE
  2
STANDARD
  9
$DIMCLRD
 70
     0
  9
$DIMCLRE
 70
     0
  9
$DIMCLRT
 70
     0
  9
$DIMTFAC
 40
1.0
  9
$DIMGAP
 40
0.09
  9
$LUNITS
 70
     2
  9
$LUPREC
 70
     4
  9
$SKETCHINC
 40
0.1
  9
$FILLETRAD
 40
0.0
  9
$AUNITS
 70
     0
  9
$AUPREC
 70
     0
  9
$MENU
  1
.
  9
$ELEVATION
 40
0.0
  9
$PELEVATION
 40
0.0
  9
$THICKNESS
 40
0.0
  9
$LIMCHECK
 70
     0
  9
$BLIPMODE
 70
     0
  9
$CHAMFERA
 40
0.0
  9
$CHAMFERB
 40
0.0
  9
$SKPOLY
 70
     0
  9
$TDCREATE
 40
2458060.468368056230247
  9
$TDUPDATE
 40
2459779.8806828698143363
  9
$TDINDWG
 40
0.4946135417
  9
$TDUSRTIMER
 40
0.4946135417
  9
$USRTIMER
 70
     1
  9
$ANGBASE
 50
0.0
  9
$ANGDIR
 70
     0
  9
$PDMODE
 70
     0
  9
$PDSIZE
 40
0.3125
  9
$PLINEWID
 40
0.0
  9
$COORDS
 70
     1
  9
$SPLFRAME
 70
     0
  9
$SPLINETYPE
 70
     6
  9
$SPLINESEGS
 70
     8
  9
$ATTDIA
 70
     1
  9
$ATTREQ
 70
     1
  9
$HANDLING
 70
     1
  9
$HANDSEED
  5
32232
  9
$SURFTAB1
 70
     6
  9
$SURFTAB2
 70
     6
  9
$SURFTYPE
 70
     6
  9
$SURFU
 70
     6
  9
$SURFV
 70
     6
  9
$UCSNAME
  2

  9
$UCSORG
 10
0.0
 20
0.0
 30
0.0
  9
$UCSXDIR
 10
1.0
 20
0.0
 30
0.0
  9
$UCSYDIR
 10
0.0
 20
1.0
 30
0.0
  9
$PUCSNAME
  2

  9
$PUCSORG
 10
0.0
 20
0.0
 30
0.0
  9
$PUCSXDIR
 10
1.0
 20
0.0
 30
0.0
  9
$PUCSYDIR
 10
0.0
 20
1.0
 30
0.0
  9
$USERI1
 70
     0
  9
$USERI2
 70
     0
  9
$USERI3
 70
     0
  9
$USERI4
 70
     0
  9
$USERI5
 70
     0
  9
$USERR1
 40
0.0
  9
$USERR2
 40
0.0
  9
$USERR3
 40
0.0
  9
$USERR4
 40
0.0
  9
$USERR5
 40
0.0
  9
$WORLDVIEW
 70
     1
  9
$SHADEDGE
 70
     3
  9
$SHADEDIF
 70
    70
  9
$TILEMODE
 70
     1
  9
$MAXACTVP
 70
    64
  9
$PLIMCHECK
 70
     0
  9
$PEXTMIN
 10
1.0000000000000000E+20
 20
1.0000000000000000E+20
 30
1.0000000000000000E+20
  9
$PEXTMAX
 10
-1.0000000000000000E+20
 20
-1.0000000000000000E+20
 30
-1.0000000000000000E+20
  9
$PLIMMIN
 10
0.0
 20
0.0
  9
$PLIMMAX
 10
12.0
 20
9.0
  9
$UNITMODE
 70
     0
  9
$VISRETAIN
 70
     1
  9
$PLINEGEN
 70
     0
  9
$PSLTSCALE
 70
     1
  0
ENDSEC
  0
SECTION
  2
TABLES
  0
TABLE
  2
VPORT
 70
     1
  0
VPORT
  2
*ACTIVE
 70
     0
 10
0.0
 20
0.0
 11
1.0
 21
1.0
 12
-907.5887187820127338
 22
-43.6931749926694835
 13
0.0
 23
0.0
 14
1.0
 24
1.0
 15
0.0
 25
0.0
 16
0.0
 26
0.0
 36
17.1152628219792007
 17
3803.5440673828129547
 27
125.9952621967499056
 37
0.0
 40
19.6185039402980905
 41
2.2831541218637992
 42
50.0
 43
0.0
 44
0.0
 50
0.0
 51
0.0
 71
     0
 72
   100
 73
     1
 74
     1
 75
     0
 76
     0
 77
     0
 78
     0
  0
ENDTAB
  0
TABLE
  2
LTYPE
 70
     2
  0
LTYPE
  2
CONTINUOUS
 70
     0
  3
Solid line
 72
    65
 73
     0
 40
0.0
  0
LTYPE
  2
PHANTOM2
 70
     0
  3
___ _ _ ___ _ _ ___ _ _ ___ _ _
 72
    65
 73
     6
 40
1.25
 49
0.625
 49
-0.125
 49
0.125
 49
-0.125
 49
0.125
 49
-0.125
  0
ENDTAB
  0
TABLE
  2
LAYER
 70
     2
  0
LAYER
  2
0
 70
     0
 62
   255
  6
CONTINUOUS
  0
LAYER
  2
DEFPOINTS
 70
     0
 62
     7
  6
CONTINUOUS
  0
ENDTAB
  0
TABLE
  2
STYLE
 70
     1
  0
STYLE
  2
STANDARD
 70
     0
 40
0.0
 41
0.8
 50
0.0
 71
     0
 42
0.2
  3
txt
  4

  0
ENDTAB
  0
TABLE
  2
VIEW
 70
     0
  0
ENDTAB
  0
TABLE
  2
UCS
 70
     0
  0
ENDTAB
  0
TABLE
  2
APPID
 70
    10
  0
APPID
  2
ACAD
 70
     0
  0
APPID
  2
ACAD_MLEADERVER
 70
     0
  0
APPID
  2
ACAD_EXEMPT_FROM_CAD_STANDARDS
 70
     0
  0
APPID
  2
ACAD_NAV_VCDISPLAY
 70
     0
  0
APPID
  2
ACAECLAYERSTANDARD
 70
     0
  0
APPID
  2
ACCMTRANSPARENCY
 70
     0
  0
APPID
  2
ACAD_DSTYLE_DIMJAG
 70
     0
  0
APPID
  2
ACAD_DSTYLE_DIMTALN
 70
     0
  0
APPID
  2
ACDBATTR
 70
     0
  0
APPID
  2
DCO15
 70
     0
  0
ENDTAB
  0
TABLE
  2
DIMSTYLE
 70
     1
  0
DIMSTYLE
  2
STANDARD
 70
     0
  3

  4

  5

  6

  7

 40
1.0
 41
0.1875
 42
0.0625
 43
0.38
 44
0.125
 45
0.0
 46
0.0
 47
0.01
 48
0.01
140
0.15625
141
0.09
142
0.0
143
25.3999999999999986
144
1.0
145
0.0
146
1.0
147
0.09
 71
     1
 72
     0
 73
     1
 74
     1
 75
     0
 76
     0
 77
     0
 78
     4
170
     0
171
     2
172
     0
173
     0
174
     0
175
     0
176
     0
177
     0
178
     0
  0
ENDTAB
  0
ENDSEC
  0
SECTION
  2
BLOCKS
  0
BLOCK
  8
0
  2
$MODEL_SPACE
 70
     0
 10
0.0
 20
0.0
 30
0.0
  3
$MODEL_SPACE
  1

  0
ENDBLK
  5
21
  8
0
  0
BLOCK
 67
     1
  8
0
  2
$PAPER_SPACE
 70
     0
 10
0.0
 20
0.0
 30
0.0
  3
$PAPER_SPACE
  1

  0
ENDBLK
  5
1D
 67
     1
  8
0
  0
ENDSEC
  0
SECTION
  2
ENTITIES
  0
ATTDEF
  5
2F469
  8
DEFPOINTS
 10
2900.0600692878469999
 20
77.5973540213721833
 30
0.0
 40
0.001
  1
K-27889T-4
  3

  2
MODELNUMBER
 70
     0
1001
ACDBATTR
1070
     0
1070
     1
  0
ATTDEF
  5
2F46A
  8
DEFPOINTS
 10
2900.0600692878469999
 20
77.5956873547055039
 30
0.0
 40
0.001
  1

  3

  2
TRADENAME
 70
     0
1001
ACDBATTR
1070
     0
1070
     1
  0
ATTDEF
  5
2F46B
  8
DEFPOINTS
 10
2900.0600692878469999
 20
77.594020688038853
 30
0.0
 40
0.001
  1
BATH AND SHOWER FAUCET
  3

  2
PRODUCT
 70
     0
1001
ACDBATTR
1070
     0
1070
     1
  0
LINE
  5
31C7E
  8
0
 10
2897.8874381828059086
 20
79.2431921217367972
 30
0.0
 11
2899.0205760987528265
 21
79.2431921217367972
 31
0.0
  0
LINE
  5
31C7F
  8
0
 10
2897.8645476232500187
 20
79.1368929091367903
 30
0.0
 11
2899.1019058381948525
 21
79.1368929091367903
 31
0.0
  0
LINE
  5
31C80
  8
0
 10
2895.3617483578950669
 20
80.2274440902368013
 30
0.0
 11
2897.5963175102438072
 21
80.2274440902368013
 31
0.0
  0
LINE
  5
31C81
  8
0
 10
2898.1828510825589547
 20
80.2274440902368013
 30
0.0
 11
2899.0625357594949492
 21
80.2274440902368013
 31
0.0
  0
ARC
  5
31C82
  8
0
 10
2895.3617483578950669
 20
80.1880740115367843
 30
0.0
 40
0.0393700787000027
 50
90.0
 51
179.9999999999959073
  0
LINE
  5
31C83
  8
0
 10
2895.3223782791951635
 20
80.1880740115367843
 30
0.0
 11
2895.3223782791951635
 21
80.0305936965368829
 31
0.0
  0
ARC
  5
31C84
  8
0
 10
2895.3617483578950669
 20
80.0305936965368829
 30
0.0
 40
0.0393700787000881
 50
179.9999999999959073
 51
269.999999999895806
  0
LINE
  5
31C85
  8
0
 10
2895.3617483578950669
 20
79.9912236178367948
 30
0.0
 11
2897.3696223735951207
 21
79.9912236178328158
 31
0.0
  0
ARC
  5
31C86
  8
0
 10
2897.3696223735951207
 20
79.9124834603368015
 30
0.0
 40
0.0787401575000004
 50
0.0000000000008142
 51
89.9999999958572232
  0
LINE
  5
31C87
  8
0
 10
2897.4483625310949719
 20
79.9124834603368015
 30
0.0
 11
2897.4483625310949719
 21
79.7572084132886516
 31
0.0
  0
ARC
  5
31C88
  8
0
 10
2904.8564714387439381
 20
77.6853508829599235
 30
0.0
 40
7.6923385871913732
 50
158.5010710207064903
 51
161.6451562866608924
  0
ARC
  5
31C89
  8
0
 10
2904.8891402961298809
 20
77.674511989403598
 30
0.0
 40
7.7267585792955558
 50
161.6451562866608924
 51
164.3629044245716955
  0
ARC
  5
31C8A
  8
0
 10
2904.7450848958769711
 20
77.7148335359439386
 30
0.0
 40
7.577166515810914
 50
164.3629044245716955
 51
168.4090730598574908
  0
ARC
  5
31C8B
  8
0
 10
2904.8713430264688213
 20
77.6889372991358726
 30
0.0
 40
7.7060530186777481
 50
168.4090730598574908
 51
176.6129914294826051
  0
ARC
  5
31C8C
  8
0
 10
2915.7061731846870316
 20
77.0497718655998227
 30
0.0
 40
18.5597194602278286
 50
176.6193912963771027
 51
180.0227431426617954
  0
ARC
  5
31C8D
  8
0
 10
2904.6392318989128398
 20
77.7666393939649652
 30
0.0
 40
6.9094437546727816
 50
153.204875980284811
 51
162.5002454708397863
  0
ARC
  5
31C8E
  8
0
 10
2904.9621780024658619
 20
77.6648163997765408
 30
0.0
 40
7.2480616926875854
 50
162.5002454708397863
 51
169.710984096649014
  0
ARC
  5
31C8F
  8
0
 10
2905.1245202321360921
 20
77.6353459656357217
 30
0.0
 40
7.4130571654218036
 50
169.710984096649014
 51
178.0681877680630123
  0
ARC
  5
31C90
  8
0
 10
2927.1870855229058179
 20
76.8911918300038764
 30
0.0
 40
29.4881687752649704
 50
178.0681877680630123
 51
180.1436870213952091
  0
ARC
  5
31C91
  8
0
 10
2999.0312025711900787
 20
77.0713637189672056
 30
0.0
 40
101.3325117422462966
 50
180.1436870213952091
 51
181.2436760139719922
  0
ARC
  5
31C92
  8
0
 10
2892.8436488756487961
 20
74.7660689920867014
 30
0.0
 40
4.8800625774701523
 50
345.028738310146025
 51
1.24367601397202
  0
ARC
  5
31C93
  8
0
 10
2895.5554557139280405
 20
74.0409001837182501
 30
0.0
 40
2.0729704648439591
 50
325.2935639581376108
 51
345.028738310146025
  0
LINE
  5
31C94
  8
0
 10
2895.1635722692949457
 20
78.1447669249367891
 30
0.0
 11
2895.9850160743949345
 21
78.1447669249367891
 31
0.0
  0
LINE
  5
31C95
  8
0
 10
2896.1897404838950933
 20
78.1447669249367891
 30
0.0
 11
2897.1787908373798928
 21
78.1447669249367891
 31
0.0
  0
LINE
  5
31C96
  8
0
 10
2895.1635722692949457
 20
77.0424047202367888
 30
0.0
 11
2895.4381446557790696
 21
77.0424047202367888
 31
0.0
  0
LINE
  5
31C97
  8
0
 10
2896.7366119025100488
 20
77.0424047202367888
 30
0.0
 11
2897.146455186626099
 21
77.0424047202367888
 31
0.0
  0
LINE
  5
31C98
  8
0
 10
2894.39592664999509
 20
76.3558669835367994
 30
0.0
 11
2894.7120711424950059
 21
76.807368110336796
 31
0.0
  0
ARC
  5
31C99
  8
0
 10
2895.1635722692999479
 20
76.4912236178329721
 30
0.0
 40
0.5511811024038178
 50
90.0000000005732232
 51
144.999999999618808
  0
ARC
  5
31C9A
  8
0
 10
2895.1635722692949457
 20
76.4912236178367948
 30
0.0
 40
1.6535433071000041
 50
90.0
 51
144.9999999999930935
  0
LINE
  5
31C9B
  8
0
 10
2893.8090688889628836
 20
77.4396570952753365
 30
0.0
 11
2893.4929243965061687
 21
76.9881559685292132
 31
0.0
  0
LINE
  5
31C9C
  8
0
 10
2893.4929243965061687
 20
76.9881559685292132
 30
0.0
 11
2894.39592664999509
 21
76.3558669835367994
 31
0.0
  0
ARC
  5
31C9D
  8
0
 10
2896.0870177934798448
 20
78.697456750608012
 30
0.0
 40
0.5621547780873694
 50
259.4711695403573231
 51
280.5288304596427906
  0
LINE
  5
31C9E
  8
0
 10
2895.9889530822952111
 20
78.1440490311581755
 30
0.0
 11
2895.9889530822952111
 21
78.3416173186367928
 31
0.0
  0
LINE
  5
31C9F
  8
0
 10
2896.1858034759948168
 20
78.3416173186367928
 30
0.0
 11
2896.1858034759948168
 21
78.1440489162711316
 31
0.0
  0
LINE
  5
31CA0
  8
0
 10
2896.3039137121950262
 20
78.3416173186367928
 30
0.0
 11
2895.8708428460950017
 21
78.3416173186367928
 31
0.0
  0
ARC
  5
31CA1
  8
0
 10
2895.8708428460950017
 20
78.3613023580367951
 30
0.0
 40
0.0196850393999987
 50
179.9999999999959073
 51
270.0
  0
LINE
  5
31CA2
  8
0
 10
2895.8511578066950278
 20
78.3613023580367951
 30
0.0
 11
2895.8511578066950278
 21
78.8613023580367951
 31
0.0
  0
ARC
  5
31CA3
  8
0
 10
2895.8708426706029968
 20
78.861302430686564
 30
0.0
 40
0.019684863908068
 50
89.9994892038610317
 51
180.0002114581681951
  0
LINE
  5
31CA4
  8
0
 10
2895.8708428460950017
 20
78.8809872945938508
 30
0.0
 11
2896.3039137121900239
 21
78.8809872945938508
 31
0.0
  0
ARC
  5
31CA5
  8
0
 10
2896.3039138837280007
 20
78.8613024267278746
 30
0.0
 40
0.0196848678667285
 50
359.9998000642488023
 51
90.0004992870524347
  0
LINE
  5
31CA6
  8
0
 10
2896.3235987515950001
 20
78.8613023580367951
 30
0.0
 11
2896.3235988126480152
 21
78.3613023580367951
 31
0.0
  0
ARC
  5
31CA7
  8
0
 10
2896.3039137756518357
 20
78.3613023556331143
 30
0.0
 40
0.0196850369964212
 50
269.9998152999016838
 51
0.0000069962261342
  0
ARC
  5
31CA8
  8
0
 10
2895.4377515569358366
 20
76.9242665802134411
 30
0.0
 40
0.1181387940300587
 50
19.4806780217448008
 51
89.809351818731102
  0
LINE
  5
31CA9
  8
0
 10
2895.5491273784950863
 20
76.9636645627367955
 30
0.0
 11
2896.625631188916941
 21
76.9636638520027248
 31
0.0
  0
ARC
  5
31CAA
  8
0
 10
2896.7370047227941541
 20
76.9242701702368095
 30
0.0
 40
0.1181352030999833
 50
90.1905188739970356
 51
160.5209184293076135
  0
LINE
  5
31CAB
  8
0
 10
2895.6444648932938435
 20
76.4124834603368015
 30
0.0
 11
2896.5302916649939107
 21
76.4124831555196096
 31
0.0
  0
LINE
  5
31CAC
  8
0
 10
2896.5302916649939107
 20
76.4124831555196096
 30
0.0
 11
2896.5397342940941598
 21
76.4223262891367909
 31
0.0
  0
LINE
  5
31CAD
  8
0
 10
2896.5397342940941598
 20
76.4223262891367909
 30
0.0
 11
2896.5397342940941598
 21
76.7648453559367852
 31
0.0
  0
LINE
  5
31CAE
  8
0
 10
2896.5397342940941598
 20
76.7648453559367852
 30
0.0
 11
2896.5302916649948202
 21
76.774688489586552
 31
0.0
  0
LINE
  5
31CAF
  8
0
 10
2896.5302916649948202
 20
76.774688489586552
 30
0.0
 11
2895.6444648932811106
 21
76.7746881063033584
 31
0.0
  0
LINE
  5
31CB0
  8
0
 10
2895.6444648932811106
 20
76.7746881063033584
 30
0.0
 11
2895.6350222641808614
 21
76.7648457400845814
 31
0.0
  0
LINE
  5
31CB1
  8
0
 10
2895.6350222641808614
 20
76.7648457400845814
 30
0.0
 11
2895.6350222641940491
 21
76.4223259049274048
 31
0.0
  0
LINE
  5
31CB2
  8
0
 10
2895.6350222641940491
 20
76.4223259049274048
 30
0.0
 11
2895.6444648923111345
 21
76.4124834603368015
 31
0.0
  0
LINE
  5
31CB3
  8
0
 10
2895.637615371893844
 20
76.4223262891367909
 30
0.0
 11
2895.6458299024170628
 21
76.4124834603368015
 31
0.0
  0
LINE
  5
31CB4
  8
0
 10
2895.6379094008948414
 20
76.4223259050368
 30
0.0
 11
2895.6499178920480517
 21
76.4124835387910082
 31
0.0
  0
LINE
  5
31CB5
  8
0
 10
2895.6499178920480517
 20
76.4124835387910082
 30
0.0
 11
2895.6430798372289246
 21
76.4223259800367885
 31
0.0
  0
LINE
  5
31CB6
  8
0
 10
2895.6430798372289246
 20
76.4223259800367885
 30
0.0
 11
2895.6435675653128783
 21
76.4223259800367885
 31
0.0
  0
LINE
  5
31CB7
  8
0
 10
2895.6435675653128783
 20
76.4223259800367885
 30
0.0
 11
2895.6567022058579823
 21
76.4124834603368015
 31
0.0
  0
LINE
  5
31CB8
  8
0
 10
2895.6567022058579823
 20
76.4124834603368015
 30
0.0
 11
2895.651283300158866
 21
76.4223259800367885
 31
0.0
  0
LINE
  5
31CB9
  8
0
 10
2895.651283300158866
 20
76.4223259800367885
 30
0.0
 11
2895.6519621646948508
 21
76.4223259800367885
 31
0.0
  0
LINE
  5
31CBA
  8
0
 10
2895.6519621646948508
 20
76.4223259800367885
 30
0.0
 11
2895.6661426174578082
 21
76.4124831555221249
 31
0.0
  0
LINE
  5
31CBB
  8
0
 10
2895.6661426174578082
 20
76.4124831555221249
 30
0.0
 11
2895.6621753127951706
 21
76.4223259800367885
 31
0.0
  0
LINE
  5
31CBC
  8
0
 10
2895.6621753127951706
 20
76.4223259800367885
 30
0.0
 11
2895.6630411516939603
 21
76.4223259050368
 31
0.0
  0
LINE
  5
31CBD
  8
0
 10
2895.6630411516939603
 20
76.4223259050368
 30
0.0
 11
2895.6781796672989913
 21
76.4124831554228763
 31
0.0
  0
LINE
  5
31CBE
  8
0
 10
2895.6781796672989913
 20
76.4124831554228763
 30
0.0
 11
2895.6756890080951052
 21
76.4223262891367909
 31
0.0
  0
LINE
  5
31CBF
  8
0
 10
2895.6756890080951052
 20
76.4223262891367909
 30
0.0
 11
2895.676736318193889
 21
76.4223259049367982
 31
0.0
  0
LINE
  5
31CC0
  8
0
 10
2895.676736318193889
 20
76.4223259049367982
 30
0.0
 11
2895.6927395627249098
 21
76.4124831556292179
 31
0.0
  0
LINE
  5
31CC1
  8
0
 10
2895.6927395627249098
 20
76.4124831556292179
 30
0.0
 11
2895.6917409350608068
 21
76.4223259800367885
 31
0.0
  0
LINE
  5
31CC2
  8
0
 10
2895.6917409350608068
 20
76.4223259800367885
 30
0.0
 11
2895.6929631043740301
 21
76.4223259800367885
 31
0.0
  0
LINE
  5
31CC3
  8
0
 10
2895.6929631043740301
 20
76.4223259800367885
 30
0.0
 11
2895.7097320017010134
 21
76.4124834603368015
 31
0.0
  0
LINE
  5
31CC4
  8
0
 10
2895.7097320017010134
 20
76.4124834603368015
 30
0.0
 11
2895.7102320371950555
 21
76.4223259800367885
 31
0.0
  0
LINE
  5
31CC5
  8
0
 10
2895.7102320371950555
 20
76.4223259800367885
 30
0.0
 11
2895.7116218396949989
 21
76.4223259049367982
 31
0.0
  0
LINE
  5
31CC6
  8
0
 10
2895.7116218396949989
 20
76.4223259049367982
 30
0.0
 11
2895.7290538229949561
 21
76.4124835389008012
 31
0.0
  0
LINE
  5
31CC7
  8
0
 10
2895.7290538229949561
 20
76.4124835389008012
 30
0.0
 11
2895.7310484017948511
 21
76.4223259800367885
 31
0.0
  0
LINE
  5
31CC8
  8
0
 10
2895.7310484017948511
 20
76.4223259800367885
 30
0.0
 11
2895.7325971953960106
 21
76.4223260495741954
 31
0.0
  0
LINE
  5
31CC9
  8
0
 10
2895.7325971953960106
 20
76.4223260495741954
 30
0.0
 11
2895.7505837637741024
 21
76.4124834603368015
 31
0.0
  0
LINE
  5
31CCA
  8
0
 10
2895.7505837637741024
 20
76.4124834603368015
 30
0.0
 11
2895.7540616584951749
 21
76.4223259800367885
 31
0.0
  0
LINE
  5
31CCB
  8
0
 10
2895.7540616584951749
 20
76.4223259800367885
 30
0.0
 11
2895.7557598102721386
 21
76.4223260475514934
 31
0.0
  0
LINE
  5
31CCC
  8
0
 10
2895.7557598102721386
 20
76.4223260475514934
 30
0.0
 11
2895.7741912204951404
 21
76.4124831556367923
 31
0.0
  0
LINE
  5
31CCD
  8
0
 10
2895.7741912204951404
 20
76.4124831556367923
 30
0.0
 11
2895.7791299230198092
 21
76.4223262892329558
 31
0.0
  0
LINE
  5
31CCE
  8
0
 10
2895.7791299230198092
 20
76.4223262892329558
 30
0.0
 11
2895.7809668883951417
 21
76.4223262892329558
 31
0.0
  0
LINE
  5
31CCF
  8
0
 10
2895.7809668883951417
 20
76.4223262892329558
 30
0.0
 11
2895.799729045094864
 21
76.4124831556367923
 31
0.0
  0
LINE
  5
31CD0
  8
0
 10
2895.799729045094864
 20
76.4124831556367923
 30
0.0
 11
2895.8060986412278908
 21
76.4223262892260919
 31
0.0
  0
LINE
  5
31CD1
  8
0
 10
2895.8060986412278908
 20
76.4223262892260919
 30
0.0
 11
2895.808063173094979
 21
76.4223259800367885
 31
0.0
  0
LINE
  5
31CD2
  8
0
 10
2895.808063173094979
 20
76.4223259800367885
 30
0.0
 11
2895.8270403228939358
 21
76.4124831556344901
 31
0.0
  0
LINE
  5
31CD3
  8
0
 10
2895.8270403228939358
 20
76.4124831556344901
 30
0.0
 11
2895.8348015418951036
 21
76.4223259800367885
 31
0.0
  0
LINE
  5
31CD4
  8
0
 10
2895.8348015418951036
 20
76.4223259800367885
 30
0.0
 11
2895.83688152829518
 21
76.4223259049086892
 31
0.0
  0
LINE
  5
31CD5
  8
0
 10
2895.83688152829518
 20
76.4223259049086892
 30
0.0
 11
2895.8559566707949671
 21
76.4124835388027606
 31
0.0
  0
LINE
  5
31CD6
  8
0
 10
2895.8559566707949671
 20
76.4124835388027606
 30
0.0
 11
2895.8650616620948313
 21
76.4223259800367885
 31
0.0
  0
LINE
  5
31CD7
  8
0
 10
2895.8650616620948313
 20
76.4223259800367885
 30
0.0
 11
2895.8672442792940274
 21
76.4223259800367885
 31
0.0
  0
LINE
  5
31CD8
  8
0
 10
2895.8672442792940274
 20
76.4223259800367885
 30
0.0
 11
2895.8862998097938544
 21
76.4124831555413238
 31
0.0
  0
LINE
  5
31CD9
  8
0
 10
2895.8862998097938544
 20
76.4124831555413238
 30
0.0
 11
2895.8966924382948491
 21
76.4223259800367885
 31
0.0
  0
LINE
  5
31CDA
  8
0
 10
2895.8966924382948491
 20
76.4223259800367885
 30
0.0
 11
2895.8989643049208098
 21
76.4223260455657112
 31
0.0
  0
LINE
  5
31CDB
  8
0
 10
2895.8989643049208098
 20
76.4223260455657112
 30
0.0
 11
2895.9178826643951652
 21
76.4124831556367923
 31
0.0
  0
LINE
  5
31CDC
  8
0
 10
2895.9178826643951652
 20
76.4124831556367923
 30
0.0
 11
2895.929498855995007
 21
76.4223262892158743
 31
0.0
  0
LINE
  5
31CDD
  8
0
 10
2895.929498855995007
 20
76.4223262892158743
 30
0.0
 11
2895.9318458150951301
 21
76.4223262892158743
 31
0.0
  0
LINE
  5
31CDE
  8
0
 10
2895.9318458150951301
 20
76.4223262892158743
 30
0.0
 11
2895.9505105158950755
 21
76.4124831556367923
 31
0.0
  0
LINE
  5
31CDF
  8
0
 10
2895.9505105158950755
 20
76.4124831556367923
 30
0.0
 11
2895.9632786528941324
 21
76.4223259800367885
 31
0.0
  0
LINE
  5
31CE0
  8
0
 10
2895.9632786528941324
 20
76.4223259800367885
 30
0.0
 11
2895.9656863894288108
 21
76.4223260482431783
 31
0.0
  0
LINE
  5
31CE1
  8
0
 10
2895.9656863894288108
 20
76.4223260482431783
 30
0.0
 11
2895.9839822025951435
 21
76.4124831556367923
 31
0.0
  0
LINE
  5
31CE2
  8
0
 10
2896.0873782790949917
 20
76.4124831555367905
 30
0.0
 11
2896.070853058395187
 21
76.4223259049367982
 31
0.0
  0
LINE
  5
31CE3
  8
0
 10
2896.070853058395187
 20
76.4223259049367982
 30
0.0
 11
2896.0683534198501548
 21
76.4223262717127625
 31
0.0
  0
LINE
  5
31CE4
  8
0
 10
2896.0683534198501548
 20
76.4223262717127625
 30
0.0
 11
2896.0526271850771991
 21
76.4124834603368015
 31
0.0
  0
LINE
  5
31CE5
  8
0
 10
2896.0526271850771991
 20
76.4124834603368015
 30
0.0
 11
2896.0354049378051968
 21
76.4223260529232959
 31
0.0
  0
LINE
  5
31CE6
  8
0
 10
2896.0354049378051968
 20
76.4223260529232959
 30
0.0
 11
2896.0329206120950403
 21
76.4223259800367885
 31
0.0
  0
LINE
  5
31CE7
  8
0
 10
2896.0329206120950403
 20
76.4223259800367885
 30
0.0
 11
2896.0180913605950082
 21
76.4124831556367923
 31
0.0
  0
LINE
  5
31CE8
  8
0
 10
2896.0180913605950082
 20
76.4124831556367923
 30
0.0
 11
2896.000277159126199
 21
76.4223260502421908
 31
0.0
  0
LINE
  5
31CE9
  8
0
 10
2896.000277159126199
 20
76.4223260502421908
 30
0.0
 11
2895.9978235651369687
 21
76.4223262892412976
 31
0.0
  0
LINE
  5
31CEA
  8
0
 10
2895.9978235651369687
 20
76.4223262892412976
 30
0.0
 11
2895.983980927887842
 21
76.4124838414112588
 31
0.0
  0
LINE
  5
31CEB
  8
0
 10
2895.637615371893844
 20
76.7648453558751811
 30
0.0
 11
2895.6458299024170628
 21
76.7746881846751847
 31
0.0
  0
LINE
  5
31CEC
  8
0
 10
2895.6379094008948414
 20
76.7648457399751862
 30
0.0
 11
2895.6499178920480517
 21
76.7746881062209638
 31
0.0
  0
LINE
  5
31CED
  8
0
 10
2895.6499178920480517
 20
76.7746881062209638
 30
0.0
 11
2895.6430798372289246
 21
76.7648456649751836
 31
0.0
  0
LINE
  5
31CEE
  8
0
 10
2895.6430798372289246
 20
76.7648456649751836
 30
0.0
 11
2895.6435675653128783
 21
76.7648456649751836
 31
0.0
  0
LINE
  5
31CEF
  8
0
 10
2895.6435675653128783
 20
76.7648456649751836
 30
0.0
 11
2895.6567022058579823
 21
76.7746881846751847
 31
0.0
  0
LINE
  5
31CF0
  8
0
 10
2895.6567022058579823
 20
76.7746881846751847
 30
0.0
 11
2895.651283300158866
 21
76.7648456649751836
 31
0.0
  0
LINE
  5
31CF1
  8
0
 10
2895.651283300158866
 20
76.7648456649751836
 30
0.0
 11
2895.6519621646948508
 21
76.7648456649751836
 31
0.0
  0
LINE
  5
31CF2
  8
0
 10
2895.6519621646948508
 20
76.7648456649751836
 30
0.0
 11
2895.6661426174578082
 21
76.7746884894898614
 31
0.0
  0
LINE
  5
31CF3
  8
0
 10
2895.6661426174578082
 20
76.7746884894898614
 30
0.0
 11
2895.6621753127951706
 21
76.7648456649751836
 31
0.0
  0
LINE
  5
31CF4
  8
0
 10
2895.6621753127951706
 20
76.7648456649751836
 30
0.0
 11
2895.6630411516939603
 21
76.7648457399751862
 31
0.0
  0
LINE
  5
31CF5
  8
0
 10
2895.6630411516939603
 20
76.7648457399751862
 30
0.0
 11
2895.6781796672989913
 21
76.77468848958911
 31
0.0
  0
LINE
  5
31CF6
  8
0
 10
2895.6781796672989913
 20
76.77468848958911
 30
0.0
 11
2895.6756890080951052
 21
76.7648453558751811
 31
0.0
  0
LINE
  5
31CF7
  8
0
 10
2895.6756890080951052
 20
76.7648453558751811
 30
0.0
 11
2895.676736318193889
 21
76.764845740075188
 31
0.0
  0
LINE
  5
31CF8
  8
0
 10
2895.676736318193889
 20
76.764845740075188
 30
0.0
 11
2895.6927395627249098
 21
76.7746884893827684
 31
0.0
  0
LINE
  5
31CF9
  8
0
 10
2895.6927395627249098
 20
76.7746884893827684
 30
0.0
 11
2895.6917409350608068
 21
76.7648456649751836
 31
0.0
  0
LINE
  5
31CFA
  8
0
 10
2895.6917409350608068
 20
76.7648456649751836
 30
0.0
 11
2895.6929631043740301
 21
76.7648456649751836
 31
0.0
  0
LINE
  5
31CFB
  8
0
 10
2895.6929631043740301
 20
76.7648456649751836
 30
0.0
 11
2895.7097320017010134
 21
76.7746881846751847
 31
0.0
  0
LINE
  5
31CFC
  8
0
 10
2895.7097320017010134
 20
76.7746881846751847
 30
0.0
 11
2895.7102320371950555
 21
76.7648456649751836
 31
0.0
  0
LINE
  5
31CFD
  8
0
 10
2895.7102320371950555
 20
76.7648456649751836
 30
0.0
 11
2895.7116218396949989
 21
76.764845740075188
 31
0.0
  0
LINE
  5
31CFE
  8
0
 10
2895.7116218396949989
 20
76.764845740075188
 30
0.0
 11
2895.7290538229949561
 21
76.7746881061111708
 31
0.0
  0
LINE
  5
31CFF
  8
0
 10
2895.7290538229949561
 20
76.7746881061111708
 30
0.0
 11
2895.7310484017948511
 21
76.7648456649751836
 31
0.0
  0
LINE
  5
31D00
  8
0
 10
2895.7310484017948511
 20
76.7648456649751836
 30
0.0
 11
2895.7325971953960106
 21
76.7648455954377766
 31
0.0
  0
LINE
  5
31D01
  8
0
 10
2895.7325971953960106
 20
76.7648455954377766
 30
0.0
 11
2895.7505837637741024
 21
76.7746881846751847
 31
0.0
  0
LINE
  5
31D02
  8
0
 10
2895.7505837637741024
 20
76.7746881846751847
 30
0.0
 11
2895.7540616584951749
 21
76.7648456649751836
 31
0.0
  0
LINE
  5
31D03
  8
0
 10
2895.7540616584951749
 20
76.7648456649751836
 30
0.0
 11
2895.7557598102721386
 21
76.7648455974604929
 31
0.0
  0
LINE
  5
31D04
  8
0
 10
2895.7557598102721386
 20
76.7648455974604929
 30
0.0
 11
2895.7741912204951404
 21
76.7746884893751798
 31
0.0
  0
LINE
  5
31D05
  8
0
 10
2895.7741912204951404
 20
76.7746884893751798
 30
0.0
 11
2895.7791299230198092
 21
76.7648453557790305
 31
0.0
  0
LINE
  5
31D06
  8
0
 10
2895.7791299230198092
 20
76.7648453557790305
 30
0.0
 11
2895.7809668883951417
 21
76.7648453557790305
 31
0.0
  0
LINE
  5
31D07
  8
0
 10
2895.7809668883951417
 20
76.7648453557790305
 30
0.0
 11
2895.799729045094864
 21
76.7746884893751798
 31
0.0
  0
LINE
  5
31D08
  8
0
 10
2895.799729045094864
 20
76.7746884893751798
 30
0.0
 11
2895.8060986412278908
 21
76.7648453557858943
 31
0.0
  0
LINE
  5
31D09
  8
0
 10
2895.8060986412278908
 20
76.7648453557858943
 30
0.0
 11
2895.808063173094979
 21
76.7648456649751836
 31
0.0
  0
LINE
  5
31D0A
  8
0
 10
2895.808063173094979
 20
76.7648456649751836
 30
0.0
 11
2895.8270403228939358
 21
76.7746884893774961
 31
0.0
  0
LINE
  5
31D0B
  8
0
 10
2895.8270403228939358
 20
76.7746884893774961
 30
0.0
 11
2895.8348015418951036
 21
76.7648456649751836
 31
0.0
  0
LINE
  5
31D0C
  8
0
 10
2895.8348015418951036
 20
76.7648456649751836
 30
0.0
 11
2895.83688152829518
 21
76.7648457401032971
 31
0.0
  0
LINE
  5
31D0D
  8
0
 10
2895.83688152829518
 20
76.7648457401032971
 30
0.0
 11
2895.8559566707949671
 21
76.7746881062092257
 31
0.0
  0
LINE
  5
31D0E
  8
0
 10
2895.8559566707949671
 20
76.7746881062092257
 30
0.0
 11
2895.8650616620948313
 21
76.7648456649751836
 31
0.0
  0
LINE
  5
31D0F
  8
0
 10
2895.8650616620948313
 20
76.7648456649751836
 30
0.0
 11
2895.8672442792940274
 21
76.7648456649751836
 31
0.0
  0
LINE
  5
31D10
  8
0
 10
2895.8672442792940274
 20
76.7648456649751836
 30
0.0
 11
2895.8862998097938544
 21
76.7746884894706341
 31
0.0
  0
LINE
  5
31D11
  8
0
 10
2895.8862998097938544
 20
76.7746884894706341
 30
0.0
 11
2895.8966924382948491
 21
76.7648456649751836
 31
0.0
  0
LINE
  5
31D12
  8
0
 10
2895.8966924382948491
 20
76.7648456649751836
 30
0.0
 11
2895.8989643049208098
 21
76.7648455994462751
 31
0.0
  0
LINE
  5
31D13
  8
0
 10
2895.8989643049208098
 20
76.7648455994462751
 30
0.0
 11
2895.9178826643951652
 21
76.7746884893751798
 31
0.0
  0
LINE
  5
31D14
  8
0
 10
2895.9178826643951652
 20
76.7746884893751798
 30
0.0
 11
2895.929498855995007
 21
76.7648453557961119
 31
0.0
  0
LINE
  5
31D15
  8
0
 10
2895.929498855995007
 20
76.7648453557961119
 30
0.0
 11
2895.9318458150951301
 21
76.7648453557961119
 31
0.0
  0
LINE
  5
31D16
  8
0
 10
2895.9318458150951301
 20
76.7648453557961119
 30
0.0
 11
2895.9505105158950755
 21
76.7746884893751798
 31
0.0
  0
LINE
  5
31D17
  8
0
 10
2895.9505105158950755
 20
76.7746884893751798
 30
0.0
 11
2895.9632786528941324
 21
76.7648456649751836
 31
0.0
  0
LINE
  5
31D18
  8
0
 10
2895.9632786528941324
 20
76.7648456649751836
 30
0.0
 11
2895.9656863894288108
 21
76.7648455967688079
 31
0.0
  0
LINE
  5
31D19
  8
0
 10
2895.9656863894288108
 20
76.7648455967688079
 30
0.0
 11
2895.9839822025951435
 21
76.7746884893751798
 31
0.0
  0
LINE
  5
31D1A
  8
0
 10
2896.0873782790949917
 20
76.7746884894751815
 30
0.0
 11
2896.070853058395187
 21
76.764845740075188
 31
0.0
  0
LINE
  5
31D1B
  8
0
 10
2896.070853058395187
 20
76.764845740075188
 30
0.0
 11
2896.0683534198501548
 21
76.7648453732992238
 31
0.0
  0
LINE
  5
31D1C
  8
0
 10
2896.0683534198501548
 20
76.7648453732992238
 30
0.0
 11
2896.0526271850771991
 21
76.7746881846751847
 31
0.0
  0
LINE
  5
31D1D
  8
0
 10
2896.0526271850771991
 20
76.7746881846751847
 30
0.0
 11
2896.0354049378051968
 21
76.7648455920886761
 31
0.0
  0
LINE
  5
31D1E
  8
0
 10
2896.0354049378051968
 20
76.7648455920886761
 30
0.0
 11
2896.0329206120950403
 21
76.7648456649751836
 31
0.0
  0
LINE
  5
31D1F
  8
0
 10
2896.0329206120950403
 20
76.7648456649751836
 30
0.0
 11
2896.0180913605950082
 21
76.7746884893751798
 31
0.0
  0
LINE
  5
31D20
  8
0
 10
2896.0180913605950082
 20
76.7746884893751798
 30
0.0
 11
2896.000277159126199
 21
76.7648455947697954
 31
0.0
  0
LINE
  5
31D21
  8
0
 10
2896.000277159126199
 20
76.7648455947697954
 30
0.0
 11
2895.9978235651369687
 21
76.7648453557706745
 31
0.0
  0
LINE
  5
31D22
  8
0
 10
2895.9978235651369687
 20
76.7648453557706745
 30
0.0
 11
2895.983980927887842
 21
76.7746878036007132
 31
0.0
  0
LINE
  5
31D23
  8
0
 10
2896.070853058395187
 20
76.4223259049367982
 30
0.0
 11
2896.070853058395187
 21
76.764845740075188
 31
0.0
  0
LINE
  5
31D24
  8
0
 10
2896.0683534198501548
 20
76.4223262717127625
 30
0.0
 11
2896.0683534198501548
 21
76.7648453732992238
 31
0.0
  0
LINE
  5
31D25
  8
0
 10
2896.0354049378051968
 20
76.4223260529232959
 30
0.0
 11
2896.0354049378051968
 21
76.7648455920886761
 31
0.0
  0
LINE
  5
31D26
  8
0
 10
2896.0329206120950403
 20
76.4223259800367885
 30
0.0
 11
2896.0329206120950403
 21
76.7648456649751836
 31
0.0
  0
LINE
  5
31D27
  8
0
 10
2896.000277159126199
 20
76.4223260502421908
 30
0.0
 11
2896.000277159126199
 21
76.7648455947697954
 31
0.0
  0
LINE
  5
31D28
  8
0
 10
2895.9978235651369687
 20
76.4223262892412976
 30
0.0
 11
2895.9978235651369687
 21
76.7648453557706745
 31
0.0
  0
LINE
  5
31D29
  8
0
 10
2895.9656863894288108
 20
76.4223260482431783
 30
0.0
 11
2895.9656863894288108
 21
76.7648455967688079
 31
0.0
  0
LINE
  5
31D2A
  8
0
 10
2895.9632786528941324
 20
76.4223259800367885
 30
0.0
 11
2895.9632786528941324
 21
76.7648456649751836
 31
0.0
  0
LINE
  5
31D2B
  8
0
 10
2895.9318480896890833
 20
76.422325089671503
 30
0.0
 11
2895.9318480896890833
 21
76.7648465553404549
 31
0.0
  0
LINE
  5
31D2C
  8
0
 10
2895.929498855995007
 20
76.4223262892158743
 30
0.0
 11
2895.929498855995007
 21
76.7648453557961119
 31
0.0
  0
LINE
  5
31D2D
  8
0
 10
2895.8989643049208098
 20
76.4223260455657112
 30
0.0
 11
2895.8989643049208098
 21
76.7648455994462751
 31
0.0
  0
LINE
  5
31D2E
  8
0
 10
2895.8966924382948491
 20
76.4223259800367885
 30
0.0
 11
2895.8966924382948491
 21
76.7648456649751836
 31
0.0
  0
LINE
  5
31D2F
  8
0
 10
2895.8672442792940274
 20
76.4223259800367885
 30
0.0
 11
2895.8672442792940274
 21
76.7648456649751836
 31
0.0
  0
LINE
  5
31D30
  8
0
 10
2895.8650616620948313
 20
76.4223259800367885
 30
0.0
 11
2895.8650616620948313
 21
76.7648456649751836
 31
0.0
  0
LINE
  5
31D31
  8
0
 10
2895.83688152829518
 20
76.4223259049086892
 30
0.0
 11
2895.83688152829518
 21
76.7648457401032971
 31
0.0
  0
LINE
  5
31D32
  8
0
 10
2895.8348015418951036
 20
76.4223259800367885
 30
0.0
 11
2895.8348015418951036
 21
76.7648456649751836
 31
0.0
  0
LINE
  5
31D33
  8
0
 10
2895.808063173094979
 20
76.4223259800367885
 30
0.0
 11
2895.808063173094979
 21
76.7648456649751836
 31
0.0
  0
LINE
  5
31D34
  8
0
 10
2895.8060986412278908
 20
76.4223262892260919
 30
0.0
 11
2895.8060986412278908
 21
76.7648453557858943
 31
0.0
  0
LINE
  5
31D35
  8
0
 10
2895.7809668883951417
 20
76.4223262892329558
 30
0.0
 11
2895.7809668883951417
 21
76.7648453557790305
 31
0.0
  0
LINE
  5
31D36
  8
0
 10
2895.7791299230198092
 20
76.4223262892329558
 30
0.0
 11
2895.7791299230198092
 21
76.7648453557790305
 31
0.0
  0
LINE
  5
31D37
  8
0
 10
2895.7540616584951749
 20
76.4223259800367885
 30
0.0
 11
2895.7540616584951749
 21
76.7648456649751836
 31
0.0
  0
LINE
  5
31D38
  8
0
 10
2895.7557598102721386
 20
76.4223260475514934
 30
0.0
 11
2895.7557598102721386
 21
76.7648455974604929
 31
0.0
  0
LINE
  5
31D39
  8
0
 10
2895.7310484017948511
 20
76.4223259800367885
 30
0.0
 11
2895.7310484017948511
 21
76.7648456649751836
 31
0.0
  0
LINE
  5
31D3A
  8
0
 10
2895.7325971953960106
 20
76.4223260495741954
 30
0.0
 11
2895.7325971953960106
 21
76.7648455954377766
 31
0.0
  0
LINE
  5
31D3B
  8
0
 10
2895.7102320371950555
 20
76.4223259800367885
 30
0.0
 11
2895.7102320371950555
 21
76.7648456649751836
 31
0.0
  0
LINE
  5
31D3C
  8
0
 10
2895.7116218396949989
 20
76.4223259049367982
 30
0.0
 11
2895.7116218396949989
 21
76.764845740075188
 31
0.0
  0
LINE
  5
31D3D
  8
0
 10
2895.6756890080951052
 20
76.4223262891367909
 30
0.0
 11
2895.6756890080951052
 21
76.7648453558751811
 31
0.0
  0
LINE
  5
31D3E
  8
0
 10
2895.676736318193889
 20
76.4223259049367982
 30
0.0
 11
2895.676736318193889
 21
76.764845740075188
 31
0.0
  0
LINE
  5
31D3F
  8
0
 10
2895.6917587273160279
 20
76.4221506133346935
 30
0.0
 11
2895.6917587273160279
 21
76.7650210316772643
 31
0.0
  0
LINE
  5
31D40
  8
0
 10
2895.6929631043740301
 20
76.4223259800367885
 30
0.0
 11
2895.6929631043740301
 21
76.7648456649751836
 31
0.0
  0
LINE
  5
31D41
  8
0
 10
2895.6630411516939603
 20
76.4223259050368
 30
0.0
 11
2895.6630411516939603
 21
76.7648457399751862
 31
0.0
  0
LINE
  5
31D42
  8
0
 10
2895.6621753127951706
 20
76.4223259800367885
 30
0.0
 11
2895.6621753127951706
 21
76.7648456649751836
 31
0.0
  0
LINE
  5
31D43
  8
0
 10
2895.651283300158866
 20
76.4223259800367885
 30
0.0
 11
2895.651283300158866
 21
76.7648456649751836
 31
0.0
  0
LINE
  5
31D44
  8
0
 10
2895.6519621646948508
 20
76.4223259800367885
 30
0.0
 11
2895.6519621646948508
 21
76.7648456649751836
 31
0.0
  0
LINE
  5
31D45
  8
0
 10
2895.6430798372289246
 20
76.4223259800367885
 30
0.0
 11
2895.6430798372289246
 21
76.7648456649751836
 31
0.0
  0
LINE
  5
31D46
  8
0
 10
2895.6435675653128783
 20
76.4223259800367885
 30
0.0
 11
2895.6435675653128783
 21
76.7648456649751836
 31
0.0
  0
LINE
  5
31D47
  8
0
 10
2895.6379094008948414
 20
76.4223259050368
 30
0.0
 11
2895.6379094008948414
 21
76.7648457399751862
 31
0.0
  0
LINE
  5
31D48
  8
0
 10
2895.637615371893844
 20
76.4223262891367909
 30
0.0
 11
2895.637615371893844
 21
76.7648453558751811
 31
0.0
  0
LINE
  5
31D49
  8
0
 10
2895.637615371893844
 20
76.4223262891367909
 30
0.0
 11
2895.6379094008948414
 21
76.4223259050368
 31
0.0
  0
LINE
  5
31D4A
  8
0
 10
2895.637615371893844
 20
76.7648453558751811
 30
0.0
 11
2895.6379094008948414
 21
76.7648453558751811
 31
0.0
  0
ARC
  5
31D4B
  8
0
 10
2895.6720239503088123
 20
76.9664266191250448
 30
0.0
 40
0.0078740177697739
 50
200.5573306691954087
 51
218.6598043694100113
  0
LINE
  5
31D4C
  8
0
 10
2895.6658753750939468
 20
76.9615077596367883
 30
0.0
 11
2895.6798979629697897
 21
76.9439795223567842
 31
0.0
  0
LINE
  5
31D4D
  8
0
 10
2895.6798979629697897
 20
76.9439795223567842
 30
0.0
 11
2895.6798979629697897
 21
76.8534283422367963
 31
0.0
  0
LINE
  5
31D4E
  8
0
 10
2895.6444648932938435
 20
76.7746881063033584
 30
0.0
 11
2895.6444648932938435
 21
76.8534283422367963
 31
0.0
  0
LINE
  5
31D4F
  8
0
 10
2895.6444648932938435
 20
76.8534283422367963
 30
0.0
 11
2896.5302916649948202
 21
76.8534283422367963
 31
0.0
  0
LINE
  5
31D50
  8
0
 10
2896.5302916649948202
 20
76.8534283422367963
 30
0.0
 11
2896.5302916990640369
 21
76.7746884895865662
 31
0.0
  0
LINE
  5
31D51
  8
0
 10
2896.4948585940951489
 20
76.8534283422367963
 30
0.0
 11
2896.4948585940951489
 21
76.9439795233367931
 31
0.0
  0
LINE
  5
31D52
  8
0
 10
2896.4948585940951489
 20
76.9439795233367931
 30
0.0
 11
2896.5088811831678868
 21
76.9615077597342747
 31
0.0
  0
ARC
  5
31D53
  8
0
 10
2896.5027326098938829
 20
76.9664266183368113
 30
0.0
 40
0.0078740157000149
 50
321.3401918357675981
 51
339.4426698084698728
  0
LINE
  5
31D54
  8
0
 10
2896.4948585940951489
 20
76.9439795233367931
 30
0.0
 11
2895.679897964194879
 21
76.9439795233367931
 31
0.0
  0
ARC
  5
31D55
  8
0
 10
2906.6502610969951093
 20
67.621234276778992
 30
0.0
 40
14.47858869591429
 50
138.8296570187224006
 51
139.8149511010039134
  0
ARC
  5
31D56
  8
0
 10
2898.7890506086628193
 20
74.4960195550241053
 30
0.0
 40
4.0353467201756699
 50
135.578269084044905
 51
138.8296570187229975
  0
ARC
  5
31D57
  8
0
 10
2896.4338120570000683
 20
76.8041901217402199
 30
0.0
 40
0.7376505546240693
 50
127.5027203735134975
 51
135.578269084044905
  0
ARC
  5
31D58
  8
0
 10
2896.1493230250130182
 20
77.174907000484211
 30
0.0
 40
0.2703551303937512
 50
112.6351343096616944
 51
127.5027203735134975
  0
ARC
  5
31D59
  8
0
 10
2896.0878120850829873
 20
77.3224225124644562
 30
0.0
 40
0.1105289059937735
 50
63.7376851392682084
 51
112.6351343096616944
  0
ARC
  5
31D5A
  8
0
 10
2895.97731120289518
 20
77.098470248567736
 30
0.0
 40
0.3602588831064594
 50
50.9678485385391511
 51
63.7376851392682084
  0
ARC
  5
31D5B
  8
0
 10
2895.5725669278749592
 20
76.59922577308825
 30
0.0
 40
1.0029586376253801
 50
40.3947703537598528
 51
50.9678485385391511
  0
ARC
  5
31D5C
  8
0
 10
2891.3818128047328173
 20
72.705890637893333
 30
0.0
 40
6.722329242561579
 50
40.5151551296308909
 51
42.5203849847695565
  0
ARC
  5
31D5D
  8
0
 10
2895.1424857750162118
 20
75.8300019877872558
 30
0.0
 40
1.8350235518591249
 50
38.2767763841644495
 51
42.6407697606523897
  0
LINE
  5
31D5E
  8
0
 10
2896.0873782790949917
 20
76.7746882979449623
 30
0.0
 11
2896.0873782790949917
 21
76.4124833079281842
 31
0.0
  0
LINE
  5
31D5F
  8
0
 10
2896.5371411862947753
 20
76.4223262891367909
 30
0.0
 11
2896.5289266557720111
 21
76.4124834603368015
 31
0.0
  0
LINE
  5
31D60
  8
0
 10
2896.5368471572951421
 20
76.4223259050368
 30
0.0
 11
2896.5248386661419318
 21
76.4124835387910082
 31
0.0
  0
LINE
  5
31D61
  8
0
 10
2896.5248386661419318
 20
76.4124835387910082
 30
0.0
 11
2896.5316767209610589
 21
76.4223259800367885
 31
0.0
  0
LINE
  5
31D62
  8
0
 10
2896.5316767209610589
 20
76.4223259800367885
 30
0.0
 11
2896.5311889928771052
 21
76.4223259800367885
 31
0.0
  0
LINE
  5
31D63
  8
0
 10
2896.5311889928771052
 20
76.4223259800367885
 30
0.0
 11
2896.5180543523310916
 21
76.4124834603368015
 31
0.0
  0
LINE
  5
31D64
  8
0
 10
2896.5180543523310916
 20
76.4124834603368015
 30
0.0
 11
2896.5234732580311174
 21
76.4223259800367885
 31
0.0
  0
LINE
  5
31D65
  8
0
 10
2896.5234732580311174
 20
76.4223259800367885
 30
0.0
 11
2896.5227943934951327
 21
76.4223259800367885
 31
0.0
  0
LINE
  5
31D66
  8
0
 10
2896.5227943934951327
 20
76.4223259800367885
 30
0.0
 11
2896.5086139407321753
 21
76.4124831555221249
 31
0.0
  0
LINE
  5
31D67
  8
0
 10
2896.5086139407321753
 20
76.4124831555221249
 30
0.0
 11
2896.5125812453939034
 21
76.4223259800367885
 31
0.0
  0
LINE
  5
31D68
  8
0
 10
2896.5125812453939034
 20
76.4223259800367885
 30
0.0
 11
2896.5117154064951137
 21
76.4223259050368
 31
0.0
  0
LINE
  5
31D69
  8
0
 10
2896.5117154064951137
 20
76.4223259050368
 30
0.0
 11
2896.4965768908909922
 21
76.4124831554228763
 31
0.0
  0
LINE
  5
31D6A
  8
0
 10
2896.4965768908909922
 20
76.4124831554228763
 30
0.0
 11
2896.4990675500948782
 21
76.4223262891367909
 31
0.0
  0
LINE
  5
31D6B
  8
0
 10
2896.4990675500948782
 20
76.4223262891367909
 30
0.0
 11
2896.498020239995185
 21
76.4223259049367982
 31
0.0
  0
LINE
  5
31D6C
  8
0
 10
2896.498020239995185
 20
76.4223259049367982
 30
0.0
 11
2896.4820169954641642
 21
76.4124831556292179
 31
0.0
  0
LINE
  5
31D6D
  8
0
 10
2896.4820169954641642
 20
76.4124831556292179
 30
0.0
 11
2896.4830156231291767
 21
76.4223259800367885
 31
0.0
  0
LINE
  5
31D6E
  8
0
 10
2896.4830156231291767
 20
76.4223259800367885
 30
0.0
 11
2896.4817934538150439
 21
76.4223259800367885
 31
0.0
  0
LINE
  5
31D6F
  8
0
 10
2896.4817934538150439
 20
76.4223259800367885
 30
0.0
 11
2896.4650245564880606
 21
76.4124834603368015
 31
0.0
  0
LINE
  5
31D70
  8
0
 10
2896.4650245564880606
 20
76.4124834603368015
 30
0.0
 11
2896.464524520994928
 21
76.4223259800367885
 31
0.0
  0
LINE
  5
31D71
  8
0
 10
2896.464524520994928
 20
76.4223259800367885
 30
0.0
 11
2896.4631347184949846
 21
76.4223259049367982
 31
0.0
  0
LINE
  5
31D72
  8
0
 10
2896.4631347184949846
 20
76.4223259049367982
 30
0.0
 11
2896.4457027351950273
 21
76.4124835389008012
 31
0.0
  0
LINE
  5
31D73
  8
0
 10
2896.4457027351950273
 20
76.4124835389008012
 30
0.0
 11
2896.4437081563951324
 21
76.4223259800367885
 31
0.0
  0
LINE
  5
31D74
  8
0
 10
2896.4437081563951324
 20
76.4223259800367885
 30
0.0
 11
2896.4421593627930633
 21
76.4223260495741954
 31
0.0
  0
LINE
  5
31D75
  8
0
 10
2896.4421593627930633
 20
76.4223260495741954
 30
0.0
 11
2896.4241727944149716
 21
76.4124834603368015
 31
0.0
  0
LINE
  5
31D76
  8
0
 10
2896.4241727944149716
 20
76.4124834603368015
 30
0.0
 11
2896.4206948996948086
 21
76.4223259800367885
 31
0.0
  0
LINE
  5
31D77
  8
0
 10
2896.4206948996948086
 20
76.4223259800367885
 30
0.0
 11
2896.4189967479169354
 21
76.4223260475514934
 31
0.0
  0
LINE
  5
31D78
  8
0
 10
2896.4189967479169354
 20
76.4223260475514934
 30
0.0
 11
2896.400565337694843
 21
76.4124831556367923
 31
0.0
  0
LINE
  5
31D79
  8
0
 10
2896.400565337694843
 20
76.4124831556367923
 30
0.0
 11
2896.39562663516881
 21
76.4223262892329558
 31
0.0
  0
LINE
  5
31D7A
  8
0
 10
2896.39562663516881
 20
76.4223262892329558
 30
0.0
 11
2896.3937896697948418
 21
76.4223262892329558
 31
0.0
  0
LINE
  5
31D7B
  8
0
 10
2896.3937896697948418
 20
76.4223262892329558
 30
0.0
 11
2896.3750275130951195
 21
76.4124831556367923
 31
0.0
  0
LINE
  5
31D7C
  8
0
 10
2896.3750275130951195
 20
76.4124831556367923
 30
0.0
 11
2896.3686579169611832
 21
76.4223262892260919
 31
0.0
  0
LINE
  5
31D7D
  8
0
 10
2896.3686579169611832
 20
76.4223262892260919
 30
0.0
 11
2896.3666933850950045
 21
76.4223259800367885
 31
0.0
  0
LINE
  5
31D7E
  8
0
 10
2896.3666933850950045
 20
76.4223259800367885
 30
0.0
 11
2896.3477162352951382
 21
76.4124831556344901
 31
0.0
  0
LINE
  5
31D7F
  8
0
 10
2896.3477162352951382
 20
76.4124831556344901
 30
0.0
 11
2896.3399550162948799
 21
76.4223259800367885
 31
0.0
  0
LINE
  5
31D80
  8
0
 10
2896.3399550162948799
 20
76.4223259800367885
 30
0.0
 11
2896.3378750298948034
 21
76.4223259049086892
 31
0.0
  0
LINE
  5
31D81
  8
0
 10
2896.3378750298948034
 20
76.4223259049086892
 30
0.0
 11
2896.3187998873941069
 21
76.4124835388027606
 31
0.0
  0
LINE
  5
31D82
  8
0
 10
2896.3187998873941069
 20
76.4124835388027606
 30
0.0
 11
2896.3096948960951522
 21
76.4223259800367885
 31
0.0
  0
LINE
  5
31D83
  8
0
 10
2896.3096948960951522
 20
76.4223259800367885
 30
0.0
 11
2896.3075122788950466
 21
76.4223259800367885
 31
0.0
  0
LINE
  5
31D84
  8
0
 10
2896.3075122788950466
 20
76.4223259800367885
 30
0.0
 11
2896.2884567483938554
 21
76.4124831555413238
 31
0.0
  0
LINE
  5
31D85
  8
0
 10
2896.2884567483938554
 20
76.4124831555413238
 30
0.0
 11
2896.2780641198951344
 21
76.4223259800367885
 31
0.0
  0
LINE
  5
31D86
  8
0
 10
2896.2780641198951344
 20
76.4223259800367885
 30
0.0
 11
2896.2757922532691737
 21
76.4223260455657112
 31
0.0
  0
LINE
  5
31D87
  8
0
 10
2896.2757922532691737
 20
76.4223260455657112
 30
0.0
 11
2896.2568738937939088
 21
76.4124831556367923
 31
0.0
  0
LINE
  5
31D88
  8
0
 10
2896.2568738937939088
 20
76.4124831556367923
 30
0.0
 11
2896.2452577021949764
 21
76.4223262892158743
 31
0.0
  0
LINE
  5
31D89
  8
0
 10
2896.2452577021949764
 20
76.4223262892158743
 30
0.0
 11
2896.2429107430948534
 21
76.4223262892158743
 31
0.0
  0
LINE
  5
31D8A
  8
0
 10
2896.2429107430948534
 20
76.4223262892158743
 30
0.0
 11
2896.224246042294908
 21
76.4124831556367923
 31
0.0
  0
LINE
  5
31D8B
  8
0
 10
2896.224246042294908
 20
76.4124831556367923
 30
0.0
 11
2896.2114779052949416
 21
76.4223259800367885
 31
0.0
  0
LINE
  5
31D8C
  8
0
 10
2896.2114779052949416
 20
76.4223259800367885
 30
0.0
 11
2896.2090701687598084
 21
76.4223260482431783
 31
0.0
  0
LINE
  5
31D8D
  8
0
 10
2896.2090701687598084
 20
76.4223260482431783
 30
0.0
 11
2896.19077435559484
 21
76.4124831556367923
 31
0.0
  0
LINE
  5
31D8E
  8
0
 10
2896.0873782790949917
 20
76.4124831555367905
 30
0.0
 11
2896.1039034997947965
 21
76.4223259049367982
 31
0.0
  0
LINE
  5
31D8F
  8
0
 10
2896.1039034997947965
 20
76.4223259049367982
 30
0.0
 11
2896.1064031383389192
 21
76.4223262717127625
 31
0.0
  0
LINE
  5
31D90
  8
0
 10
2896.1064031383389192
 20
76.4223262717127625
 30
0.0
 11
2896.1221293731118749
 21
76.4124834603368015
 31
0.0
  0
LINE
  5
31D91
  8
0
 10
2896.1221293731118749
 20
76.4124834603368015
 30
0.0
 11
2896.1393516203838772
 21
76.4223260529232959
 31
0.0
  0
LINE
  5
31D92
  8
0
 10
2896.1393516203838772
 20
76.4223260529232959
 30
0.0
 11
2896.1418359460949432
 21
76.4223259800367885
 31
0.0
  0
LINE
  5
31D93
  8
0
 10
2896.1418359460949432
 20
76.4223259800367885
 30
0.0
 11
2896.1566651975949753
 21
76.4124831556367923
 31
0.0
  0
LINE
  5
31D94
  8
0
 10
2896.1566651975949753
 20
76.4124831556367923
 30
0.0
 11
2896.174479399062875
 21
76.4223260502421908
 31
0.0
  0
LINE
  5
31D95
  8
0
 10
2896.174479399062875
 20
76.4223260502421908
 30
0.0
 11
2896.1769329930521053
 21
76.4223262892412976
 31
0.0
  0
LINE
  5
31D96
  8
0
 10
2896.1769329930521053
 20
76.4223262892412976
 30
0.0
 11
2896.1907756303021415
 21
76.4124838414112588
 31
0.0
  0
LINE
  5
31D97
  8
0
 10
2896.5371411862947753
 20
76.7648453558751811
 30
0.0
 11
2896.5289266557720111
 21
76.7746881846751847
 31
0.0
  0
LINE
  5
31D98
  8
0
 10
2896.5368471572951421
 20
76.7648457399751862
 30
0.0
 11
2896.5248386661419318
 21
76.7746881062209638
 31
0.0
  0
LINE
  5
31D99
  8
0
 10
2896.5248386661419318
 20
76.7746881062209638
 30
0.0
 11
2896.5316767209610589
 21
76.7648456649751836
 31
0.0
  0
LINE
  5
31D9A
  8
0
 10
2896.5316767209610589
 20
76.7648456649751836
 30
0.0
 11
2896.5311889928771052
 21
76.7648456649751836
 31
0.0
  0
LINE
  5
31D9B
  8
0
 10
2896.5311889928771052
 20
76.7648456649751836
 30
0.0
 11
2896.5180543523310916
 21
76.7746881846751847
 31
0.0
  0
LINE
  5
31D9C
  8
0
 10
2896.5180543523310916
 20
76.7746881846751847
 30
0.0
 11
2896.5234732580311174
 21
76.7648456649751836
 31
0.0
  0
LINE
  5
31D9D
  8
0
 10
2896.5234732580311174
 20
76.7648456649751836
 30
0.0
 11
2896.5227943934951327
 21
76.7648456649751836
 31
0.0
  0
LINE
  5
31D9E
  8
0
 10
2896.5227943934951327
 20
76.7648456649751836
 30
0.0
 11
2896.5086139407321753
 21
76.7746884894898614
 31
0.0
  0
LINE
  5
31D9F
  8
0
 10
2896.5086139407321753
 20
76.7746884894898614
 30
0.0
 11
2896.5125812453939034
 21
76.7648456649751836
 31
0.0
  0
LINE
  5
31DA0
  8
0
 10
2896.5125812453939034
 20
76.7648456649751836
 30
0.0
 11
2896.5117154064951137
 21
76.7648457399751862
 31
0.0
  0
LINE
  5
31DA1
  8
0
 10
2896.5117154064951137
 20
76.7648457399751862
 30
0.0
 11
2896.4965768908909922
 21
76.77468848958911
 31
0.0
  0
LINE
  5
31DA2
  8
0
 10
2896.4965768908909922
 20
76.77468848958911
 30
0.0
 11
2896.4990675500948782
 21
76.7648453558751811
 31
0.0
  0
LINE
  5
31DA3
  8
0
 10
2896.4990675500948782
 20
76.7648453558751811
 30
0.0
 11
2896.498020239995185
 21
76.764845740075188
 31
0.0
  0
LINE
  5
31DA4
  8
0
 10
2896.498020239995185
 20
76.764845740075188
 30
0.0
 11
2896.4820169954641642
 21
76.7746884893827684
 31
0.0
  0
LINE
  5
31DA5
  8
0
 10
2896.4820169954641642
 20
76.7746884893827684
 30
0.0
 11
2896.4830156231291767
 21
76.7648456649751836
 31
0.0
  0
LINE
  5
31DA6
  8
0
 10
2896.4830156231291767
 20
76.7648456649751836
 30
0.0
 11
2896.4817934538150439
 21
76.7648456649751836
 31
0.0
  0
LINE
  5
31DA7
  8
0
 10
2896.4817934538150439
 20
76.7648456649751836
 30
0.0
 11
2896.4650245564880606
 21
76.7746881846751847
 31
0.0
  0
LINE
  5
31DA8
  8
0
 10
2896.4650245564880606
 20
76.7746881846751847
 30
0.0
 11
2896.464524520994928
 21
76.7648456649751836
 31
0.0
  0
LINE
  5
31DA9
  8
0
 10
2896.464524520994928
 20
76.7648456649751836
 30
0.0
 11
2896.4631347184949846
 21
76.764845740075188
 31
0.0
  0
LINE
  5
31DAA
  8
0
 10
2896.4631347184949846
 20
76.764845740075188
 30
0.0
 11
2896.4457027351950273
 21
76.7746881061111708
 31
0.0
  0
LINE
  5
31DAB
  8
0
 10
2896.4457027351950273
 20
76.7746881061111708
 30
0.0
 11
2896.4437081563951324
 21
76.7648456649751836
 31
0.0
  0
LINE
  5
31DAC
  8
0
 10
2896.4437081563951324
 20
76.7648456649751836
 30
0.0
 11
2896.4421593627930633
 21
76.7648455954377766
 31
0.0
  0
LINE
  5
31DAD
  8
0
 10
2896.4421593627930633
 20
76.7648455954377766
 30
0.0
 11
2896.4241727944149716
 21
76.7746881846751847
 31
0.0
  0
LINE
  5
31DAE
  8
0
 10
2896.4241727944149716
 20
76.7746881846751847
 30
0.0
 11
2896.4206948996948086
 21
76.7648456649751836
 31
0.0
  0
LINE
  5
31DAF
  8
0
 10
2896.4206948996948086
 20
76.7648456649751836
 30
0.0
 11
2896.4189967479169354
 21
76.7648455974604929
 31
0.0
  0
LINE
  5
31DB0
  8
0
 10
2896.4189967479169354
 20
76.7648455974604929
 30
0.0
 11
2896.400565337694843
 21
76.7746884893751798
 31
0.0
  0
LINE
  5
31DB1
  8
0
 10
2896.400565337694843
 20
76.7746884893751798
 30
0.0
 11
2896.39562663516881
 21
76.7648453557790305
 31
0.0
  0
LINE
  5
31DB2
  8
0
 10
2896.39562663516881
 20
76.7648453557790305
 30
0.0
 11
2896.3937896697948418
 21
76.7648453557790305
 31
0.0
  0
LINE
  5
31DB3
  8
0
 10
2896.3937896697948418
 20
76.7648453557790305
 30
0.0
 11
2896.3750275130951195
 21
76.7746884893751798
 31
0.0
  0
LINE
  5
31DB4
  8
0
 10
2896.3750275130951195
 20
76.7746884893751798
 30
0.0
 11
2896.3686579169611832
 21
76.7648453557858943
 31
0.0
  0
LINE
  5
31DB5
  8
0
 10
2896.3686579169611832
 20
76.7648453557858943
 30
0.0
 11
2896.3666933850950045
 21
76.7648456649751836
 31
0.0
  0
LINE
  5
31DB6
  8
0
 10
2896.3666933850950045
 20
76.7648456649751836
 30
0.0
 11
2896.3477162352951382
 21
76.7746884893774961
 31
0.0
  0
LINE
  5
31DB7
  8
0
 10
2896.3477162352951382
 20
76.7746884893774961
 30
0.0
 11
2896.3399550162948799
 21
76.7648456649751836
 31
0.0
  0
LINE
  5
31DB8
  8
0
 10
2896.3399550162948799
 20
76.7648456649751836
 30
0.0
 11
2896.3378750298948034
 21
76.7648457401032971
 31
0.0
  0
LINE
  5
31DB9
  8
0
 10
2896.3378750298948034
 20
76.7648457401032971
 30
0.0
 11
2896.3187998873941069
 21
76.7746881062092257
 31
0.0
  0
LINE
  5
31DBA
  8
0
 10
2896.3187998873941069
 20
76.7746881062092257
 30
0.0
 11
2896.3096948960951522
 21
76.7648456649751836
 31
0.0
  0
LINE
  5
31DBB
  8
0
 10
2896.3096948960951522
 20
76.7648456649751836
 30
0.0
 11
2896.3075122788950466
 21
76.7648456649751836
 31
0.0
  0
LINE
  5
31DBC
  8
0
 10
2896.3075122788950466
 20
76.7648456649751836
 30
0.0
 11
2896.2884567483938554
 21
76.7746884894706341
 31
0.0
  0
LINE
  5
31DBD
  8
0
 10
2896.2884567483938554
 20
76.7746884894706341
 30
0.0
 11
2896.2780641198951344
 21
76.7648456649751836
 31
0.0
  0
LINE
  5
31DBE
  8
0
 10
2896.2780641198951344
 20
76.7648456649751836
 30
0.0
 11
2896.2757922532691737
 21
76.7648455994462751
 31
0.0
  0
LINE
  5
31DBF
  8
0
 10
2896.2757922532691737
 20
76.7648455994462751
 30
0.0
 11
2896.2568738937939088
 21
76.7746884893751798
 31
0.0
  0
LINE
  5
31DC0
  8
0
 10
2896.2568738937939088
 20
76.7746884893751798
 30
0.0
 11
2896.2452577021949764
 21
76.7648453557961119
 31
0.0
  0
LINE
  5
31DC1
  8
0
 10
2896.2452577021949764
 20
76.7648453557961119
 30
0.0
 11
2896.2429107430948534
 21
76.7648453557961119
 31
0.0
  0
LINE
  5
31DC2
  8
0
 10
2896.2429107430948534
 20
76.7648453557961119
 30
0.0
 11
2896.224246042294908
 21
76.7746884893751798
 31
0.0
  0
LINE
  5
31DC3
  8
0
 10
2896.224246042294908
 20
76.7746884893751798
 30
0.0
 11
2896.2114779052949416
 21
76.7648456649751836
 31
0.0
  0
LINE
  5
31DC4
  8
0
 10
2896.2114779052949416
 20
76.7648456649751836
 30
0.0
 11
2896.2090701687598084
 21
76.7648455967688079
 31
0.0
  0
LINE
  5
31DC5
  8
0
 10
2896.2090701687598084
 20
76.7648455967688079
 30
0.0
 11
2896.19077435559484
 21
76.7746884893751798
 31
0.0
  0
LINE
  5
31DC6
  8
0
 10
2896.0873782790949917
 20
76.7746884894751815
 30
0.0
 11
2896.1039034997947965
 21
76.764845740075188
 31
0.0
  0
LINE
  5
31DC7
  8
0
 10
2896.1039034997947965
 20
76.764845740075188
 30
0.0
 11
2896.1064031383389192
 21
76.7648453732992238
 31
0.0
  0
LINE
  5
31DC8
  8
0
 10
2896.1064031383389192
 20
76.7648453732992238
 30
0.0
 11
2896.1221293731118749
 21
76.7746881846751847
 31
0.0
  0
LINE
  5
31DC9
  8
0
 10
2896.1221293731118749
 20
76.7746881846751847
 30
0.0
 11
2896.1393516203838772
 21
76.7648455920886761
 31
0.0
  0
LINE
  5
31DCA
  8
0
 10
2896.1393516203838772
 20
76.7648455920886761
 30
0.0
 11
2896.1418359460949432
 21
76.7648456649751836
 31
0.0
  0
LINE
  5
31DCB
  8
0
 10
2896.1418359460949432
 20
76.7648456649751836
 30
0.0
 11
2896.1566651975949753
 21
76.7746884893751798
 31
0.0
  0
LINE
  5
31DCC
  8
0
 10
2896.1566651975949753
 20
76.7746884893751798
 30
0.0
 11
2896.174479399062875
 21
76.7648455947697954
 31
0.0
  0
LINE
  5
31DCD
  8
0
 10
2896.174479399062875
 20
76.7648455947697954
 30
0.0
 11
2896.1769329930521053
 21
76.7648453557706745
 31
0.0
  0
LINE
  5
31DCE
  8
0
 10
2896.1769329930521053
 20
76.7648453557706745
 30
0.0
 11
2896.1907756303021415
 21
76.7746878036007132
 31
0.0
  0
LINE
  5
31DCF
  8
0
 10
2896.1039034997947965
 20
76.4223259049367982
 30
0.0
 11
2896.1039034997947965
 21
76.764845740075188
 31
0.0
  0
LINE
  5
31DD0
  8
0
 10
2896.1064031383389192
 20
76.4223262717127625
 30
0.0
 11
2896.1064031383389192
 21
76.7648453732992238
 31
0.0
  0
LINE
  5
31DD1
  8
0
 10
2896.1393516203838772
 20
76.4223260529232959
 30
0.0
 11
2896.1393516203838772
 21
76.7648455920886761
 31
0.0
  0
LINE
  5
31DD2
  8
0
 10
2896.1418359460949432
 20
76.4223259800367885
 30
0.0
 11
2896.1418359460949432
 21
76.7648456649751836
 31
0.0
  0
LINE
  5
31DD3
  8
0
 10
2896.174479399062875
 20
76.4223260502421908
 30
0.0
 11
2896.174479399062875
 21
76.7648455947697954
 31
0.0
  0
LINE
  5
31DD4
  8
0
 10
2896.1769329930521053
 20
76.4223262892412976
 30
0.0
 11
2896.1769329930521053
 21
76.7648453557706745
 31
0.0
  0
LINE
  5
31DD5
  8
0
 10
2896.2090701687598084
 20
76.4223260482431783
 30
0.0
 11
2896.2090701687598084
 21
76.7648455967688079
 31
0.0
  0
LINE
  5
31DD6
  8
0
 10
2896.2114779052949416
 20
76.4223259800367885
 30
0.0
 11
2896.2114779052949416
 21
76.7648456649751836
 31
0.0
  0
LINE
  5
31DD7
  8
0
 10
2896.2429084684999907
 20
76.422325089671503
 30
0.0
 11
2896.2429084684999907
 21
76.7648465553404549
 31
0.0
  0
LINE
  5
31DD8
  8
0
 10
2896.2452577021949764
 20
76.4223262892158743
 30
0.0
 11
2896.2452577021949764
 21
76.7648453557961119
 31
0.0
  0
LINE
  5
31DD9
  8
0
 10
2896.2757922532691737
 20
76.4223260455657112
 30
0.0
 11
2896.2757922532691737
 21
76.7648455994462751
 31
0.0
  0
LINE
  5
31DDA
  8
0
 10
2896.2780641198951344
 20
76.4223259800367885
 30
0.0
 11
2896.2780641198951344
 21
76.7648456649751836
 31
0.0
  0
LINE
  5
31DDB
  8
0
 10
2896.3075122788950466
 20
76.4223259800367885
 30
0.0
 11
2896.3075122788950466
 21
76.7648456649751836
 31
0.0
  0
LINE
  5
31DDC
  8
0
 10
2896.3096948960951522
 20
76.4223259800367885
 30
0.0
 11
2896.3096948960951522
 21
76.7648456649751836
 31
0.0
  0
LINE
  5
31DDD
  8
0
 10
2896.3378750298948034
 20
76.4223259049086892
 30
0.0
 11
2896.3378750298948034
 21
76.7648457401032971
 31
0.0
  0
LINE
  5
31DDE
  8
0
 10
2896.3399550162948799
 20
76.4223259800367885
 30
0.0
 11
2896.3399550162948799
 21
76.7648456649751836
 31
0.0
  0
LINE
  5
31DDF
  8
0
 10
2896.3666933850950045
 20
76.4223259800367885
 30
0.0
 11
2896.3666933850950045
 21
76.7648456649751836
 31
0.0
  0
LINE
  5
31DE0
  8
0
 10
2896.3686579169611832
 20
76.4223262892260919
 30
0.0
 11
2896.3686579169611832
 21
76.7648453557858943
 31
0.0
  0
LINE
  5
31DE1
  8
0
 10
2896.3937896697948418
 20
76.4223262892329558
 30
0.0
 11
2896.3937896697948418
 21
76.7648453557790305
 31
0.0
  0
LINE
  5
31DE2
  8
0
 10
2896.39562663516881
 20
76.4223262892329558
 30
0.0
 11
2896.39562663516881
 21
76.7648453557790305
 31
0.0
  0
LINE
  5
31DE3
  8
0
 10
2896.4206948996948086
 20
76.4223259800367885
 30
0.0
 11
2896.4206948996948086
 21
76.7648456649751836
 31
0.0
  0
LINE
  5
31DE4
  8
0
 10
2896.4189967479169354
 20
76.4223260475514934
 30
0.0
 11
2896.4189967479169354
 21
76.7648455974604929
 31
0.0
  0
LINE
  5
31DE5
  8
0
 10
2896.4437081563951324
 20
76.4223259800367885
 30
0.0
 11
2896.4437081563951324
 21
76.7648456649751836
 31
0.0
  0
LINE
  5
31DE6
  8
0
 10
2896.4421593627930633
 20
76.4223260495741954
 30
0.0
 11
2896.4421593627930633
 21
76.7648455954377766
 31
0.0
  0
LINE
  5
31DE7
  8
0
 10
2896.464524520994928
 20
76.4223259800367885
 30
0.0
 11
2896.464524520994928
 21
76.7648456649751836
 31
0.0
  0
LINE
  5
31DE8
  8
0
 10
2896.4631347184949846
 20
76.4223259049367982
 30
0.0
 11
2896.4631347184949846
 21
76.764845740075188
 31
0.0
  0
LINE
  5
31DE9
  8
0
 10
2896.4990675500948782
 20
76.4223262891367909
 30
0.0
 11
2896.4990675500948782
 21
76.7648453558751811
 31
0.0
  0
LINE
  5
31DEA
  8
0
 10
2896.498020239995185
 20
76.4223259049367982
 30
0.0
 11
2896.498020239995185
 21
76.764845740075188
 31
0.0
  0
LINE
  5
31DEB
  8
0
 10
2896.482997830873046
 20
76.4221506133346935
 30
0.0
 11
2896.482997830873046
 21
76.7650210316772643
 31
0.0
  0
LINE
  5
31DEC
  8
0
 10
2896.4817934538150439
 20
76.4223259800367885
 30
0.0
 11
2896.4817934538150439
 21
76.7648456649751836
 31
0.0
  0
LINE
  5
31DED
  8
0
 10
2896.5117154064951137
 20
76.4223259050368
 30
0.0
 11
2896.5117154064951137
 21
76.7648457399751862
 31
0.0
  0
LINE
  5
31DEE
  8
0
 10
2896.5125812453939034
 20
76.4223259800367885
 30
0.0
 11
2896.5125812453939034
 21
76.7648456649751836
 31
0.0
  0
LINE
  5
31DEF
  8
0
 10
2896.5234732580311174
 20
76.4223259800367885
 30
0.0
 11
2896.5234732580311174
 21
76.7648456649751836
 31
0.0
  0
LINE
  5
31DF0
  8
0
 10
2896.5227943934951327
 20
76.4223259800367885
 30
0.0
 11
2896.5227943934951327
 21
76.7648456649751836
 31
0.0
  0
LINE
  5
31DF1
  8
0
 10
2896.5316767209610589
 20
76.4223259800367885
 30
0.0
 11
2896.5316767209610589
 21
76.7648456649751836
 31
0.0
  0
LINE
  5
31DF2
  8
0
 10
2896.5311889928771052
 20
76.4223259800367885
 30
0.0
 11
2896.5311889928771052
 21
76.7648456649751836
 31
0.0
  0
LINE
  5
31DF3
  8
0
 10
2896.5368471572951421
 20
76.4223259050368
 30
0.0
 11
2896.5368471572951421
 21
76.7648457399751862
 31
0.0
  0
LINE
  5
31DF4
  8
0
 10
2896.5371411862947753
 20
76.4223262891367909
 30
0.0
 11
2896.5371411862947753
 21
76.7648453558751811
 31
0.0
  0
LINE
  5
31DF5
  8
0
 10
2896.5371411862947753
 20
76.4223262891367909
 30
0.0
 11
2896.5368471572951421
 21
76.4223259050368
 31
0.0
  0
LINE
  5
31DF6
  8
0
 10
2896.5371411862947753
 20
76.7648453558751811
 30
0.0
 11
2896.5368471572951421
 21
76.7648453558751811
 31
0.0
  0
LINE
  5
31DF7
  8
0
 10
2895.6444648932938435
 20
76.4124834603368015
 30
0.0
 11
2895.6444648932938435
 21
76.333743302836794
 31
0.0
  0
LINE
  5
31DF8
  8
0
 10
2895.6444648932938435
 20
76.333743302836794
 30
0.0
 11
2896.5302916649948202
 21
76.333743302836794
 31
0.0
  0
LINE
  5
31DF9
  8
0
 10
2896.5302916649948202
 20
76.333743302836794
 30
0.0
 11
2896.5302916649948202
 21
76.4124834603368015
 31
0.0
  0
LINE
  5
31DFA
  8
0
 10
2895.8117877279951244
 20
76.333743302836794
 30
0.0
 11
2895.8117877279951244
 21
76.136892909736801
 31
0.0
  0
ARC
  5
31DFB
  8
0
 10
2888.1835867617328404
 20
76.1368929097367868
 30
0.0
 40
7.6282009662615406
 50
356.1211754080122205
 51
0.0
  0
ARC
  5
31DFC
  8
0
 10
2799.0445457621981404
 20
82.1806867389510955
 30
0.0
 40
96.9718972977142073
 50
355.6792032029483721
 51
356.1211754080122205
  0
ARC
  5
31DFD
  8
0
 10
2899.8306348008090936
 20
74.5657522214898023
 30
0.0
 40
4.1014571108736977
 50
175.6792032029484005
 51
187.1017765857413053
  0
ARC
  5
31DFE
  8
0
 10
2899.0237589984808437
 20
74.4652251202759032
 30
0.0
 40
3.2883431837627022
 50
187.1017765857413053
 51
200.768628743108394
  0
ARC
  5
31DFF
  8
0
 10
2897.5053573899240291
 20
73.8893895965852039
 30
0.0
 40
1.664418925920417
 50
200.768628743108394
 51
216.1259455814847001
  0
ARC
  5
31E00
  8
0
 10
2897.0667744818338178
 20
73.5692651236709452
 30
0.0
 40
1.121432143918712
 50
216.1259455814847001
 51
227.2003883521009016
  0
ARC
  5
31E01
  8
0
 10
2896.8253047082112062
 20
73.3097315453815384
 30
0.0
 40
0.766940532420164
 50
227.2630042920274036
 51
244.3617663465491887
  0
ARC
  5
31E02
  8
0
 10
2896.7363257264428285
 20
73.1283596571426955
 30
0.0
 40
0.5649283905388716
 50
244.5383540193454053
 51
270.652726431159806
  0
ARC
  5
31E03
  8
0
 10
2896.725829566963057
 20
73.1414204809346415
 30
0.0
 40
0.5782005213849128
 50
271.6780684636095202
 51
297.4251673684746038
  0
ARC
  5
31E04
  8
0
 10
2896.6378582619831832
 20
73.3060271233469223
 30
0.0
 40
0.7648295848252937
 50
297.5950976321680059
 51
324.3822032502371258
  0
LINE
  5
31E05
  8
0
 10
2896.362968830293994
 20
76.333743302836794
 30
0.0
 11
2896.362968830293994
 21
76.1368929091367903
 31
0.0
  0
ARC
  5
31E06
  8
0
 10
2887.4694582768620421
 20
76.1368929091367903
 30
0.0
 40
8.8935105534325292
 50
354.9190888255222944
 51
0.0
  0
ARC
  5
31E07
  8
0
 10
2909.2221929489319336
 20
74.2028177709529899
 30
0.0
 40
12.9450359264415091
 50
174.9190888255222944
 51
178.4676442931576901
  0
ARC
  5
31E08
  8
0
 10
2899.0016560431881771
 20
74.4762276687929159
 30
0.0
 40
2.7208426764134188
 50
178.4676442931576901
 51
195.9033612114218954
  0
ARC
  5
31E09
  8
0
 10
2898.353964266344974
 20
74.2916867325997856
 30
0.0
 40
2.0473740469134238
 50
195.9033612114218954
 51
209.6857557461717079
  0
ARC
  5
31E0A
  8
0
 10
2896.9728690249839929
 20
73.5043487758681664
 30
0.0
 40
0.4576177383069611
 50
209.682477844070803
 51
238.2491074888390017
  0
ARC
  5
31E0B
  8
0
 10
2896.6724477684178964
 20
73.256097300033673
 30
0.0
 40
0.1529734034200397
 50
292.9344648694009834
 51
320.6984846655859087
  0
ARC
  5
31E0C
  8
0
 10
2895.9922368029569952
 20
73.813209625334494
 30
0.0
 40
1.0322123302835899
 50
320.6840498738596921
 51
338.3040931491112246
  0
ARC
  5
31E0D
  8
0
 10
2894.7089365484739574
 20
74.3237906284678758
 30
0.0
 40
2.413354069541088
 50
338.3040931491112246
 51
348.920514737091878
  0
ARC
  5
31E0E
  8
0
 10
2892.4618142560848355
 20
74.76382300225265
 30
0.0
 40
4.7031547348676517
 50
348.920514737091878
 51
357.9300134026145201
  0
ARC
  5
31E0F
  8
0
 10
2878.8765582362148052
 20
75.2548458927978032
 30
0.0
 40
18.2972815771642487
 50
357.9300134026145201
 51
0.2386354809207582
  0
ARC
  5
31E10
  8
0
 10
3179.6101836751518022
 20
80.6802340592964526
 30
0.0
 40
282.4871531838925875
 50
180.7378672864884948
 51
181.0850185288574039
  0
ARC
  5
31E11
  8
0
 10
2899.0625357594949492
 20
80.1880740115367843
 30
0.0
 40
0.0393700787000031
 50
0.0000000000048853
 51
90.0
  0
LINE
  5
31E12
  8
0
 10
2899.1019058381948525
 20
80.1880740115367843
 30
0.0
 11
2899.1019058381948525
 21
79.7038220430367943
 31
0.0
  0
LINE
  5
31E13
  8
0
 10
2899.1019058381948525
 20
79.7101599489873962
 30
0.0
 11
2899.1019058381948525
 21
79.5011237838367748
 31
0.0
  0
LINE
  5
31E14
  8
0
 10
2899.1019058381948525
 20
79.5011237838367748
 30
0.0
 11
2898.3932444208940069
 21
79.2431921217367972
 31
0.0
  0
ARC
  5
31E15
  8
0
 10
2899.8909247868500643
 20
79.8596978002434668
 30
0.0
 40
0.8037319700798538
 50
169.0201175969746998
 51
179.8785276756574945
  0
ARC
  5
31E16
  8
0
 10
2899.8542941046080159
 20
79.8596807604458832
 30
0.0
 40
0.7671014121320906
 50
179.8714544034660037
 51
191.2398525795337889
  0
ARC
  5
31E17
  8
0
 10
2898.3093520577949675
 20
79.0114347427367818
 30
0.0
 40
0.7480314961000283
 50
9.6551511850280161
 51
34.6421126425935384
  0
LINE
  5
31E18
  8
0
 10
2899.1019058381948525
 20
79.1368929091367903
 30
0.0
 11
2899.1019058381948525
 21
78.258039854136797
 31
0.0
  0
LINE
  5
31E19
  8
0
 10
2898.848039692356906
 20
78.2580387046320709
 30
0.0
 11
2899.341890032622814
 21
78.2580387046320851
 31
0.0
  0
LINE
  5
31E1A
  8
0
 10
2899.341890032622814
 20
78.2580387046320851
 30
0.0
 11
2899.3902402164949308
 21
78.1742944840367926
 31
0.0
  0
LINE
  5
31E1B
  8
0
 10
2899.3902402164949308
 20
78.2431921217367972
 30
0.0
 11
2899.3902402164949308
 21
76.9439795233367931
 31
0.0
  0
ARC
  5
31E1C
  8
0
 10
2899.4099252558598891
 20
76.9439795233367931
 30
0.0
 40
0.0196850393651396
 50
179.9999999999909903
 51
243.0000001023165908
  0
ARC
  5
31E1D
  8
0
 10
2899.390517707221079
 20
76.8434029820933233
 30
0.0
 40
0.0787401577742138
 50
31.0000000318869589
 51
62.9999999214849566
  0
LINE
  5
31E1E
  8
0
 10
2900.0595315550949636
 20
78.8435858225367951
 30
0.0
 11
2900.0595315550949636
 21
76.3435858225367951
 31
0.0
  0
LINE
  5
31E1F
  8
0
 10
2900.0595315550949636
 20
76.3435858225367951
 30
0.0
 11
2899.8272480904938675
 21
76.3435858225367951
 31
0.0
  0
ARC
  5
31E20
  8
0
 10
2899.8272480904938675
 20
76.4223259800368027
 30
0.0
 40
0.0787401575000018
 50
210.9999999999963052
 51
270.0
  0
LINE
  5
31E21
  8
0
 10
2899.7597546022338975
 20
76.3817718008998838
 30
0.0
 11
2899.4580111956938708
 21
76.8839571614090147
 31
0.0
  0
LINE
  5
31E22
  8
0
 10
2899.4009884350198263
 20
76.9264400248025169
 30
0.0
 11
2899.4262649907368541
 21
76.9135609764171875
 31
0.0
  0
LINE
  5
31E23
  8
0
 10
2899.3902402164949308
 20
77.0128771611367995
 30
0.0
 11
2899.3418892952950046
 21
76.9291328137415036
 31
0.0
  0
LINE
  5
31E24
  8
0
 10
2899.3418892952950046
 20
76.9291328137415036
 30
0.0
 11
2898.8480394473949673
 21
76.9291328137415036
 31
0.0
  0
LINE
  5
31E25
  8
0
 10
2898.8480394473949673
 20
76.9291328137415036
 30
0.0
 11
2898.7996890353938397
 21
77.0128771611367995
 31
0.0
  0
LINE
  5
31E26
  8
0
 10
2898.7996890353938397
 20
77.0128771611367995
 30
0.0
 11
2898.7996890353938397
 21
78.1742944840367926
 31
0.0
  0
LINE
  5
31E27
  8
0
 10
2898.7996890353938397
 20
78.1742944840367926
 30
0.0
 11
2898.848039692356906
 21
78.2580387046320709
 31
0.0
  0
ARC
  5
31E28
  8
0
 10
2897.8342370645082156
 20
71.265299903218903
 30
0.0
 40
5.7887034213369324
 50
85.7935686755950542
 51
91.3351391940773851
  0
ARC
  5
31E29
  8
0
 10
2898.7100271421991238
 20
83.1729920010141228
 30
0.0
 40
6.15115165969637
 50
265.7935686755949973
 51
270.8351980711323108
  0
LINE
  5
31E2A
  8
0
 10
2900.0595315550949636
 20
78.8435858225367951
 30
0.0
 11
2899.8272480906412056
 21
78.8435858225368094
 31
0.0
  0
ARC
  5
31E2B
  8
0
 10
2899.8272480902169264
 20
78.7648456655696947
 30
0.0
 40
0.0787401569671087
 50
89.9999996906998661
 51
149.0000001687947133
  0
LINE
  5
31E2C
  8
0
 10
2899.7597546022930146
 20
78.8053998442333068
 30
0.0
 11
2899.4580111965151445
 21
78.3032144831783512
 31
0.0
  0
ARC
  5
31E2D
  8
0
 10
2899.3905177133979123
 20
78.3437686590722251
 30
0.0
 40
0.0787401514204364
 50
296.9999973516705722
 51
329.0000000949191872
  0
LINE
  5
31E2E
  8
0
 10
2899.4262649908478124
 20
78.2736106687887343
 30
0.0
 11
2899.4009884343799968
 21
78.2607316214639894
 31
0.0
  0
ARC
  5
31E2F
  8
0
 10
2899.4099252532359969
 20
78.2431921248855957
 30
0.0
 40
0.0196850367412153
 50
116.9999973516706007
 51
180.0000091649999945
  0
ARC
  5
31E30
  8
0
 10
2898.7224214679831675
 20
78.1226680411178478
 30
0.0
 40
0.0378764390105796
 50
359.7290880907204951
 51
92.3703349495322641
  0
ARC
  5
31E31
  8
0
 10
2898.7122964399968623
 20
73.7360395562375857
 30
0.0
 40
4.4244807935752846
 50
89.8891694958388285
 51
95.6709388407493435
  0
ARC
  5
31E32
  8
0
 10
2898.3066905855130244
 20
77.5718544169870512
 30
0.0
 40
0.5678915472509983
 50
93.1897733870518294
 51
126.2557511329317066
  0
ARC
  5
31E33
  8
0
 10
2898.2071617302140112
 20
77.7361115104786933
 30
0.0
 40
0.3769548208451712
 50
128.8225369179936024
 51
167.9285386182968978
  0
ARC
  5
31E34
  8
0
 10
2898.756430281718167
 20
77.6082927971872891
 30
0.0
 40
0.9408630649767651
 50
167.3120681655537112
 51
180.8956796365264097
  0
ARC
  5
31E35
  8
0
 10
2899.0079032020530576
 20
77.5900798234811617
 30
0.0
 40
1.1922261786037891
 50
179.8315342730371924
 51
185.2635930643263009
  0
ARC
  5
31E36
  8
0
 10
2898.3185999554430055
 20
77.5021005623310941
 30
0.0
 40
0.4983549262376463
 50
182.4603081128313988
 51
216.6798409599495869
  0
ARC
  5
31E37
  8
0
 10
2898.2504936111240568
 20
77.4942384540035931
 30
0.0
 40
0.4403820832228168
 50
221.1570768577126103
 51
254.3290530378268102
  0
ARC
  5
31E38
  8
0
 10
2898.5166492354392176
 20
78.3215402574386843
 30
0.0
 40
1.309234891669883
 50
252.8935727899020947
 51
258.4806835293928771
  0
LINE
  5
31E39
  8
0
 10
2898.7602909705451566
 20
78.1231975490828177
 30
0.0
 11
2898.7602938849599923
 21
77.0671847369369658
 31
0.0
  0
ARC
  5
31E3A
  8
0
 10
2898.7145940524142134
 20
77.0671846108132428
 30
0.0
 40
0.0456998325469264
 50
277.2386299679426997
 51
0.0001581265474659
  0
ARC
  5
31E3B
  8
0
 10
2898.7189681525819651
 20
77.0997173785078047
 30
0.0
 40
0.0426806033577274
 50
272.628047619968811
 51
345.5243970645955187
  0
ARC
  5
31E3C
  8
0
 10
2898.720977597556157
 20
79.3749656720923014
 30
0.0
 40
2.3178840079490262
 50
262.9251825593103717
 51
269.9987033929210156
  0
ARC
  5
31E3D
  8
0
 10
2898.494448189472223
 20
77.7382921982995043
 30
0.0
 40
0.6661762362756245
 50
236.7754153151184084
 51
264.9229475369925808
  0
ARC
  5
31E3E
  8
0
 10
2898.3616624614751345
 20
77.4818720181204128
 30
0.0
 40
0.3800573336691811
 50
189.6996716460757
 51
232.3358700559847136
  0
ARC
  5
31E3F
  8
0
 10
2898.8673180560208493
 20
77.58966368931695
 30
0.0
 40
0.8968926340530874
 50
165.0613372601561082
 51
191.0449051880376032
  0
ARC
  5
31E40
  8
0
 10
2898.3475738522729444
 20
77.7179242426415016
 30
0.0
 40
0.3617907333579283
 50
115.4987983715968056
 51
163.4685081909892972
  0
ARC
  5
31E41
  8
0
 10
2898.7203997213478033
 20
76.4609433291560237
 30
0.0
 40
1.669419476584717
 50
92.7648311373232843
 51
108.458724525559802
  0
ARC
  5
31E42
  8
0
 10
2898.7506060007590349
 20
74.7305284236099965
 30
0.0
 40
3.3996949305603539
 50
90.504493190826679
 51
91.8665458688343648
  0
ARC
  5
31E43
  8
0
 10
2898.720812083655801
 20
78.0904694198295459
 30
0.0
 40
0.0396223955420503
 50
4.8765733603090906
 51
90.2027917009448856
  0
LINE
  5
31E44
  8
0
 10
2898.7602916649948384
 20
78.1224453425367926
 30
0.0
 11
2898.7996890353938397
 21
78.1224453425367926
 31
0.0
  0
ARC
  5
31E45
  8
0
 10
2899.101904243044828
 20
78.0968207970050514
 30
0.0
 40
0.3007298186672816
 50
147.5822141683343034
 51
211.3808900229942083
  0
ARC
  5
31E46
  8
0
 10
2898.7950109830098882
 20
77.9231755431867157
 30
0.0
 40
0.0529710566144267
 50
341.2262894854987962
 51
18.7737105146674494
  0
ARC
  5
31E47
  8
0
 10
2899.8964555154329901
 20
77.5935858225867179
 30
0.0
 40
1.096766480038148
 50
163.4431390716802071
 51
196.5568609283112096
  0
ARC
  5
31E48
  8
0
 10
2898.795006709559857
 20
77.2639961019867911
 30
0.0
 40
0.0529751027218089
 50
341.227776987942093
 51
18.772223012077891
  0
ARC
  5
31E49
  8
0
 10
2899.1019051660450714
 20
77.0903505965268039
 30
0.0
 40
0.3007307376905124
 50
148.6191606169304862
 51
212.4176464614974122
  0
ARC
  5
31E4A
  8
0
 10
2899.0880227065249528
 20
78.0968213616044551
 30
0.0
 40
0.3007318588929995
 50
328.619221067619776
 51
32.4174115567209071
  0
ARC
  5
31E4B
  8
0
 10
2899.3949180119798257
 20
77.9231755431867157
 30
0.0
 40
0.0529710566144267
 50
161.2262894853325008
 51
198.7737105145010901
  0
ARC
  5
31E4C
  8
0
 10
2898.2934734795571785
 20
77.5935858225867179
 30
0.0
 40
1.096766480038148
 50
343.4431390716887904
 51
16.5568609283197894
  0
ARC
  5
31E4D
  8
0
 10
2899.3949222854289474
 20
77.2639961019867911
 30
0.0
 40
0.0529751027218089
 50
161.2277769879221125
 51
198.772223012057907
  0
ARC
  5
31E4E
  8
0
 10
2899.0880245358798675
 20
77.0903507916627433
 30
0.0
 40
0.3007300325507042
 50
327.5822241815524194
 51
31.3808777781794817
  0
LINE
  5
31E4F
  8
0
 10
2899.3420413866169838
 20
77.2608382468206969
 30
0.0
 11
2898.8478876083718205
 21
77.2608382468206969
 31
0.0
  0
LINE
  5
31E50
  8
0
 10
2898.8479820396250943
 20
77.923175543186801
 30
0.0
 11
2899.3419469553650742
 21
77.923175543186801
 31
0.0
  0
LINE
  5
31E51
  8
0
 10
2899.7597546022948336
 20
78.8053998443754438
 30
0.0
 11
2899.7597546022948336
 21
76.3817718007981341
 31
0.0
  0
LINE
  5
31E52
  8
0
 10
2899.4580111956938708
 20
78.3032144837645632
 30
0.0
 11
2899.4580111956938708
 21
76.8839571614367969
 31
0.0
  0
LINE
  5
31E53
  8
0
 10
2893.902500418604177
 20
76.7013677503501015
 30
0.0
 11
2893.8586114498948518
 21
76.6386878071367903
 31
0.0
  0
ARC
  5
31E54
  8
0
 10
2894.235612435233179
 20
77.088466650706124
 30
0.0
 40
0.5868822293007216
 50
204.9810928991441017
 51
230.030533736196702
  0
LINE
  5
31E55
  8
0
 10
2893.8848523275160005
 20
76.7137250767667211
 30
0.0
 11
2893.8796347247948688
 21
76.7062735677368011
 31
0.0
  0
LINE
  5
31E56
  8
0
 10
2893.8796347247948688
 20
76.7062735677368011
 30
0.0
 11
2893.8814770422959555
 21
76.7032799963615162
 31
0.0
  0
LINE
  5
31E57
  8
0
 10
2893.8814770422959555
 20
76.7032799963615162
 30
0.0
 11
2893.8964824012759891
 21
76.6927731308950911
 31
0.0
  0
LINE
  5
31E58
  8
0
 10
2893.8814770422959555
 20
76.7032799963614593
 30
0.0
 11
2893.8874950595818518
 21
76.71187461585194
 31
0.0
  0
LINE
  5
31E59
  8
0
 10
2893.8348842970799524
 20
76.6596919891861575
 30
0.0
 11
2893.8359683614489768
 21
76.6612408140733947
 31
0.0
  0
LINE
  5
31E5A
  8
0
 10
2893.8369168728740988
 20
76.6625959717034391
 30
0.0
 11
2893.8400953102491258
 21
76.6671370700474171
 31
0.0
  0
LINE
  5
31E5B
  8
0
 10
2893.8420187357692157
 20
76.6698851073426084
 30
0.0
 11
2893.8474175759138234
 21
76.6775985404373728
 31
0.0
  0
LINE
  5
31E5C
  8
0
 10
2893.8503725930618202
 20
76.6818204337424021
 30
0.0
 11
2893.8581601542041426
 21
76.6929466812772205
 31
0.0
  0
LINE
  5
31E5D
  8
0
 10
2893.8622428786579803
 20
76.6987797530257183
 30
0.0
 11
2893.8726936012949409
 21
76.7137109137367901
 31
0.0
  0
LINE
  5
31E5E
  8
0
 10
2893.8726936012949409
 20
76.7137109137367901
 30
0.0
 11
2893.8722277707938701
 21
76.7145090594367929
 31
0.0
  0
LINE
  5
31E5F
  8
0
 10
2893.8722277707938701
 20
76.7145090594367929
 30
0.0
 11
2893.8571121196951026
 21
76.7226435074367998
 31
0.0
  0
LINE
  5
31E60
  8
0
 10
2893.8571121196951026
 20
76.7226435074367998
 30
0.0
 11
2893.8517248493490115
 21
76.7149496880614947
 31
0.0
  0
LINE
  5
31E61
  8
0
 10
2893.8517248493490115
 20
76.7149496880614947
 30
0.0
 11
2893.8615071798240024
 21
76.6991984687986417
 31
0.0
  0
LINE
  5
31E62
  8
0
 10
2893.8615071798240024
 20
76.6991984687986417
 30
0.0
 11
2893.8622428786579803
 21
76.6987797530257183
 31
0.0
  0
LINE
  5
31E63
  8
0
 10
2893.8581601542041426
 20
76.6929466812772205
 30
0.0
 11
2893.8576527599248038
 21
76.6936937866923927
 31
0.0
  0
LINE
  5
31E64
  8
0
 10
2893.8576527599248038
 20
76.6936937866923927
 30
0.0
 11
2893.8431671941179957
 21
76.7027280896698329
 31
0.0
  0
LINE
  5
31E65
  8
0
 10
2893.8431671941179957
 20
76.7027280896698329
 30
0.0
 11
2893.8391537598949981
 21
76.696996311636795
 31
0.0
  0
LINE
  5
31E66
  8
0
 10
2893.8391537598949981
 20
76.696996311636795
 30
0.0
 11
2893.849663170437907
 21
76.682283470739165
 31
0.0
  0
LINE
  5
31E67
  8
0
 10
2893.849663170437907
 20
76.682283470739165
 30
0.0
 11
2893.8503725930618202
 21
76.6818204337424021
 31
0.0
  0
LINE
  5
31E68
  8
0
 10
2893.8474175759138234
 20
76.6775985404373728
 30
0.0
 11
2893.8468741241949829
 21
76.6783002996367884
 31
0.0
  0
LINE
  5
31E69
  8
0
 10
2893.8468741241949829
 20
76.6783002996367884
 30
0.0
 11
2893.8329094298151176
 21
76.6880784840563337
 31
0.0
  0
LINE
  5
31E6A
  8
0
 10
2893.8329094298151176
 20
76.6880784840563337
 30
0.0
 11
2893.8301823070951286
 21
76.6841837492367944
 31
0.0
  0
LINE
  5
31E6B
  8
0
 10
2893.8301823070951286
 20
76.6841837492367944
 30
0.0
 11
2893.841334787076903
 21
76.6703893063118187
 31
0.0
  0
LINE
  5
31E6C
  8
0
 10
2893.841334787076903
 20
76.6703893063118187
 30
0.0
 11
2893.8420187357692157
 21
76.6698851073426084
 31
0.0
  0
LINE
  5
31E6D
  8
0
 10
2893.8400953102491258
 20
76.6671370700474313
 30
0.0
 11
2893.839519718970223
 21
76.6677971204780135
 31
0.0
  0
LINE
  5
31E6E
  8
0
 10
2893.839519718970223
 20
76.6677971204780135
 30
0.0
 11
2893.8261553827260286
 21
76.6784327051598211
 31
0.0
  0
LINE
  5
31E6F
  8
0
 10
2893.8261553827260286
 20
76.6784327051598211
 30
0.0
 11
2893.8245177493031406
 21
76.6760939222490236
 31
0.0
  0
LINE
  5
31E70
  8
0
 10
2893.8245177493031406
 20
76.6760939222490236
 30
0.0
 11
2893.8362583966568309
 21
76.6631394702151994
 31
0.0
  0
LINE
  5
31E71
  8
0
 10
2893.8362583966568309
 20
76.6631394702151994
 30
0.0
 11
2893.8369168728740988
 21
76.6625959717034391
 31
0.0
  0
LINE
  5
31E72
  8
0
 10
2893.8359683614489768
 20
76.6612408140733947
 30
0.0
 11
2893.8353634151940241
 21
76.6618613034367939
 31
0.0
  0
LINE
  5
31E73
  8
0
 10
2893.8353634151940241
 20
76.6618613034367939
 30
0.0
 11
2893.8225324683980944
 21
76.6732585865107552
 31
0.0
  0
LINE
  5
31E74
  8
0
 10
2893.8225324683980944
 20
76.6732585865107552
 30
0.0
 11
2893.821991599410012
 21
76.6724862063580588
 31
0.0
  0
LINE
  5
31E75
  8
0
 10
2893.821991599410012
 20
76.6724862063580588
 30
0.0
 11
2893.8342862588951903
 21
76.6603229649367961
 31
0.0
  0
LINE
  5
31E76
  8
0
 10
2893.8342862588951903
 20
76.6603229649367961
 30
0.0
 11
2893.8349177512927781
 21
76.6597397859017207
 31
0.0
  0
LINE
  5
31E77
  8
0
 10
2893.8342862588951903
 20
76.6603229649367961
 30
0.0
 11
2893.8353634151440019
 21
76.6618613034815723
 31
0.0
  0
LINE
  5
31E78
  8
0
 10
2893.8362583969569641
 20
76.663139469968101
 30
0.0
 11
2893.8395197189679493
 21
76.6677971204800031
 31
0.0
  0
LINE
  5
31E79
  8
0
 10
2893.8413347870550751
 20
76.6703893063395725
 30
0.0
 11
2893.8468741242068063
 21
76.6783002996210428
 31
0.0
  0
LINE
  5
31E7A
  8
0
 10
2893.8496631705911568
 20
76.6822834706393337
 30
0.0
 11
2893.8576527599298061
 21
76.6936937866844204
 31
0.0
  0
LINE
  5
31E7B
  8
0
 10
2893.861507179848104
 20
76.6991984687850845
 30
0.0
 11
2893.8722277708329784
 21
76.714509059371494
 31
0.0
  0
LINE
  5
31E7C
  8
0
 10
2893.8541134979950584
 20
76.7074529151367983
 30
0.0
 11
2893.8494451561950882
 21
76.7007858321368019
 31
0.0
  0
LINE
  5
31E7D
  8
0
 10
2893.8494451561950882
 20
76.7007858321368019
 30
0.0
 11
2893.8351702415397995
 21
76.7101209761584641
 31
0.0
  0
LINE
  5
31E7E
  8
0
 10
2893.8351702415397995
 20
76.7101209761584641
 30
0.0
 11
2893.8255545549191083
 21
76.7261101873603764
 31
0.0
  0
LINE
  5
31E7F
  8
0
 10
2893.8255545549191083
 20
76.7261101873603764
 30
0.0
 11
2893.8302852146130135
 21
76.732866269596002
 31
0.0
  0
LINE
  5
31E80
  8
0
 10
2893.8302852146130135
 20
76.732866269596002
 30
0.0
 11
2893.8445694497218028
 21
76.7235444363847989
 31
0.0
  0
LINE
  5
31E81
  8
0
 10
2893.8445694497218028
 20
76.7235444363847989
 30
0.0
 11
2893.8541134979482194
 21
76.7074529150700499
 31
0.0
  0
LINE
  5
31E82
  8
0
 10
2893.8147148886951072
 20
76.7106295396367983
 30
0.0
 11
2893.8181339702750847
 21
76.7155124942517972
 31
0.0
  0
LINE
  5
31E83
  8
0
 10
2893.8181339702750847
 20
76.7155124942517972
 30
0.0
 11
2893.8320434170918816
 21
76.7050337679040553
 31
0.0
  0
LINE
  5
31E84
  8
0
 10
2893.8320434170918816
 20
76.7050337679040553
 30
0.0
 11
2893.8421186209111511
 21
76.6903224553382046
 31
0.0
  0
LINE
  5
31E85
  8
0
 10
2893.8421186209111511
 20
76.6903224553382046
 30
0.0
 11
2893.8387414235908182
 21
76.6854993177115745
 31
0.0
  0
LINE
  5
31E86
  8
0
 10
2893.8387414235908182
 20
76.6854993177115745
 30
0.0
 11
2893.8250366911947822
 21
76.6956487664367899
 31
0.0
  0
LINE
  5
31E87
  8
0
 10
2893.8250366911947822
 20
76.6956487664367899
 30
0.0
 11
2893.8147148887251205
 21
76.7106295396593936
 31
0.0
  0
LINE
  5
31E88
  8
0
 10
2893.8073513610947884
 20
76.7001133323367981
 30
0.0
 11
2893.8098742962552024
 21
76.7030293633813045
 31
0.0
  0
LINE
  5
31E89
  8
0
 10
2893.8098742962552024
 20
76.7030293633813045
 30
0.0
 11
2893.8227238885829138
 21
76.6923457419254362
 31
0.0
  0
LINE
  5
31E8A
  8
0
 10
2893.8227238885829138
 20
76.6923457419254362
 30
0.0
 11
2893.8336626628938575
 21
76.678246095736796
 31
0.0
  0
LINE
  5
31E8B
  8
0
 10
2893.8336626628938575
 20
76.678246095736796
 30
0.0
 11
2893.8314651644418518
 21
76.6751077427573478
 31
0.0
  0
LINE
  5
31E8C
  8
0
 10
2893.8314651644418518
 20
76.6751077427573478
 30
0.0
 11
2893.818303104495044
 21
76.6860322079367904
 31
0.0
  0
LINE
  5
31E8D
  8
0
 10
2893.818303104495044
 20
76.6860322079367904
 30
0.0
 11
2893.8073513610947884
 21
76.7001133323367981
 31
0.0
  0
LINE
  5
31E8E
  8
0
 10
2893.8043267849948279
 20
76.6957937901367899
 30
0.0
 11
2893.8033326442709949
 21
76.6943740099959825
 31
0.0
  0
LINE
  5
31E8F
  8
0
 10
2893.8033326442709949
 20
76.6943740099959825
 30
0.0
 11
2893.8144766795940086
 21
76.6812922952368012
 31
0.0
  0
LINE
  5
31E90
  8
0
 10
2893.8144766795940086
 20
76.6812922952368012
 30
0.0
 11
2893.8273918577951918
 21
76.6692904579367962
 31
0.0
  0
LINE
  5
31E91
  8
0
 10
2893.8273918577951918
 20
76.6692904579367962
 30
0.0
 11
2893.8284753199950501
 21
76.6708378022367896
 31
0.0
  0
LINE
  5
31E92
  8
0
 10
2893.8284753199950501
 20
76.6708378022367896
 30
0.0
 11
2893.8169418056590985
 21
76.6840880717862632
 31
0.0
  0
LINE
  5
31E93
  8
0
 10
2893.8169418056590985
 20
76.6840880717862632
 30
0.0
 11
2893.8043267850262055
 21
76.6957937901412947
 31
0.0
  0
LINE
  5
31E94
  8
0
 10
2893.8164395757280545
 20
76.7616282012841822
 30
0.0
 11
2893.8139572899940504
 21
76.7580831298367912
 31
0.0
  0
LINE
  5
31E95
  8
0
 10
2893.8139572899940504
 20
76.7580831298367912
 30
0.0
 11
2893.8225924695948379
 21
76.7406936094367893
 31
0.0
  0
LINE
  5
31E96
  8
0
 10
2893.8225924695948379
 20
76.7406936094367893
 30
0.0
 11
2893.8368420733459061
 21
76.7313223176945058
 31
0.0
  0
LINE
  5
31E97
  8
0
 10
2893.8368420733459061
 20
76.7313223176945058
 30
0.0
 11
2893.8420936542938762
 21
76.7388223525368005
 31
0.0
  0
LINE
  5
31E98
  8
0
 10
2893.8420936542938762
 20
76.7388223525368005
 30
0.0
 11
2893.8383298201129037
 21
76.7463004871506769
 31
0.0
  0
LINE
  5
31E99
  8
0
 10
2893.8051794270140817
 20
76.7455470423229684
 30
0.0
 11
2893.8191441214648876
 21
76.7357688579976269
 31
0.0
  0
LINE
  5
31E9A
  8
0
 10
2893.8191441214648876
 20
76.7357688579976269
 30
0.0
 11
2893.8277372989427931
 21
76.71922166944465
 31
0.0
  0
LINE
  5
31E9B
  8
0
 10
2893.8277372989427931
 20
76.71922166944465
 30
0.0
 11
2893.8239830643587993
 21
76.7129577495219337
 31
0.0
  0
LINE
  5
31E9C
  8
0
 10
2893.8239830643587993
 20
76.7129577495219337
 30
0.0
 11
2893.8099683616869697
 21
76.7242876144374009
 31
0.0
  0
LINE
  5
31E9D
  8
0
 10
2893.8099683616869697
 20
76.7242876144374009
 30
0.0
 11
2893.8010669747091015
 21
76.7396738517567343
 31
0.0
  0
LINE
  5
31E9E
  8
0
 10
2893.8010669747091015
 20
76.7396738517567343
 30
0.0
 11
2893.8051794269940729
 21
76.7455470423364829
 31
0.0
  0
LINE
  5
31E9F
  8
0
 10
2893.7918833269950483
 20
76.7265582435368003
 30
0.0
 11
2893.7947297398250157
 21
76.7306233423478545
 31
0.0
  0
LINE
  5
31EA0
  8
0
 10
2893.7947297398300179
 20
76.7306233423437192
 30
0.0
 11
2893.8076496030448652
 21
76.7193529843860347
 31
0.0
  0
LINE
  5
31EA1
  8
0
 10
2893.8076496030448652
 20
76.7193529843860347
 30
0.0
 11
2893.8177450388448051
 21
76.7040489259449885
 31
0.0
  0
LINE
  5
31EA2
  8
0
 10
2893.8177450388448051
 20
76.7040489259449885
 30
0.0
 11
2893.8149419294991276
 21
76.7000456709159835
 31
0.0
  0
LINE
  5
31EA3
  8
0
 10
2893.8149419294991276
 20
76.7000456709159835
 30
0.0
 11
2893.8020004126979074
 21
76.7112851044711164
 31
0.0
  0
LINE
  5
31EA4
  8
0
 10
2893.8020004126979074
 20
76.7112851044711164
 30
0.0
 11
2893.7918833270391588
 21
76.7265582435498459
 31
0.0
  0
LINE
  5
31EA5
  8
0
 10
2893.7877650442828781
 20
76.7206767263205194
 30
0.0
 11
2893.7860909150940643
 21
76.7182858220367905
 31
0.0
  0
LINE
  5
31EA6
  8
0
 10
2893.7860909150940643
 20
76.7182858220367905
 30
0.0
 11
2893.796826649579998
 21
76.7038962049474833
 31
0.0
  0
LINE
  5
31EA7
  8
0
 10
2893.796826649579998
 20
76.7038962049474833
 30
0.0
 11
2893.8092353412939701
 21
76.6918958183367891
 31
0.0
  0
LINE
  5
31EA8
  8
0
 10
2893.8092353412939701
 20
76.6918958183367891
 30
0.0
 11
2893.8108849756949894
 21
76.6942517403367958
 31
0.0
  0
LINE
  5
31EA9
  8
0
 10
2893.8108849756949894
 20
76.6942517403367958
 30
0.0
 11
2893.800150174897226
 21
76.708642690962634
 31
0.0
  0
LINE
  5
31EAA
  8
0
 10
2893.800150174897226
 20
76.708642690962634
 30
0.0
 11
2893.7877650442828781
 21
76.7206767263205194
 31
0.0
  0
LINE
  5
31EAB
  8
0
 10
2893.7835091943270527
 20
76.7145987427235383
 30
0.0
 11
2893.7840618617710788
 21
76.7153880335601457
 31
0.0
  0
LINE
  5
31EAC
  8
0
 10
2893.7840618617710788
 20
76.7153880335601457
 30
0.0
 11
2893.7959148161198755
 21
76.7025939718723464
 31
0.0
  0
LINE
  5
31EAD
  8
0
 10
2893.7959148161198755
 20
76.7025939718723464
 30
0.0
 11
2893.8072356457951173
 21
76.6890399572368011
 31
0.0
  0
LINE
  5
31EAE
  8
0
 10
2893.8072356457951173
 20
76.6890399572368011
 30
0.0
 11
2893.8066909128460793
 21
76.6882619979445792
 31
0.0
  0
LINE
  5
31EAF
  8
0
 10
2893.8066909128460793
 20
76.6882619979445792
 30
0.0
 11
2893.7948084286340418
 21
76.7010100998074904
 31
0.0
  0
LINE
  5
31EB0
  8
0
 10
2893.7948084286340418
 20
76.7010100998074904
 30
0.0
 11
2893.7835091943270527
 21
76.7145987427235383
 31
0.0
  0
LINE
  5
31EB1
  8
0
 10
2893.7936353250938737
 20
76.7775959094367835
 30
0.0
 11
2893.7894063531948632
 21
76.7715563115732209
 31
0.0
  0
LINE
  5
31EB2
  8
0
 10
2893.7894063531948632
 20
76.7715563115732209
 30
0.0
 11
2893.7978545975947782
 21
76.7538998200367928
 31
0.0
  0
LINE
  5
31EB3
  8
0
 10
2893.7978545975947782
 20
76.7538998200367928
 30
0.0
 11
2893.8111091185778605
 21
76.74310740286856
 31
0.0
  0
LINE
  5
31EB4
  8
0
 10
2893.8111091185778605
 20
76.74310740286856
 30
0.0
 11
2893.8158908953910213
 21
76.7499364878310644
 31
0.0
  0
LINE
  5
31EB5
  8
0
 10
2893.8158908953910213
 20
76.7499364878310644
 30
0.0
 11
2893.8074987635782236
 21
76.7676731164580701
 31
0.0
  0
LINE
  5
31EB6
  8
0
 10
2893.781755848136072
 20
76.7606302580531263
 30
0.0
 11
2893.7782346035951377
 21
76.7556013996367739
 31
0.0
  0
LINE
  5
31EB7
  8
0
 10
2893.7782346035951377
 20
76.7556013996367739
 30
0.0
 11
2893.7874530542030698
 21
76.7390448766827404
 31
0.0
  0
LINE
  5
31EB8
  8
0
 10
2893.7874530542030698
 20
76.7390448766827404
 30
0.0
 11
2893.80015814579383
 21
76.7274677928367907
 31
0.0
  0
LINE
  5
31EB9
  8
0
 10
2893.80015814579383
 20
76.7274677928367907
 30
0.0
 11
2893.8036114953952165
 21
76.7323996872367928
 31
0.0
  0
LINE
  5
31EBA
  8
0
 10
2893.8036114953952165
 20
76.7323996872367928
 30
0.0
 11
2893.7944269875379177
 21
76.7490046856624133
 31
0.0
  0
LINE
  5
31EBB
  8
0
 10
2893.7944269875379177
 20
76.7490046856624133
 30
0.0
 11
2893.781755848136072
 21
76.7606302580531263
 31
0.0
  0
LINE
  5
31EBC
  8
0
 10
2893.7706586586950834
 20
76.7447818290367962
 30
0.0
 11
2893.7729451721938858
 21
76.7480473088367745
 31
0.0
  0
LINE
  5
31EBD
  8
0
 10
2893.7729451721938858
 20
76.7480473088367745
 30
0.0
 11
2893.7850815272940963
 21
76.7356579851367968
 31
0.0
  0
LINE
  5
31EBE
  8
0
 10
2893.7850815272940963
 20
76.7356579851367968
 30
0.0
 11
2893.7949679230000584
 21
76.7200553865422421
 31
0.0
  0
LINE
  5
31EBF
  8
0
 10
2893.7949679230000584
 20
76.7200553865422421
 30
0.0
 11
2893.7927232971110243
 21
76.7168497285602911
 31
0.0
  0
LINE
  5
31EC0
  8
0
 10
2893.7927232971110243
 20
76.7168497285602911
 30
0.0
 11
2893.7805508825949801
 21
76.7291875539367965
 31
0.0
  0
LINE
  5
31EC1
  8
0
 10
2893.7805508825949801
 20
76.7291875539367965
 30
0.0
 11
2893.7706586586950834
 21
76.7447818290367962
 31
0.0
  0
LINE
  5
31EC2
  8
0
 10
2893.7664236436821739
 20
76.7387336007187599
 30
0.0
 11
2893.7675497084701419
 21
76.7403417880412633
 31
0.0
  0
LINE
  5
31EC3
  8
0
 10
2893.7675497084701419
 20
76.7403417880412633
 30
0.0
 11
2893.7791563692640011
 21
76.7271959824922476
 31
0.0
  0
LINE
  5
31EC4
  8
0
 10
2893.7791563692640011
 20
76.7271959824922476
 30
0.0
 11
2893.789670365494203
 21
76.7124896903367954
 31
0.0
  0
LINE
  5
31EC5
  8
0
 10
2893.789670365494203
 20
76.7124896903367954
 30
0.0
 11
2893.7885643298950527
 21
76.7109101078367956
 31
0.0
  0
LINE
  5
31EC6
  8
0
 10
2893.7885643298950527
 20
76.7109101078367956
 30
0.0
 11
2893.7769245283948294
 21
76.7240085834367989
 31
0.0
  0
LINE
  5
31EC7
  8
0
 10
2893.7769245283948294
 20
76.7240085834367989
 30
0.0
 11
2893.7664236158020685
 21
76.7387335609016077
 31
0.0
  0
LINE
  5
31EC8
  8
0
 10
2893.8147625493920714
 20
76.6809757707179642
 30
0.0
 11
2893.816941805866918
 21
76.6840880715474214
 31
0.0
  0
LINE
  5
31EC9
  8
0
 10
2893.8183031046910401
 20
76.686032207773664
 30
0.0
 11
2893.8227238887197927
 21
76.6923457417500174
 31
0.0
  0
LINE
  5
31ECA
  8
0
 10
2893.8250366913798644
 20
76.6956487663000104
 30
0.0
 11
2893.8317584574178909
 21
76.7052484431883954
 31
0.0
  0
LINE
  5
31ECB
  8
0
 10
2893.8351702416439366
 20
76.7101209760906784
 30
0.0
 11
2893.8445694496472242
 21
76.7235444364316237
 31
0.0
  0
LINE
  5
31ECC
  8
0
 10
2893.7948084286340418
 20
76.7010100998074904
 30
0.0
 11
2893.7959162136630766
 21
76.7025922986444471
 31
0.0
  0
LINE
  5
31ECD
  8
0
 10
2893.7968281408880102
 20
76.7038947627106751
 30
0.0
 11
2893.8001513373251328
 21
76.708641132625317
 31
0.0
  0
LINE
  5
31ECE
  8
0
 10
2893.8020017284011374
 20
76.7112839618108637
 30
0.0
 11
2893.8076504252730956
 21
76.719351737939391
 31
0.0
  0
LINE
  5
31ECF
  8
0
 10
2893.8106950067908656
 20
76.7237001748709417
 30
0.0
 11
2893.8191444786530155
 21
76.7357681701893029
 31
0.0
  0
LINE
  5
31ED0
  8
0
 10
2893.822592867998992
 20
76.7406933474250792
 30
0.0
 11
2893.8304042701947765
 21
76.7518500169367996
 31
0.0
  0
LINE
  5
31ED1
  8
0
 10
2893.7769245294348366
 20
76.724008582266535
 30
0.0
 11
2893.7791563701239284
 21
76.7271959812905919
 31
0.0
  0
LINE
  5
31ED2
  8
0
 10
2893.7805508835440378
 20
76.7291875529739116
 30
0.0
 11
2893.7850815279371091
 21
76.7356579841233923
 31
0.0
  0
LINE
  5
31ED3
  8
0
 10
2893.7874530549911469
 20
76.739044875964467
 30
0.0
 11
2893.7944269879180865
 21
76.7490046849751479
 31
0.0
  0
LINE
  5
31ED4
  8
0
 10
2893.7978545979681257
 20
76.7538998197326521
 30
0.0
 11
2893.8074987635782236
 21
76.7676731164580701
 31
0.0
  0
LINE
  5
31ED5
  8
0
 10
2893.7914162190818388
 20
76.7635185809193956
 30
0.0
 11
2893.7835837807679127
 21
76.7807505474040966
 31
0.0
  0
LINE
  5
31ED6
  8
0
 10
2893.7835837807679127
 20
76.7807505474040966
 30
0.0
 11
2893.7709088767728645
 21
76.7935091399166652
 31
0.0
  0
LINE
  5
31ED7
  8
0
 10
2893.7709088767728645
 20
76.7935091399166652
 30
0.0
 11
2893.7665729298951192
 21
76.7874823568367901
 31
0.0
  0
LINE
  5
31ED8
  8
0
 10
2893.7665729298951192
 20
76.7874823568367901
 30
0.0
 11
2893.7748042342100234
 21
76.769516042758184
 31
0.0
  0
LINE
  5
31ED9
  8
0
 10
2893.7748042342100234
 20
76.769516042758184
 30
0.0
 11
2893.7872509747940057
 21
76.757569995536798
 31
0.0
  0
LINE
  5
31EDA
  8
0
 10
2893.7872509747940057
 20
76.757569995536798
 30
0.0
 11
2893.7914162190818388
 21
76.7635185809194525
 31
0.0
  0
LINE
  5
31EDB
  8
0
 10
2893.7808351348858196
 20
76.7484072265803832
 30
0.0
 11
2893.7779544537938818
 21
76.7442931876367993
 31
0.0
  0
LINE
  5
31EDC
  8
0
 10
2893.7779544537938818
 20
76.7442931876367993
 30
0.0
 11
2893.7660393372830185
 21
76.7569984725751056
 31
0.0
  0
LINE
  5
31EDD
  8
0
 10
2893.7660393372830185
 20
76.7569984725751056
 30
0.0
 11
2893.7570569872950728
 21
76.7738921823367946
 31
0.0
  0
LINE
  5
31EDE
  8
0
 10
2893.7570569872950728
 20
76.7738921823367946
 30
0.0
 11
2893.76000420979517
 21
76.7781012522367945
 31
0.0
  0
LINE
  5
31EDF
  8
0
 10
2893.76000420979517
 20
76.7781012522367945
 30
0.0
 11
2893.7718662950551334
 21
76.7653202308234341
 31
0.0
  0
LINE
  5
31EE0
  8
0
 10
2893.7718662950551334
 20
76.7653202308234341
 30
0.0
 11
2893.7808351348721772
 21
76.7484072266049679
 31
0.0
  0
LINE
  5
31EE1
  8
0
 10
2893.7737876812898321
 20
76.7383424198539927
 30
0.0
 11
2893.7720941991938162
 21
76.7359238766532457
 31
0.0
  0
LINE
  5
31EE2
  8
0
 10
2893.7720941991938162
 20
76.7359238766532457
 30
0.0
 11
2893.7607084016308363
 21
76.7493851076042262
 31
0.0
  0
LINE
  5
31EE3
  8
0
 10
2893.7607084016308363
 20
76.7493851076042262
 30
0.0
 11
2893.7510651853949639
 21
76.7653350024367995
 31
0.0
  0
LINE
  5
31EE4
  8
0
 10
2893.7510651853949639
 20
76.7653350024367995
 30
0.0
 11
2893.7527961676778432
 21
76.7678071013774286
 31
0.0
  0
LINE
  5
31EE5
  8
0
 10
2893.7527961676778432
 20
76.7678071013774286
 30
0.0
 11
2893.7641322879658219
 21
76.7542749238839264
 31
0.0
  0
LINE
  5
31EE6
  8
0
 10
2893.7641322879658219
 20
76.7542749238839264
 30
0.0
 11
2893.7737876812898321
 21
76.7383424198539927
 31
0.0
  0
LINE
  5
31EE7
  8
0
 10
2893.7694830292948609
 20
76.732194739636796
 30
0.0
 11
2893.7700419609941491
 21
76.7329929767367958
 31
0.0
  0
LINE
  5
31EE8
  8
0
 10
2893.7700419609941491
 20
76.7329929767367958
 30
0.0
 11
2893.7597694049950405
 21
76.7480440813368006
 31
0.0
  0
LINE
  5
31EE9
  8
0
 10
2893.7597694049950405
 20
76.7480440813368006
 30
0.0
 11
2893.7489680484950441
 21
76.7623399805367939
 31
0.0
  0
LINE
  5
31EEA
  8
0
 10
2893.7489680484950441
 20
76.7623399805367939
 30
0.0
 11
2893.748396990693891
 21
76.7615244255367912
 31
0.0
  0
LINE
  5
31EEB
  8
0
 10
2893.748396990693891
 20
76.7615244255367912
 30
0.0
 11
2893.7586712069451096
 21
76.7464756920137887
 31
0.0
  0
LINE
  5
31EEC
  8
0
 10
2893.7586712069451096
 20
76.7464756920137887
 30
0.0
 11
2893.7694830293858104
 21
76.7321947396928721
 31
0.0
  0
LINE
  5
31EED
  8
0
 10
2893.7056415647798531
 20
76.8392098037781466
 30
0.0
 11
2893.7119314997407855
 21
76.8253311321019652
 31
0.0
  0
LINE
  5
31EEE
  8
0
 10
2893.7119314997407855
 20
76.8253311321019652
 30
0.0
 11
2893.7212974600788584
 21
76.8089852745920041
 31
0.0
  0
LINE
  5
31EEF
  8
0
 10
2893.7212974600788584
 20
76.8089852745920041
 30
0.0
 11
2893.7224913661411847
 21
76.8106903492030568
 31
0.0
  0
LINE
  5
31EF0
  8
0
 10
2893.7224913661411847
 20
76.8106903492030568
 30
0.0
 11
2893.7143612811369167
 21
76.8288012193767713
 31
0.0
  0
LINE
  5
31EF1
  8
0
 10
2893.7143612811369167
 20
76.8288012193767571
 30
0.0
 11
2893.7101343273147904
 21
76.8360639375834182
 31
0.0
  0
LINE
  5
31EF2
  8
0
 10
2893.7198014966411392
 20
76.8177569340597017
 30
0.0
 11
2893.721616024395189
 21
76.8203483483367933
 31
0.0
  0
LINE
  5
31EF3
  8
0
 10
2893.721616024395189
 20
76.8203483483367933
 30
0.0
 11
2893.7317863030198168
 21
76.8051511766667687
 31
0.0
  0
LINE
  5
31EF4
  8
0
 10
2893.7317863030198168
 20
76.8051511766667687
 30
0.0
 11
2893.7402339472942003
 21
76.7874938278367978
 31
0.0
  0
LINE
  5
31EF5
  8
0
 10
2893.7402339472942003
 20
76.7874938278367978
 30
0.0
 11
2893.7384742287390509
 21
76.7849806892922118
 31
0.0
  0
LINE
  5
31EF6
  8
0
 10
2893.7384742287390509
 20
76.7849806892922118
 30
0.0
 11
2893.7282132706441189
 21
76.8000483574649735
 31
0.0
  0
LINE
  5
31EF7
  8
0
 10
2893.7282132706441189
 20
76.8000483574649735
 30
0.0
 11
2893.7198014966411392
 21
76.8177569340597017
 31
0.0
  0
LINE
  5
31EF8
  8
0
 10
2893.7270097300261114
 20
76.8242476533931011
 30
0.0
 11
2893.7337779378949563
 21
76.8079955258368017
 31
0.0
  0
LINE
  5
31EF9
  8
0
 10
2893.7337779378949563
 20
76.8079955258368017
 30
0.0
 11
2893.7445669153939889
 21
76.7936819477368005
 31
0.0
  0
LINE
  5
31EFA
  8
0
 10
2893.7445669153939889
 20
76.7936819477368005
 30
0.0
 11
2893.7475652559951413
 21
76.7979640218367905
 31
0.0
  0
LINE
  5
31EFB
  8
0
 10
2893.7475652559951413
 20
76.7979640218367905
 30
0.0
 11
2893.7405191145548997
 21
76.81478828050858
 31
0.0
  0
LINE
  5
31EFC
  8
0
 10
2893.7480268239401084
 20
76.809531325801629
 30
0.0
 11
2893.7454565125221961
 21
76.8058605406748569
 31
0.0
  0
LINE
  5
31EFD
  8
0
 10
2893.7454565125221961
 20
76.8058605406748569
 30
0.0
 11
2893.7534372552991044
 21
76.7875363875972852
 31
0.0
  0
LINE
  5
31EFE
  8
0
 10
2893.7534372552991044
 20
76.7875363875972852
 30
0.0
 11
2893.7650668050491731
 21
76.7744232709711696
 31
0.0
  0
LINE
  5
31EFF
  8
0
 10
2893.7650668050491731
 20
76.7744232709711696
 30
0.0
 11
2893.7686408420349835
 21
76.779527524795256
 31
0.0
  0
LINE
  5
31F00
  8
0
 10
2893.7686408420349835
 20
76.779527524795256
 30
0.0
 11
2893.7606852396929753
 21
76.7978875820570437
 31
0.0
  0
LINE
  5
31F01
  8
0
 10
2893.7606852396929753
 20
76.7978875820570437
 30
0.0
 11
2893.7538617524760411
 21
76.8054456648551422
 31
0.0
  0
LINE
  5
31F02
  8
0
 10
2893.7375606846849223
 20
76.7945841298993912
 30
0.0
 11
2893.7399420141759947
 21
76.7979850207931207
 31
0.0
  0
LINE
  5
31F03
  8
0
 10
2893.7399420141759947
 20
76.7979850207931207
 30
0.0
 11
2893.7509754511920619
 21
76.7840205670546965
 31
0.0
  0
LINE
  5
31F04
  8
0
 10
2893.7509754511920619
 20
76.7840205670546965
 30
0.0
 11
2893.7597003440278058
 21
76.7667591702490739
 31
0.0
  0
LINE
  5
31F05
  8
0
 10
2893.7597003440278058
 20
76.7667591702490739
 30
0.0
 11
2893.7573813461121972
 21
76.7634472980826814
 31
0.0
  0
LINE
  5
31F06
  8
0
 10
2893.7573813461121972
 20
76.7634472980826814
 30
0.0
 11
2893.7462762603931878
 21
76.7773094270343819
 31
0.0
  0
LINE
  5
31F07
  8
0
 10
2893.7462762603931878
 20
76.7773094270343819
 30
0.0
 11
2893.7375606846949267
 21
76.7945841299367942
 31
0.0
  0
LINE
  5
31F08
  8
0
 10
2893.7344762794828057
 20
76.7897422140855923
 30
0.0
 11
2893.7331538443950194
 21
76.788290509836898
 31
0.0
  0
LINE
  5
31F09
  8
0
 10
2893.7331538443950194
 20
76.788290509836898
 30
0.0
 11
2893.7425185817141937
 21
76.7719429056646732
 31
0.0
  0
LINE
  5
31F0A
  8
0
 10
2893.7425185817141937
 20
76.7719429056646732
 30
0.0
 11
2893.7528643057048612
 21
76.7576112042672634
 31
0.0
  0
LINE
  5
31F0B
  8
0
 10
2893.7528643057048612
 20
76.7576112042672634
 30
0.0
 11
2893.7542289884509046
 21
76.7589452648414579
 31
0.0
  0
LINE
  5
31F0C
  8
0
 10
2893.7542289884509046
 20
76.7589452648414579
 30
0.0
 11
2893.744830876962169
 21
76.7752452055083552
 31
0.0
  0
LINE
  5
31F0D
  8
0
 10
2893.744830876962169
 20
76.7752452055083552
 30
0.0
 11
2893.7344762794828057
 21
76.7897422140855923
 31
0.0
  0
LINE
  5
31F0E
  8
0
 10
2893.7277019544821997
 20
76.80112478693448
 30
0.0
 11
2893.7316583285492015
 21
76.8053424054500766
 31
0.0
  0
LINE
  5
31F0F
  8
0
 10
2893.7339424164288175
 20
76.8077773145793827
 30
0.0
 11
2893.7405191145548997
 21
76.81478828050858
 31
0.0
  0
LINE
  5
31F10
  8
0
 10
2893.7425185817141937
 20
76.7719429056646732
 30
0.0
 11
2893.7448308769598952
 21
76.7752452055124763
 31
0.0
  0
LINE
  5
31F11
  8
0
 10
2893.7462762604118325
 20
76.7773094270099392
 30
0.0
 11
2893.7509754512198015
 21
76.7840205669982367
 31
0.0
  0
LINE
  5
31F12
  8
0
 10
2893.7534372553018329
 20
76.7875363875910892
 30
0.0
 11
2893.7606852396929753
 21
76.7978875820570437
 31
0.0
  0
LINE
  5
31F13
  8
0
 10
2893.7607084016308363
 20
76.7493851076042262
 30
0.0
 11
2893.7641968885068309
 21
76.7541683255972487
 31
0.0
  0
LINE
  5
31F14
  8
0
 10
2893.7661640097921918
 20
76.7568655322259303
 30
0.0
 11
2893.7720615865850959
 21
76.7649519595049838
 31
0.0
  0
LINE
  5
31F15
  8
0
 10
2893.7751489561551352
 20
76.7691851878956868
 30
0.0
 11
2893.7835837807679127
 21
76.7807505474040966
 31
0.0
  0
LINE
  5
31F16
  8
0
 10
2893.9863506279070862
 20
76.6426552017081661
 30
0.0
 11
2893.9424616591591075
 21
76.579975258521813
 31
0.0
  0
ARC
  5
31F17
  8
0
 10
2894.2361735884669542
 20
77.0880737269816336
 30
0.0
 40
0.5868822293007215
 50
239.9694662570655908
 51
265.0189070941182194
  0
LINE
  5
31F18
  8
0
 10
2894.0039987189948079
 20
76.6302978752915465
 30
0.0
 11
2893.9987811161759055
 21
76.6228463663306769
 31
0.0
  0
LINE
  5
31F19
  8
0
 10
2893.9987811161759055
 20
76.6228463663306769
 30
0.0
 11
2893.9953379695489275
 21
76.6235537167812311
 31
0.0
  0
LINE
  5
31F1A
  8
0
 10
2893.9953379695489275
 20
76.6235537167812311
 30
0.0
 11
2893.9803326105738961
 21
76.6340605822568648
 31
0.0
  0
LINE
  5
31F1B
  8
0
 10
2893.9953379695489275
 20
76.6235537167812453
 30
0.0
 11
2894.0013559869289566
 21
76.6321483362063134
 31
0.0
  0
LINE
  5
31F1C
  8
0
 10
2893.9703142982421014
 20
76.5648628814619201
 30
0.0
 11
2893.971398945708188
 21
76.5664112980593501
 31
0.0
  0
LINE
  5
31F1D
  8
0
 10
2893.9723479673198199
 20
76.5677660984527222
 30
0.0
 11
2893.9755281143179673
 21
76.5723059997058044
 31
0.0
  0
LINE
  5
31F1E
  8
0
 10
2893.9774525744142011
 20
76.5750533125836483
 30
0.0
 11
2893.9828543184949012
 21
76.5827647123199853
 31
0.0
  0
LINE
  5
31F1F
  8
0
 10
2893.9858109250908456
 20
76.5869854926805971
 30
0.0
 11
2893.9936026750210658
 21
76.5981088071959846
 31
0.0
  0
LINE
  5
31F20
  8
0
 10
2893.9976875954957904
 20
76.6039403412730735
 30
0.0
 11
2894.0081439393838991
 21
76.6188675659415424
 31
0.0
  0
LINE
  5
31F21
  8
0
 10
2894.0081439393838991
 20
76.6188675659415424
 30
0.0
 11
2894.0090532744229677
 21
76.6187028103647663
 31
0.0
  0
LINE
  5
31F22
  8
0
 10
2894.0090532744229677
 20
76.6187028103647663
 30
0.0
 11
2894.0218670123372249
 21
76.6072808896370532
 31
0.0
  0
LINE
  5
31F23
  8
0
 10
2894.0218670123372249
 20
76.6072808896370532
 30
0.0
 11
2894.0164797420197829
 21
76.599587070242535
 31
0.0
  0
LINE
  5
31F24
  8
0
 10
2894.0164797420197829
 20
76.599587070242535
 30
0.0
 11
2893.9983326834390027
 21
76.6033922197358237
 31
0.0
  0
LINE
  5
31F25
  8
0
 10
2893.9983326834390027
 20
76.6033922197358237
 30
0.0
 11
2893.9976875954957904
 21
76.6039403412730735
 31
0.0
  0
LINE
  5
31F26
  8
0
 10
2893.9936026750210658
 20
76.5981088071959846
 30
0.0
 11
2893.9944782635297997
 21
76.597887537636808
 31
0.0
  0
LINE
  5
31F27
  8
0
 10
2893.9944782635297997
 20
76.597887537636808
 30
0.0
 11
2894.0079220866641663
 21
76.5873654719376447
 31
0.0
  0
LINE
  5
31F28
  8
0
 10
2894.0079220866641663
 20
76.5873654719376447
 30
0.0
 11
2894.0039086524898266
 21
76.5816336938702449
 31
0.0
  0
LINE
  5
31F29
  8
0
 10
2894.0039086524898266
 20
76.5816336938702449
 30
0.0
 11
2893.9864886743680472
 21
76.5864772214559935
 31
0.0
  0
LINE
  5
31F2A
  8
0
 10
2893.9864886743680472
 20
76.5864772214559935
 30
0.0
 11
2893.9858109250908456
 21
76.5869854926805971
 31
0.0
  0
LINE
  5
31F2B
  8
0
 10
2893.9828543184949012
 20
76.5827647123199853
 30
0.0
 11
2893.9836996278709194
 21
76.5824940505312668
 31
0.0
  0
LINE
  5
31F2C
  8
0
 10
2893.9836996278709194
 20
76.5824940505312668
 30
0.0
 11
2893.9976643223872088
 21
76.5727158663066234
 31
0.0
  0
LINE
  5
31F2D
  8
0
 10
2893.9976643223872088
 20
76.5727158663066234
 30
0.0
 11
2893.9949371997199705
 21
76.568821131448999
 31
0.0
  0
LINE
  5
31F2E
  8
0
 10
2893.9949371997199705
 20
76.568821131448999
 30
0.0
 11
2893.9781602906950866
 21
76.5745830572476933
 31
0.0
  0
LINE
  5
31F2F
  8
0
 10
2893.9781602906950866
 20
76.5745830572476933
 30
0.0
 11
2893.9774525744142011
 21
76.5750533125836341
 31
0.0
  0
LINE
  5
31F30
  8
0
 10
2893.9755281143179673
 20
76.5723059997058044
 30
0.0
 11
2893.976345222648888
 21
76.5719908713709856
 31
0.0
  0
LINE
  5
31F31
  8
0
 10
2893.976345222648888
 20
76.5719908713709856
 30
0.0
 11
2893.9909102752881154
 21
76.5630700874155394
 31
0.0
  0
LINE
  5
31F32
  8
0
 10
2893.9909102752881154
 20
76.5630700874155394
 30
0.0
 11
2893.9892726418629536
 21
76.5607313045072146
 31
0.0
  0
LINE
  5
31F33
  8
0
 10
2893.9892726418629536
 20
76.5607313045072146
 30
0.0
 11
2893.9730839009898773
 21
76.567333220649715
 31
0.0
  0
LINE
  5
31F34
  8
0
 10
2893.9730839009898773
 20
76.567333220649715
 30
0.0
 11
2893.9723479673198199
 21
76.5677660984527222
 31
0.0
  0
LINE
  5
31F35
  8
0
 10
2893.971398945708188
 20
76.5664112980593501
 30
0.0
 11
2893.9721889187890156
 21
76.5660550543888405
 31
0.0
  0
LINE
  5
31F36
  8
0
 10
2893.9721889187890156
 20
76.5660550543888405
 30
0.0
 11
2893.9872873038520993
 21
76.5578960087549092
 31
0.0
  0
LINE
  5
31F37
  8
0
 10
2893.9872873038520993
 20
76.5578960087549092
 30
0.0
 11
2893.986746492011207
 21
76.5571235885873023
 31
0.0
  0
LINE
  5
31F38
  8
0
 10
2893.986746492011207
 20
76.5571235885873023
 30
0.0
 11
2893.9711117626038686
 21
76.5645167158081819
 31
0.0
  0
LINE
  5
31F39
  8
0
 10
2893.9711117626038686
 20
76.5645167158081819
 30
0.0
 11
2893.9703477704479155
 21
76.5649106655776706
 31
0.0
  0
LINE
  5
31F3A
  8
0
 10
2893.9711117626038686
 20
76.5645167158081819
 30
0.0
 11
2893.9721889188481327
 21
76.566055054356795
 31
0.0
  0
LINE
  5
31F3B
  8
0
 10
2893.9730839006560927
 20
76.5673332208465212
 30
0.0
 11
2893.9763452226511617
 21
76.5719908713700477
 31
0.0
  0
LINE
  5
31F3C
  8
0
 10
2893.9781602907278284
 20
76.5745830572360973
 30
0.0
 11
2893.98369962785182
 21
76.5824940505373348
 31
0.0
  0
LINE
  5
31F3D
  8
0
 10
2893.9864886742220733
 20
76.5864772215655734
 30
0.0
 11
2893.9944782635197953
 21
76.597887537639167
 31
0.0
  0
LINE
  5
31F3E
  8
0
 10
2893.9983326834180843
 20
76.603392219753573
 30
0.0
 11
2894.0090532743488438
 21
76.6187028103782382
 31
0.0
  0
LINE
  5
31F3F
  8
0
 10
2894.0086181138708525
 20
76.5992676183989403
 30
0.0
 11
2894.0039497721040789
 21
76.592600535375496
 31
0.0
  0
LINE
  5
31F40
  8
0
 10
2894.0039497721040789
 20
76.592600535375496
 30
0.0
 11
2894.0176042464099737
 21
76.5823793107066422
 31
0.0
  0
LINE
  5
31F41
  8
0
 10
2894.0176042464099737
 20
76.5823793107066422
 30
0.0
 11
2894.0359179487040819
 21
76.5788121532502117
 31
0.0
  0
LINE
  5
31F42
  8
0
 10
2894.0359179487040819
 20
76.5788121532502117
 30
0.0
 11
2894.0406486084211792
 21
76.5855682354700491
 31
0.0
  0
LINE
  5
31F43
  8
0
 10
2894.0406486084211792
 20
76.5855682354700491
 30
0.0
 11
2894.0270034544018927
 21
76.5958027710657063
 31
0.0
  0
LINE
  5
31F44
  8
0
 10
2894.0270034544018927
 20
76.5958027710657063
 30
0.0
 11
2894.0086181138240136
 21
76.5992676183321919
 31
0.0
  0
LINE
  5
31F45
  8
0
 10
2894.0250782824678026
 20
76.5633315055353449
 30
0.0
 11
2894.0284973641150827
 21
76.5682144601029506
 31
0.0
  0
LINE
  5
31F46
  8
0
 10
2894.0284973641150827
 20
76.5682144601029506
 30
0.0
 11
2894.0138932712980022
 21
76.5777011291507534
 31
0.0
  0
LINE
  5
31F47
  8
0
 10
2894.0138932712980022
 20
76.5777011291507534
 30
0.0
 11
2893.9966232367842167
 21
76.5821371586024497
 31
0.0
  0
LINE
  5
31F48
  8
0
 10
2893.9966232367842167
 20
76.5821371586024497
 30
0.0
 11
2893.9932460394588816
 21
76.577314020979415
 31
0.0
  0
LINE
  5
31F49
  8
0
 10
2893.9932460394588816
 20
76.577314020979415
 30
0.0
 11
2894.0074706960681397
 21
76.5679071009828789
 31
0.0
  0
LINE
  5
31F4A
  8
0
 10
2894.0074706960681397
 20
76.5679071009828789
 30
0.0
 11
2894.0250782824778071
 21
76.5633315055716963
 31
0.0
  0
LINE
  5
31F4B
  8
0
 10
2894.0177147548329231
 20
76.5528152982595458
 30
0.0
 11
2894.0195920330429544
 21
76.5561834231677523
 31
0.0
  0
LINE
  5
31F4C
  8
0
 10
2894.0195920330429544
 20
76.5561834231677523
 30
0.0
 11
2894.0051578933889687
 21
76.5646040765190321
 31
0.0
  0
LINE
  5
31F4D
  8
0
 10
2894.0051578933889687
 20
76.5646040765190321
 30
0.0
 11
2893.9881672787519165
 21
76.570060799011685
 31
0.0
  0
LINE
  5
31F4E
  8
0
 10
2893.9881672787519165
 20
76.570060799011685
 30
0.0
 11
2893.9859697803508425
 21
76.566922445996596
 31
0.0
  0
LINE
  5
31F4F
  8
0
 10
2893.9859697803508425
 20
76.566922445996596
 30
0.0
 11
2894.0007371092938229
 21
76.558290542533797
 31
0.0
  0
LINE
  5
31F50
  8
0
 10
2894.0007371092938229
 20
76.558290542533797
 30
0.0
 11
2894.0177147548329231
 21
76.5528152982595458
 31
0.0
  0
LINE
  5
31F51
  8
0
 10
2894.0146901788530158
 20
76.5484957559753809
 30
0.0
 11
2894.0136960380841629
 21
76.547075975866349
 31
0.0
  0
LINE
  5
31F52
  8
0
 10
2894.0136960380841629
 20
76.547075975866349
 30
0.0
 11
2893.9975917626998125
 21
76.5530737336706295
 31
0.0
  0
LINE
  5
31F53
  8
0
 10
2893.9975917626998125
 20
76.5530737336706295
 30
0.0
 11
2893.9818964736550697
 21
76.5611051612096389
 31
0.0
  0
LINE
  5
31F54
  8
0
 10
2893.9818964736550697
 20
76.5611051612096389
 30
0.0
 11
2893.9829799357789852
 21
76.5626525055630083
 31
0.0
  0
LINE
  5
31F55
  8
0
 10
2893.9829799357789852
 20
76.5626525055630083
 30
0.0
 11
2893.9993758105229062
 21
76.5563464063388039
 31
0.0
  0
LINE
  5
31F56
  8
0
 10
2893.9993758105229062
 20
76.5563464063388039
 30
0.0
 11
2894.0146901788461946
 21
76.5484957560065737
 31
0.0
  0
LINE
  5
31F57
  8
0
 10
2894.0724114707841181
 20
76.5823947507740854
 30
0.0
 11
2894.0699291850260124
 21
76.5788496793436906
 31
0.0
  0
LINE
  5
31F58
  8
0
 10
2894.0699291850260124
 20
76.5788496793436906
 30
0.0
 11
2894.0506349756628879
 21
76.5810165276356685
 31
0.0
  0
LINE
  5
31F59
  8
0
 10
2894.0506349756628879
 20
76.5810165276356685
 30
0.0
 11
2894.0369551904491345
 21
76.5912016045866579
 31
0.0
  0
LINE
  5
31F5A
  8
0
 10
2894.0369551904491345
 20
76.5912016045866579
 30
0.0
 11
2894.0422067713780052
 21
76.5987016394426945
 31
0.0
  0
LINE
  5
31F5B
  8
0
 10
2894.0422067713780052
 20
76.5987016394426945
 30
0.0
 11
2894.0505212263988142
 21
76.5977224649075765
 31
0.0
  0
LINE
  5
31F5C
  8
0
 10
2894.061151322049227
 20
76.5663135918270825
 30
0.0
 11
2894.0471866275970569
 21
76.5760917761521966
 31
0.0
  0
LINE
  5
31F5D
  8
0
 10
2894.0471866275970569
 20
76.5760917761521966
 30
0.0
 11
2894.0286983168271036
 21
76.5785072498184718
 31
0.0
  0
LINE
  5
31F5E
  8
0
 10
2894.0286983168271036
 20
76.5785072498184718
 30
0.0
 11
2894.0240961813478862
 21
76.5728370364941782
 31
0.0
  0
LINE
  5
31F5F
  8
0
 10
2894.0240961813478862
 20
76.5728370364941782
 30
0.0
 11
2894.0395360824190902
 21
76.5635425658311704
 31
0.0
  0
LINE
  5
31F60
  8
0
 10
2894.0395360824190902
 20
76.5635425658311704
 30
0.0
 11
2894.0570388697387898
 21
76.5604404012638469
 31
0.0
  0
LINE
  5
31F61
  8
0
 10
2894.0570388697387898
 20
76.5604404012638469
 30
0.0
 11
2894.0611513220678717
 21
76.5663135918135538
 31
0.0
  0
LINE
  5
31F62
  8
0
 10
2894.0478552219838093
 20
76.5473247930730309
 30
0.0
 11
2894.0507016348160505
 21
76.5513898918830051
 31
0.0
  0
LINE
  5
31F63
  8
0
 10
2894.0507016348110483
 20
76.5513898918858757
 30
0.0
 11
2894.0356921091361073
 21
76.5596759025686993
 31
0.0
  0
LINE
  5
31F64
  8
0
 10
2894.0356921091361073
 20
76.5596759025686993
 30
0.0
 11
2894.0178581559521263
 21
76.5639282128345826
 31
0.0
  0
LINE
  5
31F65
  8
0
 10
2894.0178581559521263
 20
76.5639282128345826
 30
0.0
 11
2894.0150550466028108
 21
76.5599249578074676
 31
0.0
  0
LINE
  5
31F66
  8
0
 10
2894.0150550466028108
 20
76.5599249578074676
 30
0.0
 11
2894.0300429188059752
 21
76.5516080226424975
 31
0.0
  0
LINE
  5
31F67
  8
0
 10
2894.0300429188059752
 20
76.5516080226424975
 30
0.0
 11
2894.0478552219810808
 21
76.5473247931196283
 31
0.0
  0
LINE
  5
31F68
  8
0
 10
2894.0437369392998335
 20
76.5414432758380201
 30
0.0
 11
2894.0420628100919203
 21
76.5390523715676494
 31
0.0
  0
LINE
  5
31F69
  8
0
 10
2894.0420628100919203
 20
76.5390523715676494
 30
0.0
 11
2894.024869155649867
 21
76.5442191231451687
 31
0.0
  0
LINE
  5
31F6A
  8
0
 10
2894.024869155649867
 20
76.5442191231451687
 30
0.0
 11
2894.0093484583881036
 21
76.5517751052361035
 31
0.0
  0
LINE
  5
31F6B
  8
0
 10
2894.0093484583881036
 20
76.5517751052361035
 30
0.0
 11
2894.0109980927118158
 21
76.5541310272887046
 31
0.0
  0
LINE
  5
31F6C
  8
0
 10
2894.0109980927118158
 20
76.5541310272887046
 30
0.0
 11
2894.0281926809279867
 21
76.5489656091877322
 31
0.0
  0
LINE
  5
31F6D
  8
0
 10
2894.0281926809279867
 20
76.5489656091877322
 30
0.0
 11
2894.0437369392998335
 21
76.5414432758380201
 31
0.0
  0
LINE
  5
31F6E
  8
0
 10
2894.0394810893758404
 20
76.5353652922176906
 30
0.0
 11
2894.0400337567521092
 21
76.5361545831025438
 31
0.0
  0
LINE
  5
31F6F
  8
0
 10
2894.0400337567521092
 20
76.5361545831025438
 30
0.0
 11
2894.0239573222502258
 21
76.5429168900279251
 31
0.0
  0
LINE
  5
31F70
  8
0
 10
2894.0239573222502258
 20
76.5429168900279251
 30
0.0
 11
2894.0073487629269948
 21
76.5489192441084469
 31
0.0
  0
LINE
  5
31F71
  8
0
 10
2894.0073487629269948
 20
76.5489192441084469
 30
0.0
 11
2894.0068040299620407
 21
76.5481412848281906
 31
0.0
  0
LINE
  5
31F72
  8
0
 10
2894.0068040299620407
 20
76.5481412848281906
 30
0.0
 11
2894.0228473761649184
 21
76.5413355097208807
 31
0.0
  0
LINE
  5
31F73
  8
0
 10
2894.0228473761649184
 20
76.5413355097208807
 30
0.0
 11
2894.0394810893758404
 21
76.5353652922176906
 31
0.0
  0
LINE
  5
31F74
  8
0
 10
2894.0952157213728242
 20
76.5664270425597948
 30
0.0
 11
2894.0909867494028731
 21
76.5603874447455581
 31
0.0
  0
LINE
  5
31F75
  8
0
 10
2894.0909867494028731
 20
76.5603874447455581
 30
0.0
 11
2894.071505604837057
 21
76.5622873219030708
 31
0.0
  0
LINE
  5
31F76
  8
0
 10
2894.071505604837057
 20
76.5622873219030708
 30
0.0
 11
2894.0568307368980641
 21
76.5710512733975719
 31
0.0
  0
LINE
  5
31F77
  8
0
 10
2894.0568307368980641
 20
76.5710512733975719
 30
0.0
 11
2894.0616125136539267
 21
76.5778803584003924
 31
0.0
  0
LINE
  5
31F78
  8
0
 10
2894.0616125136539267
 20
76.5778803584003924
 30
0.0
 11
2894.081149770817774
 21
76.5760606183259256
 31
0.0
  0
LINE
  5
31F79
  8
0
 10
2894.0833362443718215
 20
76.5494613912065631
 30
0.0
 11
2894.0798149997890505
 21
76.5444325328191013
 31
0.0
  0
LINE
  5
31F7A
  8
0
 10
2894.0798149997890505
 20
76.5444325328191013
 30
0.0
 11
2894.0611040615440288
 21
76.5474323784795416
 31
0.0
  0
LINE
  5
31F7B
  8
0
 10
2894.0611040615440288
 20
76.5474323784795416
 30
0.0
 11
2894.0458797640380908
 21
76.5554116634199175
 31
0.0
  0
LINE
  5
31F7C
  8
0
 10
2894.0458797640380908
 20
76.5554116634199175
 30
0.0
 11
2894.0493331136881352
 21
76.5603435577851741
 31
0.0
  0
LINE
  5
31F7D
  8
0
 10
2894.0493331136881352
 20
76.5603435577851741
 30
0.0
 11
2894.0680779948697818
 21
76.5573921874657231
 31
0.0
  0
LINE
  5
31F7E
  8
0
 10
2894.0680779948697818
 20
76.5573921874657231
 30
0.0
 11
2894.0833362443718215
 21
76.5494613912065631
 31
0.0
  0
LINE
  5
31F7F
  8
0
 10
2894.0722390548949079
 20
76.5336129622146473
 30
0.0
 11
2894.0745255684919357
 21
76.5368784419468824
 31
0.0
  0
LINE
  5
31F80
  8
0
 10
2894.0745255684919357
 20
76.5368784419468824
 30
0.0
 11
2894.058732534524097
 21
76.5440454870118572
 31
0.0
  0
LINE
  5
31F81
  8
0
 10
2894.058732534524097
 20
76.5440454870118572
 30
0.0
 11
2894.0406895412847916
 21
76.5479992570968903
 31
0.0
  0
LINE
  5
31F82
  8
0
 10
2894.0406895412847916
 20
76.5479992570968903
 30
0.0
 11
2894.038444915402124
 21
76.5447935991105055
 31
0.0
  0
LINE
  5
31F83
  8
0
 10
2894.038444915402124
 20
76.5447935991105055
 30
0.0
 11
2894.054201889820888
 21
76.5375750558140027
 31
0.0
  0
LINE
  5
31F84
  8
0
 10
2894.054201889820888
 20
76.5375750558140027
 30
0.0
 11
2894.0722390548949079
 21
76.5336129622146473
 31
0.0
  0
LINE
  5
31F85
  8
0
 10
2894.0680040398169695
 20
76.5275647339426683
 30
0.0
 11
2894.0691301047368142
 21
76.5291729211725027
 31
0.0
  0
LINE
  5
31F86
  8
0
 10
2894.0691301047368142
 20
76.5291729211725027
 30
0.0
 11
2894.0528073764799046
 21
76.5355834843771845
 31
0.0
  0
LINE
  5
31F87
  8
0
 10
2894.0528073764799046
 20
76.5355834843771845
 30
0.0
 11
2894.0353919837662033
 21
76.5404335609010218
 31
0.0
  0
LINE
  5
31F88
  8
0
 10
2894.0353919837662033
 20
76.5404335609010218
 30
0.0
 11
2894.0342859481997948
 21
76.5388539783764514
 31
0.0
  0
LINE
  5
31F89
  8
0
 10
2894.0342859481997948
 20
76.5388539783764514
 30
0.0
 11
2894.0505755356421105
 21
76.5323960852996379
 31
0.0
  0
LINE
  5
31F8A
  8
0
 10
2894.0505755356421105
 20
76.5323960852996379
 30
0.0
 11
2894.0680040119359546
 21
76.5275646941255161
 31
0.0
  0
LINE
  5
31F8B
  8
0
 10
2893.9971965537160941
 20
76.5532341056487269
 30
0.0
 11
2893.9993758102277752
 21
76.5563464064524908
 31
0.0
  0
LINE
  5
31F8C
  8
0
 10
2894.0007371090750894
 20
76.5582905426626894
 30
0.0
 11
2894.0051578931770564
 21
76.5646040765869031
 31
0.0
  0
LINE
  5
31F8D
  8
0
 10
2894.0074706958757815
 20
76.5679071011096539
 30
0.0
 11
2894.0141924620270402
 21
76.577506777918785
 31
0.0
  0
LINE
  5
31F8E
  8
0
 10
2894.0176042463108388
 20
76.5823793107808513
 30
0.0
 11
2894.0270034544719238
 21
76.5958027710109945
 31
0.0
  0
LINE
  5
31F8F
  8
0
 10
2894.0228473761649184
 20
76.5413355097208807
 30
0.0
 11
2894.0239552719422136
 21
76.5429176310117896
 31
0.0
  0
LINE
  5
31F90
  8
0
 10
2894.0248672903330771
 20
76.5442200312422045
 30
0.0
 11
2894.0281908189967908
 21
76.5489661685297733
 31
0.0
  0
LINE
  5
31F91
  8
0
 10
2894.030041395059925
 20
76.5516088681860936
 30
0.0
 11
2894.0356906566407815
 21
76.5596762489002032
 31
0.0
  0
LINE
  5
31F92
  8
0
 10
2894.0387355425309579
 20
76.5640244727080272
 30
0.0
 11
2894.0471858591031378
 21
76.5760918765549263
 31
0.0
  0
LINE
  5
31F93
  8
0
 10
2894.0506345931898977
 20
76.5810168123999944
 30
0.0
 11
2894.0584467763060275
 21
76.5921729351057792
 31
0.0
  0
LINE
  5
31F94
  8
0
 10
2894.050575534186919
 20
76.5323960858766128
 30
0.0
 11
2894.0528073750570002
 21
76.5355834847734968
 31
0.0
  0
LINE
  5
31F95
  8
0
 10
2894.0542018885921607
 20
76.5375750563773352
 30
0.0
 11
2894.0587325333522131
 21
76.5440454872686615
 31
0.0
  0
LINE
  5
31F96
  8
0
 10
2894.0611040605999733
 20
76.547432378974591
 30
0.0
 11
2894.0680779940939829
 21
76.5573921875878796
 31
0.0
  0
LINE
  5
31F97
  8
0
 10
2894.0715056044241464
 20
76.5622873221500555
 30
0.0
 11
2894.081149770817774
 21
76.5760606183259256
 31
0.0
  0
LINE
  5
31F98
  8
0
 10
2894.0827463386008276
 20
76.5595270350997339
 30
0.0
 11
2894.1016179420230401
 21
76.5580606302575148
 31
0.0
  0
LINE
  5
31F99
  8
0
 10
2894.1016179420230401
 20
76.5580606302575148
 30
0.0
 11
2894.1179421697388534
 21
76.5505138121415882
 31
0.0
  0
LINE
  5
31F9A
  8
0
 10
2894.1179421697388534
 20
76.5505138121415882
 30
0.0
 11
2894.1137618273241969
 21
76.5443780736441255
 31
0.0
  0
LINE
  5
31F9B
  8
0
 10
2894.1137618273241969
 20
76.5443780736441255
 30
0.0
 11
2894.0940637426788271
 21
76.5459681282544437
 31
0.0
  0
LINE
  5
31F9C
  8
0
 10
2894.0940637426788271
 20
76.5459681282544437
 30
0.0
 11
2894.0785810942597891
 21
76.5535784497540135
 31
0.0
  0
LINE
  5
31F9D
  8
0
 10
2894.0785810942597891
 20
76.5535784497540135
 30
0.0
 11
2894.0827463386008276
 21
76.5595270350997339
 31
0.0
  0
LINE
  5
31F9E
  8
0
 10
2894.0721652543697928
 20
76.5444156807847804
 30
0.0
 11
2894.0692845732919523
 21
76.5403016418315758
 31
0.0
  0
LINE
  5
31F9F
  8
0
 10
2894.0692845732919523
 20
76.5403016418315758
 30
0.0
 11
2894.0852988456499588
 21
76.5334505581434854
 31
0.0
  0
LINE
  5
31FA0
  8
0
 10
2894.0852988456499588
 20
76.5334505581434854
 30
0.0
 11
2894.1042458846809495
 21
76.5307878991738875
 31
0.0
  0
LINE
  5
31FA1
  8
0
 10
2894.1042458846809495
 20
76.5307878991738875
 30
0.0
 11
2894.1071931071451218
 21
76.534996969099069
 31
0.0
  0
LINE
  5
31FA2
  8
0
 10
2894.1071931071451218
 20
76.534996969099069
 30
0.0
 11
2894.0911258035362152
 21
76.5417723163118922
 31
0.0
  0
LINE
  5
31FA3
  8
0
 10
2894.0911258035362152
 20
76.5417723163118922
 30
0.0
 11
2894.0721652543979872
 21
76.5444156807803466
 31
0.0
  0
LINE
  5
31FA4
  8
0
 10
2894.0651178008470197
 20
76.5343508740070746
 30
0.0
 11
2894.0634243186382264
 21
76.5319323308853114
 31
0.0
  0
LINE
  5
31FA5
  8
0
 10
2894.0634243186382264
 20
76.5319323308853114
 30
0.0
 11
2894.0799679101419315
 21
76.5258371930721353
 31
0.0
  0
LINE
  5
31FA6
  8
0
 10
2894.0799679101419315
 20
76.5258371930721353
 30
0.0
 11
2894.09825408281813
 21
76.5222307192480855
 31
0.0
  0
LINE
  5
31FA7
  8
0
 10
2894.09825408281813
 20
76.5222307192480855
 30
0.0
 11
2894.0999850651419365
 21
76.524702818159767
 31
0.0
  0
LINE
  5
31FA8
  8
0
 10
2894.0999850651419365
 20
76.524702818159767
 30
0.0
 11
2894.0833917963232125
 21
76.5307270094590137
 31
0.0
  0
LINE
  5
31FA9
  8
0
 10
2894.0833917963232125
 20
76.5307270094590137
 30
0.0
 11
2894.0651178008470197
 21
76.5343508740070746
 31
0.0
  0
LINE
  5
31FAA
  8
0
 10
2894.0608131488038453
 20
76.5282031938234013
 30
0.0
 11
2894.061372080415822
 21
76.5290014309846924
 31
0.0
  0
LINE
  5
31FAB
  8
0
 10
2894.061372080415822
 20
76.5290014309846924
 30
0.0
 11
2894.0790289134188242
 21
76.5244961668653048
 31
0.0
  0
LINE
  5
31FAC
  8
0
 10
2894.0790289134188242
 20
76.5244961668653048
 30
0.0
 11
2894.0961569459018392
 21
76.5192356973591217
 31
0.0
  0
LINE
  5
31FAD
  8
0
 10
2894.0961569459018392
 20
76.5192356973591217
 30
0.0
 11
2894.0955858881570748
 21
76.5184201423204939
 31
0.0
  0
LINE
  5
31FAE
  8
0
 10
2894.0955858881570748
 20
76.5184201423204939
 30
0.0
 11
2894.0779307153998161
 21
76.5229277775205787
 31
0.0
  0
LINE
  5
31FAF
  8
0
 10
2894.0779307153998161
 20
76.5229277775205787
 30
0.0
 11
2894.0608131488261279
 21
76.5282031939285332
 31
0.0
  0
LINE
  5
31FB0
  8
0
 10
2894.1832094817309553
 20
76.5048131482801068
 30
0.0
 11
2894.1680165119141748
 21
76.505976968473405
 31
0.0
  0
LINE
  5
31FB1
  8
0
 10
2894.1680165119141748
 20
76.505976968473405
 30
0.0
 11
2894.1494530831341763
 21
76.5091874797645772
 31
0.0
  0
LINE
  5
31FB2
  8
0
 10
2894.1494530831341763
 20
76.5091874797645772
 30
0.0
 11
2894.1506469892419773
 21
76.5108925543432434
 31
0.0
  0
LINE
  5
31FB3
  8
0
 10
2894.1506469892419773
 20
76.5108925543432434
 30
0.0
 11
2894.1704462931379567
 21
76.5094470558692592
 31
0.0
  0
LINE
  5
31FB4
  8
0
 10
2894.1704462931379567
 20
76.509447055869245
 30
0.0
 11
2894.1787167191960179
 21
76.5079590144748352
 31
0.0
  0
LINE
  5
31FB5
  8
0
 10
2894.1582073964391384
 20
76.5107818181874535
 30
0.0
 11
2894.1600219242700405
 21
76.5133732324103448
 31
0.0
  0
LINE
  5
31FB6
  8
0
 10
2894.1600219242700405
 20
76.5133732324103448
 30
0.0
 11
2894.1422628140421693
 21
76.5177324293552346
 31
0.0
  0
LINE
  5
31FB7
  8
0
 10
2894.1422628140421693
 20
76.5177324293552346
 30
0.0
 11
2894.1227810691389095
 21
76.5196314493678926
 31
0.0
  0
LINE
  5
31FB8
  8
0
 10
2894.1227810691389095
 20
76.5196314493678926
 30
0.0
 11
2894.1210213505851243
 21
76.5171183108218429
 31
0.0
  0
LINE
  5
31FB9
  8
0
 10
2894.1210213505851243
 20
76.5171183108218429
 30
0.0
 11
2894.1386897815377779
 21
76.5126296102437209
 31
0.0
  0
LINE
  5
31FBA
  8
0
 10
2894.1386897815377779
 20
76.5126296102437209
 30
0.0
 11
2894.1582073964391384
 21
76.5107818181874535
 31
0.0
  0
LINE
  5
31FBB
  8
0
 10
2894.1618413164851518
 20
76.5197752986651523
 30
0.0
 11
2894.1442544487231316
 21
76.5205767786608533
 31
0.0
  0
LINE
  5
31FBC
  8
0
 10
2894.1442544487231316
 20
76.5205767786608533
 30
0.0
 11
2894.1271140373751223
 21
76.525819569172171
 31
0.0
  0
LINE
  5
31FBD
  8
0
 10
2894.1271140373751223
 20
76.525819569172171
 30
0.0
 11
2894.130112377927162
 21
76.530101643305656
 31
0.0
  0
LINE
  5
31FBE
  8
0
 10
2894.130112377927162
 20
76.530101643305656
 30
0.0
 11
2894.1483319319559087
 21
76.5292346715496734
 31
0.0
  0
LINE
  5
31FBF
  8
0
 10
2894.1408242225711547
 20
76.5344916262566244
 30
0.0
 11
2894.1382539111550614
 21
76.5308208411284312
 31
0.0
  0
LINE
  5
31FC0
  8
0
 10
2894.1382539111550614
 20
76.5308208411284312
 30
0.0
 11
2894.1183052649371348
 21
76.5320530567652497
 31
0.0
  0
LINE
  5
31FC1
  8
0
 10
2894.1183052649371348
 20
76.5320530567652497
 30
0.0
 11
2894.1020054257360243
 21
76.5384963088223031
 31
0.0
  0
LINE
  5
31FC2
  8
0
 10
2894.1020054257360243
 20
76.5384963088223031
 30
0.0
 11
2894.1055794627482101
 21
76.543600562629365
 31
0.0
  0
LINE
  5
31FC3
  8
0
 10
2894.1055794627482101
 20
76.543600562629365
 30
0.0
 11
2894.1255532493269129
 21
76.5424042512279641
 31
0.0
  0
LINE
  5
31FC4
  8
0
 10
2894.1255532493269129
 20
76.5424042512279641
 30
0.0
 11
2894.134989294035222
 21
76.5385772872031112
 31
0.0
  0
LINE
  5
31FC5
  8
0
 10
2894.1303580833268825
 20
76.5195444303468548
 30
0.0
 11
2894.1327394127501975
 21
76.5229453212875228
 31
0.0
  0
LINE
  5
31FC6
  8
0
 10
2894.1327394127501975
 20
76.5229453212875228
 30
0.0
 11
2894.1158434609101278
 21
76.5285372361665424
 31
0.0
  0
LINE
  5
31FC7
  8
0
 10
2894.1158434609101278
 20
76.5285372361665424
 30
0.0
 11
2894.0966389646091557
 21
76.5308322081747718
 31
0.0
  0
LINE
  5
31FC8
  8
0
 10
2894.0966389646091557
 20
76.5308322081747718
 30
0.0
 11
2894.0943199667731278
 21
76.5275203359528007
 31
0.0
  0
LINE
  5
31FC9
  8
0
 10
2894.0943199667731278
 20
76.5275203359528007
 30
0.0
 11
2894.1111442700648695
 21
76.5218260961781027
 31
0.0
  0
LINE
  5
31FCA
  8
0
 10
2894.1111442700648695
 20
76.5218260961781027
 30
0.0
 11
2894.1303580833591695
 21
76.5195444303688248
 31
0.0
  0
LINE
  5
31FCB
  8
0
 10
2894.1268630994741216
 20
76.5149900047989746
 30
0.0
 11
2894.1259512431429357
 21
76.5132508102099251
 31
0.0
  0
LINE
  5
31FCC
  8
0
 10
2894.1259512431429357
 20
76.5132508102099251
 30
0.0
 11
2894.1073865913349437
 21
76.5164595748447454
 31
0.0
  0
LINE
  5
31FCD
  8
0
 10
2894.1073865913349437
 20
76.5164595748447454
 30
0.0
 11
2894.0903807512868298
 21
76.5212796447718233
 31
0.0
  0
LINE
  5
31FCE
  8
0
 10
2894.0903807512868298
 20
76.5212796447718233
 30
0.0
 11
2894.0911676091759546
 21
76.523018302666415
 31
0.0
  0
LINE
  5
31FCF
  8
0
 10
2894.0911676091759546
 20
76.523018302666415
 30
0.0
 11
2894.1096988865779167
 21
76.5197618746922217
 31
0.0
  0
LINE
  5
31FD0
  8
0
 10
2894.1096988865779167
 20
76.5197618746922217
 30
0.0
 11
2894.1268630994741216
 21
76.5149900047989746
 31
0.0
  0
LINE
  5
31FD1
  8
0
 10
2894.1398761747941535
 20
76.5125172907801954
 30
0.0
 11
2894.1424862801650306
 21
76.5176775767848909
 31
0.0
  0
LINE
  5
31FD2
  8
0
 10
2894.1439931422428344
 20
76.5206567052803024
 30
0.0
 11
2894.1483319319559087
 21
76.5292346715496734
 31
0.0
  0
LINE
  5
31FD3
  8
0
 10
2894.1073865913349437
 20
76.5164595748447454
 30
0.0
 11
2894.1096988865829189
 21
76.5197618746913975
 31
0.0
  0
LINE
  5
31FD4
  8
0
 10
2894.1111442700362204
 20
76.5218260961881356
 30
0.0
 11
2894.1158434608469179
 21
76.5285372361740599
 31
0.0
  0
LINE
  5
31FD5
  8
0
 10
2894.1183052649298588
 20
76.532053056765676
 30
0.0
 11
2894.1255532493269129
 21
76.5424042512279641
 31
0.0
  0
LINE
  5
31FD6
  8
0
 10
2894.0799679101419315
 20
76.5258371930721353
 30
0.0
 11
2894.0832695320132188
 21
76.5307512553497702
 31
0.0
  0
LINE
  5
31FD7
  8
0
 10
2894.0851312820750536
 20
76.5335222437028619
 30
0.0
 11
2894.0907129480588083
 21
76.5418298741121248
 31
0.0
  0
LINE
  5
31FD8
  8
0
 10
2894.0936349389580755
 20
76.5461789018958711
 30
0.0
 11
2894.1016179420230401
 21
76.5580606302575148
 31
0.0
  0
LINE
  5
31FD9
  8
0
 10
2891.889511414295157
 20
91.5178958089367995
 30
0.0
 11
2892.1719376456421742
 21
92.0094454770144807
 31
0.0
  0
ARC
  5
31FDA
  8
0
 10
2892.2231117887599794
 20
91.9799386924919702
 30
0.0
 40
0.0590715096868508
 50
76.882124709061813
 51
150.0324411529342967
  0
ARC
  5
31FDB
  8
0
 10
2889.4219266383038303
 20
80.5363424914378641
 30
0.0
 40
11.84051603099606
 50
74.8957061261580179
 51
76.2486624421032673
  0
ARC
  5
31FDC
  8
0
 10
2890.2150982115699662
 20
83.1891389264444712
 30
0.0
 40
9.0729892900128863
 50
66.2092977126536653
 51
75.3662571845168259
  0
ARC
  5
31FDD
  8
0
 10
2889.4858264312269966
 20
81.5349314845845043
 30
0.0
 40
10.8808166020946899
 50
55.1389236586597988
 51
66.2092977126536653
  0
ARC
  5
31FDE
  8
0
 10
2890.3070733163340265
 20
82.7138672685842238
 30
0.0
 40
9.4440368593737372
 50
46.1987474946574181
 51
55.1389236586597988
  0
ARC
  5
31FDF
  8
0
 10
2892.4112033373880877
 20
84.9079377541172562
 30
0.0
 40
6.4040848135372501
 50
28.7969340567724892
 51
46.1987474946574181
  0
ARC
  5
31FE0
  8
0
 10
2889.7315812014539915
 20
83.2038598170804846
 30
0.0
 40
9.5753330349397796
 50
18.9458674096448512
 51
30.0089998817363188
  0
ARC
  5
31FE1
  8
0
 10
2898.732324476850863
 20
86.2935491533344674
 30
0.0
 40
0.0590543663274951
 50
307.4554801737938874
 51
18.9515089172167883
  0
LINE
  5
31FE2
  8
0
 10
2898.7682380824039683
 20
86.2466702548990725
 30
0.0
 11
2898.7188862719199278
 21
86.2104852607463386
 31
0.0
  0
LINE
  5
31FE3
  8
0
 10
2898.7188862719199278
 20
86.2104852607463386
 30
0.0
 11
2897.8755149964349584
 21
85.9244260835380373
 31
0.0
  0
LINE
  5
31FE4
  8
0
 10
2897.8755149964349584
 20
85.9244260835380373
 30
0.0
 11
2897.8004330945977927
 21
85.922126688396034
 31
0.0
  0
ARC
  5
31FE5
  8
0
 10
2897.8025253594341848
 20
85.9827450512529197
 30
0.0
 40
0.0606544597502595
 50
205.5884109870318071
 51
268.0232000807797021
  0
ARC
  5
31FE6
  8
0
 10
2901.0644535913211257
 20
87.4701815221993115
 30
0.0
 40
3.6457022569401341
 50
196.5748626868528959
 51
204.530836795524209
  0
ARC
  5
31FE7
  8
0
 10
2890.6720138282780681
 20
83.8267015454735116
 30
0.0
 40
7.3731674389415387
 50
20.6771484502251113
 51
30.4826697779784404
  0
ARC
  5
31FE8
  8
0
 10
2890.7363589303758999
 20
83.8582154799890986
 30
0.0
 40
7.301731688695817
 50
30.5256916528400915
 51
44.7305871578861627
  0
ARC
  5
31FE9
  8
0
 10
2891.3657254371241834
 20
84.5497300892005086
 30
0.0
 40
6.3681281063896229
 50
44.2956849015054104
 51
56.2109668796355706
  0
ARC
  5
31FEA
  8
0
 10
2891.9406870918151071
 20
91.4883773560541869
 30
0.0
 40
0.0590786632974425
 50
149.9997763269853124
 51
242.1735775856004977
  0
ARC
  5
31FEB
  8
0
 10
2827.8500995818881165
 20
-29.934478256769431
 30
0.0
 40
137.2402777537674012
 50
61.8248547169876232
 51
62.1735775856005333
  0
ARC
  5
31FEC
  8
0
 10
2964.8017936431288035
 20
225.7456131636675991
 30
0.0
 40
152.8081245086941919
 50
241.8248547169876019
 51
242.1735775856004977
  0
ARC
  5
31FED
  8
0
 10
2822.4903313558352238
 20
-43.8706410902523132
 30
0.0
 40
152.0614818089283062
 50
61.8248547169879998
 51
62.1735775856005333
  0
ARC
  5
31FEE
  8
0
 10
2935.3726624410928707
 20
166.8734824451962879
 30
0.0
 40
87.0106961540585786
 50
241.8248547169876019
 51
242.1833301902283893
  0
ARC
  5
31FEF
  8
0
 10
2892.1203724165438871
 20
84.8960357146076205
 30
0.0
 40
5.677287775004344
 50
60.601159264370601
 51
62.1833301902284035
  0
LINE
  5
31FF0
  8
0
 10
2894.9014317493979433
 20
89.8455109865284953
 30
0.0
 11
2894.8997097293090519
 21
89.8419803222404312
 31
0.0
  0
ARC
  5
31FF1
  8
0
 10
2894.8820169326590985
 20
89.8506096760344803
 30
0.0
 40
0.0196850400097466
 50
277.7272329507911195
 51
333.999999253882379
  0
ARC
  5
31FF2
  8
0
 10
2894.8785737923421948
 20
89.8759848498658869
 30
0.0
 40
0.0452927470959697
 50
262.9513800936716166
 51
277.7272329507911195
  0
ARC
  5
31FF3
  8
0
 10
2895.3778729533528349
 20
93.9141185068607172
 30
0.0
 40
4.1141774940432114
 50
260.100317795009687
 51
262.9513800936716166
  0
LINE
  5
31FF4
  8
0
 10
2894.7233980700698339
 20
89.8523308364323299
 30
0.0
 11
2894.6880391793752096
 21
89.8000512212997961
 31
0.0
  0
ARC
  5
31FF5
  8
0
 10
2894.6717105693242047
 20
89.8110949433416437
 30
0.0
 40
0.0197126178553143
 50
242.07213405490009
 51
325.9278661522636753
  0
LINE
  5
31FF6
  8
0
 10
2894.6624779758949444
 20
89.7936780974367963
 30
0.0
 11
2894.5218318537167761
 21
89.8682339883608563
 31
0.0
  0
ARC
  5
31FF7
  8
0
 10
2894.5316532938459204
 20
89.8858562419332117
 30
0.0
 40
0.0201743527080251
 50
184.220756367758014
 51
240.8676912975166999
  0
ARC
  5
31FF8
  8
0
 10
2894.5017322203088952
 20
89.9014428177543152
 30
0.0
 40
0.0196850393207413
 50
241.9999952506211969
 51
299.8620179969657897
  0
ARC
  5
31FF9
  8
0
 10
2894.5017322202038486
 20
89.9014428179358731
 30
0.0
 40
0.0196850395300834
 50
299.8620179969649939
 51
325.999999896150598
  0
LINE
  5
31FFA
  8
0
 10
2894.518051857572118
 20
89.8904350834965129
 30
0.0
 11
2894.5510593824551506
 21
89.9393707513641516
 31
0.0
  0
ARC
  5
31FFB
  8
0
 10
2894.4104028571700837
 20
89.6871989195642243
 30
0.0
 40
0.288808736942338
 50
60.8473626419131435
 51
82.0049196572337422
  0
ARC
  5
31FFC
  8
0
 10
2894.4181898474471382
 20
89.742640775549404
 30
0.0
 40
0.232822697498065
 50
82.0049196572337422
 51
96.5662950277776844
  0
LINE
  5
31FFD
  8
0
 10
2894.3915659278950443
 20
89.9739362043367947
 30
0.0
 11
2894.3861618093042125
 21
89.9605622661317028
 31
0.0
  0
ARC
  5
31FFE
  8
0
 10
2894.4044134599857898
 20
89.9531881206147972
 30
0.0
 40
0.0196850393731044
 50
158.0000001837645982
 51
242.0000046386014105
  0
LINE
  5
31FFF
  8
0
 10
2894.3951718951939256
 20
89.9358072617367981
 30
0.0
 11
2894.4924906526948689
 21
89.8840619604367959
 31
0.0
  0
LINE
  5
32000
  8
0
 10
2894.4605989889910234
 20
89.9010126553251752
 30
0.0
 11
2894.273915715694784
 21
89.9461357127368046
 31
0.0
  0
LINE
  5
32001
  8
0
 10
2894.3405713992929122
 20
89.9300244233603507
 30
0.0
 11
2894.3097422163741612
 21
89.8852520264997707
 31
0.0
  0
ARC
  5
32002
  8
0
 10
2894.2933352462528092
 20
89.896549466853557
 30
0.0
 40
0.0199203621234781
 50
248.1015674258827062
 51
325.44964777336412
  0
ARC
  5
32003
  8
0
 10
2933.6516063976741862
 20
164.195714963320512
 30
0.0
 40
84.0997697678833447
 50
241.9699834026463066
 51
242.0900465811890001
  0
ARC
  5
32004
  8
0
 10
2894.1428169023911323
 20
89.9793078989763302
 30
0.0
 40
0.0224316996017118
 50
164.0415374420491048
 51
235.9584625579593933
  0
LINE
  5
32005
  8
0
 10
2894.1212496919861223
 20
89.9854752794876873
 30
0.0
 11
2894.1274806592041386
 21
90.0008974642540664
 31
0.0
  0
ARC
  5
32006
  8
0
 10
2894.1111259891699774
 20
89.7262067912572547
 30
0.0
 40
0.2751771085260708
 50
73.5718564949784479
 51
86.5927176407747083
  0
ARC
  5
32007
  8
0
 10
2893.8796943449378887
 20
88.9412931761605705
 30
0.0
 40
1.0934985546070961
 50
68.4145729902074464
 51
73.5718564949784479
  0
LINE
  5
32008
  8
0
 10
2894.281979401594981
 20
89.9581047723367959
 30
0.0
 11
2894.253139740268125
 21
89.9153480968908667
 31
0.0
  0
ARC
  5
32009
  8
0
 10
2894.2363136270569157
 20
89.9275964916025288
 30
0.0
 40
0.0208120460031499
 50
251.505533173970889
 51
323.9476424803600025
  0
ARC
  5
3200A
  8
0
 10
2894.3003718325599039
 20
90.0100178524135544
 30
0.0
 40
0.0196850393207413
 50
241.9999952506211969
 51
299.8620179969657897
  0
ARC
  5
3200B
  8
0
 10
2894.3003718324562215
 20
90.0100178525950838
 30
0.0
 40
0.0196850395300834
 50
299.8620179969649939
 51
325.999999896150598
  0
LINE
  5
3200C
  8
0
 10
2894.3166914698240362
 20
89.9990101181557236
 30
0.0
 11
2894.3496989947070688
 21
90.0479457860233623
 31
0.0
  0
ARC
  5
3200D
  8
0
 10
2894.2090424694220019
 20
89.795773954223435
 30
0.0
 40
0.288808736942338
 50
60.8473626419131435
 51
82.0049196572337422
  0
ARC
  5
3200E
  8
0
 10
2894.2168294596990563
 20
89.8512158102086147
 30
0.0
 40
0.232822697498065
 50
82.0049196572337422
 51
96.5662950277776844
  0
LINE
  5
3200F
  8
0
 10
2894.190205540146053
 20
90.0825112389960054
 30
0.0
 11
2894.1848014215561307
 21
90.0691373007909135
 31
0.0
  0
ARC
  5
32010
  8
0
 10
2894.2030530722367985
 20
90.0617631552740079
 30
0.0
 40
0.0196850393731044
 50
158.0000001837645982
 51
242.0000046386014105
  0
LINE
  5
32011
  8
0
 10
2894.193811507447208
 20
90.0443822963960088
 30
0.0
 11
2894.2911302649458776
 21
89.9926369950960066
 31
0.0
  0
ARC
  5
32012
  8
0
 10
2894.0730781401061904
 20
90.013630852215897
 30
0.0
 40
0.0196850393207413
 50
241.9999952506211969
 51
299.8620179969657897
  0
ARC
  5
32013
  8
0
 10
2894.0730781400020533
 20
90.0136308523974549
 30
0.0
 40
0.0196850395300834
 50
299.8620179969649939
 51
325.999999896150598
  0
LINE
  5
32014
  8
0
 10
2894.0893977773689585
 20
90.0026231179581089
 30
0.0
 11
2894.1224053022519911
 21
90.0515587858257334
 31
0.0
  0
ARC
  5
32015
  8
0
 10
2893.9817487769669242
 20
89.7993869540258203
 30
0.0
 40
0.288808736942338
 50
60.8473626419131435
 51
82.0049196572337422
  0
ARC
  5
32016
  8
0
 10
2893.9895357672439786
 20
89.8548288100109858
 30
0.0
 40
0.232822697498065
 50
82.0049196572337422
 51
96.5662950277776844
  0
LINE
  5
32017
  8
0
 10
2893.9629118476909753
 20
90.0861242387983765
 30
0.0
 11
2893.957507729101053
 21
90.0727503005932846
 31
0.0
  0
ARC
  5
32018
  8
0
 10
2893.9757593797821755
 20
90.0653761550763647
 30
0.0
 40
0.0196850393731044
 50
158.0000001837645982
 51
242.0000046386014105
  0
LINE
  5
32019
  8
0
 10
2893.9665178149912208
 20
90.0479952961983656
 30
0.0
 11
2894.0638365724907999
 21
89.9962499948983634
 31
0.0
  0
ARC
  5
3201A
  8
0
 10
2894.0381148362180284
 20
90.1474676228187235
 30
0.0
 40
0.0196850393207413
 50
241.9999952506211969
 51
299.8620179969657897
  0
ARC
  5
3201B
  8
0
 10
2894.0381148361138912
 20
90.1474676230002956
 30
0.0
 40
0.0196850395300834
 50
299.8620179969649939
 51
325.999999896150598
  0
LINE
  5
3201C
  8
0
 10
2894.0544344734821607
 20
90.1364598885609638
 30
0.0
 11
2894.087441998363829
 21
90.1853955564285741
 31
0.0
  0
ARC
  5
3201D
  8
0
 10
2893.9467854730792169
 20
89.933223724628661
 30
0.0
 40
0.288808736942338
 50
60.8473626419131435
 51
82.0049196572337422
  0
ARC
  5
3201E
  8
0
 10
2893.9545724633571808
 20
89.9886655806138265
 30
0.0
 40
0.232822697498065
 50
82.0049196572337422
 51
96.5662950277776844
  0
LINE
  5
3201F
  8
0
 10
2893.9279485438041775
 20
90.219961009401203
 30
0.0
 11
2893.9225444252138004
 21
90.2065870711961253
 31
0.0
  0
ARC
  5
32020
  8
0
 10
2893.940796075894923
 20
90.1992129256792055
 30
0.0
 40
0.0196850393731044
 50
158.0000001837645982
 51
242.0000046386014105
  0
LINE
  5
32021
  8
0
 10
2893.9315545111039683
 20
90.1818320668012205
 30
0.0
 11
2894.0288732686040021
 21
90.1300867655012041
 31
0.0
  0
ARC
  5
32022
  8
0
 10
2893.8264919657822247
 20
90.1456080813198923
 30
0.0
 40
0.0196850393207413
 50
241.9999952506211969
 51
299.8620179969657897
  0
ARC
  5
32023
  8
0
 10
2893.8264919656780876
 20
90.145608081501436
 30
0.0
 40
0.0196850395300834
 50
299.8620179969649939
 51
325.999999896150598
  0
LINE
  5
32024
  8
0
 10
2893.8428116030459023
 20
90.13460034706209
 30
0.0
 11
2893.8758191279289349
 21
90.1835360149297145
 31
0.0
  0
ARC
  5
32025
  8
0
 10
2893.735162602643868
 20
89.9313641831298014
 30
0.0
 40
0.288808736942338
 50
60.8473626419131435
 51
82.0049196572337422
  0
ARC
  5
32026
  8
0
 10
2893.7429495929209224
 20
89.9868060391149811
 30
0.0
 40
0.232822697498065
 50
82.0049196572337422
 51
96.5662950277776844
  0
LINE
  5
32027
  8
0
 10
2893.7163256733688286
 20
90.2181014679023434
 30
0.0
 11
2893.7109215547779968
 21
90.2047275296972657
 31
0.0
  0
ARC
  5
32028
  8
0
 10
2893.7291732054591193
 20
90.1973533841803459
 30
0.0
 40
0.0196850393731044
 50
158.0000001837645982
 51
242.0000046386014105
  0
LINE
  5
32029
  8
0
 10
2893.7199316406690741
 20
90.179972525302361
 30
0.0
 11
2893.8172503981681984
 21
90.1282272240023445
 31
0.0
  0
LINE
  5
3202A
  8
0
 10
2893.7416752235949389
 20
90.0866384747367874
 30
0.0
 11
2893.9187580585571595
 21
89.9924818611559942
 31
0.0
  0
ARC
  5
3202B
  8
0
 10
2893.9290767022239379
 20
90.0118884073778247
 30
0.0
 40
0.0219792730405407
 50
241.9999999883272039
 51
320.580012292471622
  0
LINE
  5
3202C
  8
0
 10
2893.9460559565950462
 20
89.9979315680367904
 30
0.0
 11
2893.971250686995063
 21
90.0352842919367902
 31
0.0
  0
ARC
  5
3202D
  8
0
 10
2894.4419307804228083
 20
91.4231317331657749
 30
0.0
 40
1.4654897715374631
 50
251.2659431046195948
 51
253.2428878355561892
  0
ARC
  5
3202E
  8
0
 10
2895.2035837156809066
 20
93.668941814365013
 30
0.0
 40
3.8369404066136159
 50
249.8496219893295915
 51
251.2659431046195948
  0
LINE
  5
3202F
  8
0
 10
2893.8888349959938751
 20
90.0772637565367944
 30
0.0
 11
2893.8645551859681291
 21
90.0412662964899937
 31
0.0
  0
ARC
  5
32030
  8
0
 10
2893.8482146079190898
 20
90.0522877999580942
 30
0.0
 40
0.0197100996867356
 50
244.7521551720300863
 51
326.0008569681767199
  0
ARC
  5
32031
  8
0
 10
2893.7509167880730274
 20
90.1040193334923885
 30
0.0
 40
0.0196850391182117
 50
157.9999995292212134
 51
242.0000052749975055
  0
LINE
  5
32032
  8
0
 10
2893.7326651376861264
 20
90.1113934790876954
 30
0.0
 11
2893.7412659964620616
 21
90.1326813510689533
 31
0.0
  0
ARC
  5
32033
  8
0
 10
2893.6754543827109956
 20
89.7655719095463951
 30
0.0
 40
0.3729616446340413
 50
67.1622978347435833
 51
79.8364752034137126
  0
ARC
  5
32034
  8
0
 10
2893.4345640105998427
 20
89.1935702741179739
 30
0.0
 40
0.9936177831749841
 50
62.7941417409721225
 51
67.1622978347435833
  0
LINE
  5
32035
  8
0
 10
2893.5190109756981656
 20
90.2050311554349236
 30
0.0
 11
2893.61632973429505
 21
90.1532858535368007
 31
0.0
  0
ARC
  5
32036
  8
0
 10
2893.625571301448872
 20
90.1706667134391751
 30
0.0
 40
0.019685041386949
 50
241.9999999656681098
 51
325.9999949494682028
  0
LINE
  5
32037
  8
0
 10
2893.6418909394060393
 20
90.1596589765525351
 30
0.0
 11
2893.6636970933141129
 21
90.191987923063877
 31
0.0
  0
ARC
  5
32038
  8
0
 10
2893.4398215052588057
 20
89.8769825731558285
 30
0.0
 40
0.3864561721982364
 50
54.5984356388735321
 51
77.9978196105984836
  0
LINE
  5
32039
  8
0
 10
2893.5201846465952258
 20
90.2549906928367989
 30
0.0
 11
2893.5100008912340854
 21
90.2297861591331554
 31
0.0
  0
ARC
  5
3203A
  8
0
 10
2893.5282525416378121
 20
90.2224120134220868
 30
0.0
 40
0.0196850391781336
 50
157.9999995388052128
 51
242.0000005034397077
  0
LINE
  5
3203B
  8
0
 10
2893.4112762482968719
 20
90.3430105990358641
 30
0.0
 11
2893.5085950068928469
 21
90.291265297137727
 31
0.0
  0
ARC
  5
3203C
  8
0
 10
2893.5178365740462141
 20
90.3086461570401298
 30
0.0
 40
0.019685041386949
 50
241.9999999656681098
 51
325.9999949494682028
  0
LINE
  5
3203D
  8
0
 10
2893.5341562120038361
 20
90.2976384201534756
 30
0.0
 11
2893.5559623659119097
 21
90.3299673666648317
 31
0.0
  0
ARC
  5
3203E
  8
0
 10
2893.3320867778570573
 20
90.0149620167567832
 30
0.0
 40
0.3864561721982364
 50
54.5984356388735321
 51
77.9978196105984836
  0
LINE
  5
3203F
  8
0
 10
2893.4124499191930227
 20
90.3929701364377252
 30
0.0
 11
2893.4022661638318823
 21
90.3677656027340674
 31
0.0
  0
ARC
  5
32040
  8
0
 10
2893.4205178142360637
 20
90.3603914570230415
 30
0.0
 40
0.0196850391781336
 50
157.9999995388052128
 51
242.0000005034397077
  0
LINE
  5
32041
  8
0
 10
2893.6247468617461891
 20
90.3454495184358564
 30
0.0
 11
2893.7220656203430735
 21
90.2937042165377335
 31
0.0
  0
ARC
  5
32042
  8
0
 10
2893.7313071874968955
 20
90.3110850764401079
 30
0.0
 40
0.019685041386949
 50
241.9999999656681098
 51
325.9999949494682028
  0
LINE
  5
32043
  8
0
 10
2893.7476268254531533
 20
90.3000773395534679
 30
0.0
 11
2893.7694329793621364
 21
90.332406286064824
 31
0.0
  0
ARC
  5
32044
  8
0
 10
2893.5455573913068292
 20
90.0174009361567755
 30
0.0
 40
0.3864561721982364
 50
54.5984356388735321
 51
77.9978196105984836
  0
LINE
  5
32045
  8
0
 10
2893.6259205326427946
 20
90.3954090558377317
 30
0.0
 11
2893.615736777282109
 21
90.3702045221340882
 31
0.0
  0
ARC
  5
32046
  8
0
 10
2893.6339884276858356
 20
90.3628303764230338
 30
0.0
 40
0.0196850391781336
 50
157.9999995388052128
 51
242.0000005034397077
  0
LINE
  5
32047
  8
0
 10
2893.2963565731970448
 20
90.5200577321358537
 30
0.0
 11
2893.3936753317930197
 21
90.4683124302377166
 31
0.0
  0
ARC
  5
32048
  8
0
 10
2893.4029168989468417
 20
90.4856932901401336
 30
0.0
 40
0.019685041386949
 50
241.9999999656681098
 51
325.9999949494682028
  0
LINE
  5
32049
  8
0
 10
2893.4192365369030995
 20
90.4746855532534653
 30
0.0
 11
2893.4410426908120826
 21
90.5070144997648356
 31
0.0
  0
ARC
  5
3204A
  8
0
 10
2893.2171671027567754
 20
90.1920091498567729
 30
0.0
 40
0.3864561721982364
 50
54.5984356388735321
 51
77.9978196105984836
  0
LINE
  5
3204B
  8
0
 10
2893.2975302440918313
 20
90.570017269537729
 30
0.0
 11
2893.2873464887320551
 21
90.5448127358340855
 31
0.0
  0
ARC
  5
3204C
  8
0
 10
2893.3055981391357818
 20
90.5374385901230312
 30
0.0
 40
0.0196850391781336
 50
157.9999995388052128
 51
242.0000005034397077
  0
LINE
  5
3204D
  8
0
 10
2893.2224796330528989
 20
90.3626996670991787
 30
0.0
 11
2893.3197983916497833
 21
90.3109543652010558
 31
0.0
  0
ARC
  5
3204E
  8
0
 10
2893.32903995880406
 20
90.3283352251034444
 30
0.0
 40
0.019685041386949
 50
241.9999999656681098
 51
325.9999949494682028
  0
LINE
  5
3204F
  8
0
 10
2893.3453595967598631
 20
90.3173274882168045
 30
0.0
 11
2893.3671657506688462
 21
90.3496564347281605
 31
0.0
  0
ARC
  5
32050
  8
0
 10
2893.1432901626139937
 20
90.0346510848200836
 30
0.0
 40
0.3864561721982364
 50
54.5984356388735321
 51
77.9978196105984836
  0
LINE
  5
32051
  8
0
 10
2893.2236533039499591
 20
90.412659204501054
 30
0.0
 11
2893.2134695485888187
 21
90.3874546707973963
 31
0.0
  0
ARC
  5
32052
  8
0
 10
2893.2317211989930001
 20
90.3800805250863561
 30
0.0
 40
0.0196850391781336
 50
157.9999995388052128
 51
242.0000005034397077
  0
LINE
  5
32053
  8
0
 10
2893.3355945232460726
 20
90.2584119347858689
 30
0.0
 11
2893.4329132818429571
 21
90.2066666328877318
 31
0.0
  0
ARC
  5
32054
  8
0
 10
2893.442154848996779
 20
90.2240474927901346
 30
0.0
 40
0.019685041386949
 50
241.9999999656681098
 51
325.9999949494682028
  0
LINE
  5
32055
  8
0
 10
2893.4584744869530368
 20
90.2130397559034662
 30
0.0
 11
2893.4802806408620199
 21
90.2453687024148081
 31
0.0
  0
ARC
  5
32056
  8
0
 10
2893.2564050528071675
 20
89.9303633525067738
 30
0.0
 40
0.3864561721982364
 50
54.5984356388735321
 51
77.9978196105984836
  0
LINE
  5
32057
  8
0
 10
2893.3367681941431329
 20
90.3083714721877442
 30
0.0
 11
2893.3265844387819925
 21
90.2831669384840865
 31
0.0
  0
ARC
  5
32058
  8
0
 10
2893.3448360891861739
 20
90.2757927927730179
 30
0.0
 40
0.0196850391781336
 50
157.9999995388052128
 51
242.0000005034397077
  0
LINE
  5
32059
  8
0
 10
2893.4746413882958223
 20
90.1844794052358623
 30
0.0
 11
2893.5719601468931614
 21
90.1327341033377252
 31
0.0
  0
ARC
  5
3205A
  8
0
 10
2893.5812017140469834
 20
90.1501149632401138
 30
0.0
 40
0.019685041386949
 50
241.9999999656681098
 51
325.9999949494682028
  0
LINE
  5
3205B
  8
0
 10
2893.5975213520027864
 20
90.1391072263534738
 30
0.0
 11
2893.6095253137500549
 21
90.1569038281225659
 31
0.0
  0
LINE
  5
3205C
  8
0
 10
2893.6193273059038802
 20
90.1714358763400554
 30
0.0
 11
2893.6193275059122243
 21
90.1714361728648441
 31
0.0
  0
ARC
  5
3205D
  8
0
 10
2893.3954519178569171
 20
89.8564308229567956
 30
0.0
 40
0.3864561721982364
 50
72.9329333819605523
 51
77.9978196105984836
  0
LINE
  5
3205E
  8
0
 10
2893.4758150591928825
 20
90.2344389426377234
 30
0.0
 11
2893.4656313038321969
 21
90.2092344089340799
 31
0.0
  0
ARC
  5
3205F
  8
0
 10
2893.4838829542359235
 20
90.2018602632230539
 30
0.0
 40
0.0196850391781336
 50
157.9999995388052128
 51
242.0000005034397077
  0
LINE
  5
32060
  8
0
 10
2893.1918939556549049
 20
90.3779718405409369
 30
0.0
 11
2893.3342955435441581
 21
90.3022555731764385
 31
0.0
  0
LINE
  5
32061
  8
0
 10
2893.472937156934222
 20
90.2344770294581053
 30
0.0
 11
2893.4754240329389177
 21
90.2334722663297981
 31
0.0
  0
LINE
  5
32062
  8
0
 10
2894.0854675515620329
 20
89.9983336872194428
 30
0.0
 11
2894.1221096608492189
 21
89.9876037768006967
 31
0.0
  0
ARC
  5
32063
  8
0
 10
2821.5726615993530686
 20
-43.3827061057071006
 30
0.0
 40
152.0614818089283062
 50
61.8262939248052419
 51
62.1750167933931408
  0
ARC
  5
32064
  8
0
 10
2933.1649338816041563
 20
168.0473557181732929
 30
0.0
 40
87.0106961540585786
 50
241.8165413201654985
 51
242.1750167933930982
  0
LINE
  5
32065
  8
0
 10
2892.0421133235581692
 20
91.2779990815819957
 30
0.0
 11
2892.0185438677881393
 21
91.2194508957489347
 31
0.0
  0
ARC
  5
32066
  8
0
 10
2892.0368303546561037
 20
91.2120893944947539
 30
0.0
 40
0.0197126178553143
 50
158.0720053581304967
 51
241.9277374554972084
  0
LINE
  5
32067
  8
0
 10
2892.0275538967262037
 20
91.1946958718216649
 30
0.0
 11
2892.1680116769898632
 21
91.119785762232425
 31
0.0
  0
ARC
  5
32068
  8
0
 10
2892.1771291480499713
 20
91.1377823238107965
 30
0.0
 40
0.0201743527080251
 50
243.1321802128722993
 51
299.7791151426254146
  0
ARC
  5
32069
  8
0
 10
2892.2067826209367922
 20
91.1216924657257721
 30
0.0
 40
0.0196850393207413
 50
184.1378535134174967
 51
241.9998762597741973
  0
ARC
  5
3206A
  8
0
 10
2892.206782621145976
 20
91.1216924657408782
 30
0.0
 40
0.0196850395300834
 50
157.9998716142445119
 51
184.1378535134199126
  0
LINE
  5
3206B
  8
0
 10
2892.1885309868412151
 20
91.1290666522379382
 30
0.0
 11
2892.2106430431990702
 21
91.1837955591536655
 31
0.0
  0
ARC
  5
3206C
  8
0
 10
2892.0802366729280948
 20
90.9261736085135652
 30
0.0
 40
0.288808736942338
 50
41.9949518531632222
 51
63.1525088684818385
  0
ARC
  5
3206D
  8
0
 10
2892.1218457089330514
 20
90.9636319151416188
 30
0.0
 40
0.232822697498065
 50
27.4335764826191308
 51
41.9949518531626182
  0
LINE
  5
3206E
  8
0
 10
2892.3284864571860453
 20
91.0708979844817463
 30
0.0
 11
2892.3204208778670363
 21
91.0589391738755722
 31
0.0
  0
ARC
  5
3206F
  8
0
 10
2892.3041012653170583
 20
91.0699469448071284
 30
0.0
 40
0.0196850393731044
 50
241.9998668717852013
 51
325.9998713266302275
  0
LINE
  5
32070
  8
0
 10
2892.2948596587339125
 20
91.052566108150387
 30
0.0
 11
2892.197541017227195
 21
91.1043116276010068
 31
0.0
  0
LINE
  5
32071
  8
0
 10
2892.2294273341581174
 20
91.0873508769226277
 30
0.0
 11
2892.3712277152731076
 21
90.957815604682736
 31
0.0
  0
LINE
  5
32072
  8
0
 10
2892.3205975695141206
 20
91.0040664656666252
 30
0.0
 11
2892.3007189171480604
 21
90.9534715526792752
 31
0.0
  0
ARC
  5
32073
  8
0
 10
2892.3192595646000882
 20
90.9461869648909413
 30
0.0
 40
0.0199203621234781
 50
158.5502237370342868
 51
235.8983040845160133
  0
ARC
  5
32074
  8
0
 10
2931.9073597967881142
 20
165.1231498408835989
 30
0.0
 40
84.0997697678833447
 50
241.9098249292090088
 51
242.0298881077567899
  0
ARC
  5
32075
  8
0
 10
2892.4720380279459278
 20
90.8676791878006327
 30
0.0
 40
0.0224316996017118
 50
248.0414089524421115
 51
319.9583340683403776
  0
LINE
  5
32076
  8
0
 10
2892.4892112167572122
 20
90.8532478769426746
 30
0.0
 11
2892.4985125056541619
 21
90.8670375382977937
 31
0.0
  0
ARC
  5
32077
  8
0
 10
2892.2799286574550024
 20
90.6998743175520588
 30
0.0
 40
0.2751771085260708
 50
37.407153869615712
 51
50.4280150154117166
  0
ARC
  5
32078
  8
0
 10
2891.7586192978501458
 20
90.0690918346752198
 30
0.0
 40
1.0934985546070961
 50
50.4280150154117166
 51
55.5852985201837626
  0
LINE
  5
32079
  8
0
 10
2892.3766413894600191
 20
90.971193704316164
 30
0.0
 11
2892.3573213257541283
 21
90.9233753553380382
 31
0.0
  0
ARC
  5
3207A
  8
0
 10
2892.3768847323522095
 20
90.9162750468146328
 30
0.0
 40
0.0208120460031499
 50
160.0522290300411896
 51
232.4943383364235956
  0
ARC
  5
3207B
  8
0
 10
2892.4093944657720385
 20
91.0154710731628711
 30
0.0
 40
0.0196850393207413
 50
184.1378535134174967
 51
241.9998762597741973
  0
ARC
  5
3207C
  8
0
 10
2892.4093944659812223
 20
91.015471073177963
 30
0.0
 40
0.0196850395300834
 50
157.9998716142445119
 51
184.1378535134199126
  0
LINE
  5
3207D
  8
0
 10
2892.3911428316760066
 20
91.0228452596750515
 30
0.0
 11
2892.4132548880338618
 21
91.0775741665907645
 31
0.0
  0
ARC
  5
3207E
  8
0
 10
2892.2828485177628863
 20
90.8199522159506643
 30
0.0
 40
0.288808736942338
 50
41.9949518531632222
 51
63.1525088684818385
  0
ARC
  5
3207F
  8
0
 10
2892.3244575537678429
 20
90.8574105225787036
 30
0.0
 40
0.232822697498065
 50
27.4335764826191308
 51
41.9949518531626182
  0
LINE
  5
32080
  8
0
 10
2892.5310983020208369
 20
90.9646765919188454
 30
0.0
 11
2892.5230327227031921
 21
90.9527177813126855
 31
0.0
  0
ARC
  5
32081
  8
0
 10
2892.5067131101509403
 20
90.9637255522442274
 30
0.0
 40
0.0196850393731044
 50
241.9998668717852013
 51
325.9998713266302275
  0
LINE
  5
32082
  8
0
 10
2892.4974715035691588
 20
90.9463447155874576
 30
0.0
 11
2892.400152862061077
 21
90.9980902350381058
 31
0.0
  0
ARC
  5
32083
  8
0
 10
2892.5394903801347937
 20
90.8290561342132463
 30
0.0
 40
0.0196850393207413
 50
184.1378535134174967
 51
241.9998762597741973
  0
ARC
  5
32084
  8
0
 10
2892.539490380343068
 20
90.8290561342283667
 30
0.0
 40
0.0196850395300834
 50
157.9998716142445119
 51
184.1378535134199126
  0
LINE
  5
32085
  8
0
 10
2892.5212387460378523
 20
90.8364303207254267
 30
0.0
 11
2892.5433508023961622
 21
90.8911592276411255
 31
0.0
  0
ARC
  5
32086
  8
0
 10
2892.4129444321270057
 20
90.6335372770010252
 30
0.0
 40
0.288808736942338
 50
41.9949518531632222
 51
63.1525088684818385
  0
ARC
  5
32087
  8
0
 10
2892.4545534681301433
 20
90.6709955836290931
 30
0.0
 40
0.232822697498065
 50
27.4335764826191308
 51
41.9949518531626182
  0
LINE
  5
32088
  8
0
 10
2892.6611942163831372
 20
90.7782616529692064
 30
0.0
 11
2892.6531286370650378
 21
90.7663028423630465
 31
0.0
  0
ARC
  5
32089
  8
0
 10
2892.6368090245141502
 20
90.7773106132945742
 30
0.0
 40
0.0196850393731044
 50
241.9998668717852013
 51
325.9998713266302275
  0
LINE
  5
3208A
  8
0
 10
2892.627567417931914
 20
90.759929776637847
 30
0.0
 11
2892.5302487764238322
 21
90.811675296088481
 31
0.0
  0
ARC
  5
3208B
  8
0
 10
2892.6699974258021939
 20
90.8749105213038746
 30
0.0
 40
0.0196850393207413
 50
184.1378535134174967
 51
241.9998762597741973
  0
ARC
  5
3208C
  8
0
 10
2892.6699974260109229
 20
90.8749105213189807
 30
0.0
 40
0.0196850395300834
 50
157.9998716142445119
 51
184.1378535134199126
  0
LINE
  5
3208D
  8
0
 10
2892.651745791706162
 20
90.8822847078160407
 30
0.0
 11
2892.6738578480631077
 21
90.9370136147317538
 31
0.0
  0
ARC
  5
3208E
  8
0
 10
2892.5434514777930417
 20
90.6793916640916535
 30
0.0
 40
0.288808736942338
 50
41.9949518531632222
 51
63.1525088684818385
  0
ARC
  5
3208F
  8
0
 10
2892.5850605137970888
 20
90.7168499707197213
 30
0.0
 40
0.232822697498065
 50
27.4335764826191308
 51
41.9949518531626182
  0
LINE
  5
32090
  8
0
 10
2892.7917012620500827
 20
90.8241160400598346
 30
0.0
 11
2892.7836356827319833
 21
90.8121572294536747
 31
0.0
  0
ARC
  5
32091
  8
0
 10
2892.7673160701810957
 20
90.8231650003852167
 30
0.0
 40
0.0196850393731044
 50
241.9998668717852013
 51
325.9998713266302275
  0
LINE
  5
32092
  8
0
 10
2892.7580744635979499
 20
90.8057841637284753
 30
0.0
 11
2892.6607558220907777
 21
90.8575296831790951
 31
0.0
  0
ARC
  5
32093
  8
0
 10
2892.7867934076161873
 20
90.6984271061679124
 30
0.0
 40
0.0196850393207413
 50
184.1378535134174967
 51
241.9998762597741973
  0
ARC
  5
32094
  8
0
 10
2892.7867934078240069
 20
90.6984271061830327
 30
0.0
 40
0.0196850395300834
 50
157.9998716142445119
 51
184.1378535134199126
  0
LINE
  5
32095
  8
0
 10
2892.7685417735187912
 20
90.7058012926800927
 30
0.0
 11
2892.7906538298771011
 21
90.7605301995958058
 31
0.0
  0
ARC
  5
32096
  8
0
 10
2892.6602474596070351
 20
90.5029082489557197
 30
0.0
 40
0.288808736942338
 50
41.9949518531632222
 51
63.1525088684818385
  0
ARC
  5
32097
  8
0
 10
2892.7018564956110822
 20
90.5403665555837733
 30
0.0
 40
0.232822697498065
 50
27.4335764826191308
 51
41.9949518531626182
  0
LINE
  5
32098
  8
0
 10
2892.9084972438640762
 20
90.6476326249238866
 30
0.0
 11
2892.9004316645459767
 21
90.6356738143177267
 31
0.0
  0
ARC
  5
32099
  8
0
 10
2892.8841120519950891
 20
90.6466815852492687
 30
0.0
 40
0.0196850393731044
 50
241.9998668717852013
 51
325.9998713266302275
  0
LINE
  5
3209A
  8
0
 10
2892.8748704454119434
 20
90.6293007485925131
 30
0.0
 11
2892.7775518039052258
 21
90.6810462680431613
 31
0.0
  0
LINE
  5
3209B
  8
0
 10
2892.7853340768078851
 20
90.5951354578630514
 30
0.0
 11
2892.6082514529612126
 21
90.6892924684914732
 31
0.0
  0
ARC
  5
3209C
  8
0
 10
2892.6185701401400365
 20
90.7086989915772222
 30
0.0
 40
0.0219792730405407
 50
163.4198592179241132
 51
241.9998715220640122
  0
LINE
  5
3209D
  8
0
 10
2892.5975047314468611
 20
90.7149709131310544
 30
0.0
 11
2892.6143829222360182
 21
90.7567456315428558
 31
0.0
  0
ARC
  5
3209E
  8
0
 10
2893.5017622434102122
 20
91.923029563879652
 30
0.0
 40
1.4654897715374631
 50
230.7569836748533874
 51
232.7339284057833027
  0
ARC
  5
3209F
  8
0
 10
2894.9377164975908272
 20
93.8103063041865255
 30
0.0
 40
3.8369404066136159
 50
232.7339284057837858
 51
234.1502495210696964
  0
LINE
  5
320A0
  8
0
 10
2892.6952716446248814
 20
90.7118943644331353
 30
0.0
 11
2892.6790054049120045
 21
90.6716360019433267
 31
0.0
  0
ARC
  5
320A1
  8
0
 10
2892.6972801641181832
 20
90.6642521543262774
 30
0.0
 40
0.0197100996867356
 50
157.9990145422191858
 51
239.2477163383636878
  0
ARC
  5
320A2
  8
0
 10
2892.7945756834637905
 20
90.6125162941921047
 30
0.0
 40
0.0196850391182117
 50
241.9998662353887937
 51
325.9998719811741239
  0
LINE
  5
320A3
  8
0
 10
2892.8108952959150884
 20
90.6015085235489011
 30
0.0
 11
2892.8237342451211589
 21
90.6205429567802838
 31
0.0
  0
ARC
  5
320A4
  8
0
 10
2892.5561875295170466
 20
90.3606982617633321
 30
0.0
 40
0.3729616446340413
 50
44.1633963069954874
 51
56.8375736756454231
  0
ARC
  5
320A5
  8
0
 10
2892.2166797036211392
 20
89.8411325984789784
 30
0.0
 40
0.9936177831749841
 50
56.8375736756454231
 51
61.205729769418717
  0
LINE
  5
320A6
  8
0
 10
2893.0079980591990534
 20
90.4767422778222965
 30
0.0
 11
2892.9106794165818428
 21
90.5284877978475038
 31
0.0
  0
ARC
  5
320A7
  8
0
 10
2892.9199210226929608
 20
90.5458686370360937
 30
0.0
 40
0.019685041386949
 50
157.9998765609317957
 51
241.9998715447231916
  0
LINE
  5
320A8
  8
0
 10
2892.9016693860289706
 20
90.553242822652976
 30
0.0
 11
2892.9162775319341563
 21
90.5893990282624344
 31
0.0
  0
ARC
  5
320A9
  8
0
 10
2892.7803150901568188
 20
90.2276493028667375
 30
0.0
 40
0.3864561721982364
 50
46.0020518997881922
 51
69.4014358715231481
  0
LINE
  5
320AA
  8
0
 10
2893.0487601492081922
 20
90.5056522224574849
 30
0.0
 11
2893.0335592769570212
 21
90.4831153443399643
 31
0.0
  0
ARC
  5
320AB
  8
0
 10
2893.0172396644011314
 20
90.4941231149332737
 30
0.0
 40
0.0196850391781336
 50
241.9998710069737058
 51
325.9998719715870834
  0
LINE
  5
320AC
  8
0
 10
2893.1826326699360834
 20
90.4645828749939653
 30
0.0
 11
2893.0853140273211466
 21
90.5163283950191584
 31
0.0
  0
ARC
  5
320AD
  8
0
 10
2893.0945556334309003
 20
90.5337092342077483
 30
0.0
 40
0.019685041386949
 50
157.9998765609317957
 51
241.9998715447231916
  0
LINE
  5
320AE
  8
0
 10
2893.0763039967678196
 20
90.5410834198246448
 30
0.0
 11
2893.0909121426711863
 21
90.577239625434089
 31
0.0
  0
ARC
  5
320AF
  8
0
 10
2892.954949700895213
 20
90.2154899000384063
 30
0.0
 40
0.3864561721982364
 50
46.0020518997881922
 51
69.4014358715231481
  0
LINE
  5
320B0
  8
0
 10
2893.2233947599461317
 20
90.4934928196291395
 30
0.0
 11
2893.2081938876949607
 21
90.4709559415116331
 31
0.0
  0
ARC
  5
320B1
  8
0
 10
2893.1918742751381615
 20
90.4819637121049425
 30
0.0
 40
0.0196850391781336
 50
241.9998710069737058
 51
325.9998719715870834
  0
LINE
  5
320B2
  8
0
 10
2893.0652837735519824
 20
90.6429221237641798
 30
0.0
 11
2892.9679651309361361
 21
90.6946676437893728
 31
0.0
  0
ARC
  5
320B3
  8
0
 10
2892.9772067370467994
 20
90.7120484829779627
 30
0.0
 40
0.019685041386949
 50
157.9998765609317957
 51
241.9998715447231916
  0
LINE
  5
320B4
  8
0
 10
2892.9589551003828092
 20
90.719422668594845
 30
0.0
 11
2892.9735632462870853
 21
90.7555788742043035
 31
0.0
  0
ARC
  5
320B5
  8
0
 10
2892.8376008045102026
 20
90.3938291488086207
 30
0.0
 40
0.3864561721982364
 50
46.0020518997881922
 51
69.4014358715231481
  0
LINE
  5
320B6
  8
0
 10
2893.1060458635620307
 20
90.6718320683993539
 30
0.0
 11
2893.0908449913108598
 21
90.6492951902818618
 31
0.0
  0
ARC
  5
320B7
  8
0
 10
2893.0745253787540605
 20
90.6603029608751569
 30
0.0
 40
0.0196850391781336
 50
241.9998710069737058
 51
325.9998719715870834
  0
LINE
  5
320B8
  8
0
 10
2893.3936736705409203
 20
90.468313173646095
 30
0.0
 11
2893.296355027925074
 21
90.5200586936712739
 31
0.0
  0
ARC
  5
320B9
  8
0
 10
2893.305596634036192
 20
90.5374395328598922
 30
0.0
 40
0.019685041386949
 50
157.9998765609317957
 51
241.9998715447231916
  0
LINE
  5
320BA
  8
0
 10
2893.2873449973722018
 20
90.5448137184767745
 30
0.0
 11
2893.3019531432751137
 21
90.5809699240862329
 31
0.0
  0
ARC
  5
320BB
  8
0
 10
2893.1659907014991404
 20
90.219220198690536
 30
0.0
 40
0.3864561721982364
 50
46.0020518997881922
 51
69.4014358715231481
  0
LINE
  5
320BC
  8
0
 10
2893.4344357605500591
 20
90.4972231182812834
 30
0.0
 11
2893.4192348882997976
 21
90.474686240163777
 31
0.0
  0
ARC
  5
320BD
  8
0
 10
2893.4029152757420889
 20
90.4856940107570864
 30
0.0
 40
0.0196850391781336
 50
241.9998710069737058
 51
325.9998719715870834
  0
LINE
  5
320BE
  8
0
 10
2893.3045290482577911
 20
90.3190731011620755
 30
0.0
 11
2893.2072104056419448
 21
90.3708186211872828
 31
0.0
  0
ARC
  5
320BF
  8
0
 10
2893.2164520117521533
 20
90.3881994603758869
 30
0.0
 40
0.019685041386949
 50
157.9998765609317957
 51
241.9998715447231916
  0
LINE
  5
320C0
  8
0
 10
2893.1982003750890726
 20
90.3955736459927692
 30
0.0
 11
2893.212808520992894
 21
90.4317298516022134
 31
0.0
  0
ARC
  5
320C1
  8
0
 10
2893.0768460792160113
 20
90.0699801262065449
 30
0.0
 40
0.3864561721982364
 50
46.0020518997881922
 51
69.4014358715231481
  0
LINE
  5
320C2
  8
0
 10
2893.3452911382669299
 20
90.3479830457972639
 30
0.0
 11
2893.3300902660171232
 21
90.3254461676797575
 31
0.0
  0
ARC
  5
320C3
  8
0
 10
2893.3137706534598692
 20
90.3364539382730385
 30
0.0
 40
0.0196850391781336
 50
241.9998710069737058
 51
325.9998719715870834
  0
LINE
  5
320C4
  8
0
 10
2893.1548176354622228
 20
90.3545329710567984
 30
0.0
 11
2893.0574989928450123
 21
90.4062784910820341
 31
0.0
  0
ARC
  5
320C5
  8
0
 10
2893.0667405989552208
 20
90.423659330270624
 30
0.0
 40
0.019685041386949
 50
157.9998765609317957
 51
241.9998715447231916
  0
LINE
  5
320C6
  8
0
 10
2893.0484889622930496
 20
90.4310335158875063
 30
0.0
 11
2893.063097108196871
 21
90.4671897214969647
 31
0.0
  0
ARC
  5
320C7
  8
0
 10
2892.9271346664199882
 20
90.1054399961012535
 30
0.0
 40
0.3864561721982364
 50
46.0020518997881922
 51
69.4014358715231481
  0
LINE
  5
320C8
  8
0
 10
2893.1955797254709069
 20
90.3834429156920152
 30
0.0
 11
2893.1803788532201906
 21
90.3609060375744946
 31
0.0
  0
ARC
  5
320C9
  8
0
 10
2893.1640592406629366
 20
90.3719138081677755
 30
0.0
 40
0.0196850391781336
 50
241.9998710069737058
 51
325.9998719715870834
  0
LINE
  5
320CA
  8
0
 10
2893.0157709362429159
 20
90.4284658124909413
 30
0.0
 11
2892.9184522936279791
 21
90.4802113325161343
 31
0.0
  0
ARC
  5
320CB
  8
0
 10
2892.9276938997381876
 20
90.4975921717047243
 30
0.0
 40
0.019685041386949
 50
157.9998765609317957
 51
241.9998715447231916
  0
LINE
  5
320CC
  8
0
 10
2892.9094422630751069
 20
90.5049663573216208
 30
0.0
 11
2892.9174838290177831
 21
90.5248698080105214
 31
0.0
  0
LINE
  5
320CD
  8
0
 10
2892.9240502749908046
 20
90.5411222313022535
 30
0.0
 11
2892.9240504089789283
 21
90.541122562931065
 31
0.0
  0
ARC
  5
320CE
  8
0
 10
2892.7880879672020455
 20
90.179372837535368
 30
0.0
 40
0.3864561721982364
 50
46.0020518997881922
 51
51.0669381284412225
  0
LINE
  5
320CF
  8
0
 10
2893.0565330262529642
 20
90.4573757571261154
 30
0.0
 11
2893.0413321540017932
 21
90.4348388790086233
 31
0.0
  0
ARC
  5
320D0
  8
0
 10
2893.025012541444994
 20
90.4458466496019184
 30
0.0
 40
0.0196850391781336
 50
241.9998710069737058
 51
325.9998719715870834
  0
LINE
  5
320D1
  8
0
 10
2893.3342935098921771
 20
90.302256449677003
 30
0.0
 11
2893.1918920918019467
 21
90.3779730363863507
 31
0.0
  0
LINE
  5
320D2
  8
0
 10
2893.0581738988757934
 20
90.455011162223272
 30
0.0
 11
2893.0559502724408958
 21
90.4565110244449357
 31
0.0
  0
LINE
  5
320D3
  8
0
 10
2892.5198803884859444
 20
90.8307733996798845
 30
0.0
 11
2892.4904949367851259
 21
90.8551510611545581
 31
0.0
  0
LINE
  5
320D4
  8
0
 10
2891.9376549008020447
 20
91.4230787522399169
 30
0.0
 11
2891.9349399752700265
 21
91.4183763633598545
 31
0.0
  0
ARC
  5
320D5
  8
0
 10
2891.9520001027390208
 20
91.408526694009538
 30
0.0
 40
0.0196993384543473
 50
149.9999995863992126
 51
208.2364979122797877
  0
ARC
  5
320D6
  8
0
 10
2891.9819703042339825
 20
91.424621163582998
 30
0.0
 40
0.0537176412997082
 50
208.2364979122517923
 51
216.0612772814540961
  0
ARC
  5
320D7
  8
0
 10
2893.4300115995160922
 20
92.6320479074387322
 30
0.0
 40
1.9389971240849611
 50
219.7183864160276983
 51
224.2927171664805996
  0
ARC
  5
320D8
  8
0
 10
2890.5288347955238351
 20
89.8038224900026876
 30
0.0
 40
2.1126307123039929
 50
42.7970867903874606
 51
44.2501149249276011
  0
ARC
  5
320D9
  8
0
 10
2892.0800845394442149
 20
91.1890923326048295
 30
0.0
 40
0.0197340205038541
 50
158.0794083158029082
 51
239.6453001111042909
  0
LINE
  5
320DA
  8
0
 10
2892.0617772462951507
 20
91.1964594611367971
 30
0.0
 11
2892.0789645148602176
 21
91.2391697739411569
 31
0.0
  0
LINE
  5
320DB
  8
0
 10
2892.0789645148602176
 20
91.2391697739411569
 30
0.0
 11
2892.0849214097947879
 21
91.253743393936773
 31
0.0
  0
ARC
  5
320DC
  8
0
 10
2891.9014333281838844
 20
90.9840151377869972
 30
0.0
 40
0.326222852136109
 50
43.7508315758328123
 51
55.7737151520643692
  0
ARC
  5
320DD
  8
0
 10
2890.8800046274191118
 20
90.006181466591741
 30
0.0
 40
1.7402508855465779
 50
40.9056653039488509
 51
43.7508315758328123
  0
LINE
  5
320DE
  8
0
 10
2891.9385456129271006
 20
91.393000265876907
 30
0.0
 11
2894.8730158490661779
 21
89.831034408199244
 31
0.0
  0
ARC
  5
320DF
  8
0
 10
2894.628456583840034
 20
89.8340952576776459
 30
0.0
 40
0.019736786988341
 50
244.7439172512376047
 51
325.9307870392452173
  0
LINE
  5
320E0
  8
0
 10
2894.6448057776469795
 20
89.8230388286653749
 30
0.0
 11
2894.6794160414128783
 21
89.8742171891818771
 31
0.0
  0
ARC
  5
320E1
  8
0
 10
2894.5717496478978319
 20
89.6100528821098692
 30
0.0
 40
0.2855343097335918
 50
67.8415546086145156
 51
79.8893573991253447
  0
ARC
  5
320E2
  8
0
 10
2894.412072556208841
 20
88.7145942380954438
 30
0.0
 40
1.1951182567942831
 50
79.8893573991253447
 51
84.4672675677933853
  0
LINE
  5
320E3
  8
0
 10
2900.0595315550949636
 20
85.9690968759367848
 30
0.0
 11
2900.0595315550949636
 21
84.1195515340367876
 31
0.0
  0
LINE
  5
320E4
  8
0
 10
2900.0595315550949636
 20
84.1195515340367876
 30
0.0
 11
2899.5471323702950031
 21
84.1241419045367849
 31
0.0
  0
ARC
  5
320E5
  8
0
 10
2899.0020460760470087
 20
82.6714687852946355
 30
0.0
 40
1.5515728341090971
 50
69.4324106209410701
 51
74.9399845029351326
  0
ARC
  5
320E6
  8
0
 10
2899.1376620853170607
 20
83.1754822765029758
 30
0.0
 40
1.02963289379953
 50
74.9399845029351326
 51
90.4881957012035656
  0
ARC
  5
320E7
  8
0
 10
2899.1344221698441288
 20
83.5557170670002733
 30
0.0
 40
0.6493843001705617
 50
90.4881957012035656
 51
98.8128018296127948
  0
ARC
  5
320E8
  8
0
 10
2899.0235844131898375
 20
84.2706288230834275
 30
0.0
 40
0.0740684123725749
 50
261.4586997798015773
 51
278.8128018296127948
  0
ARC
  5
320E9
  8
0
 10
2898.7717823801231134
 20
82.594049979089661
 30
0.0
 40
1.6213138111936281
 50
81.4586997798015631
 51
86.895530687371803
  0
ARC
  5
320EA
  8
0
 10
2898.832393079315807
 20
83.4017709856450153
 30
0.0
 40
0.8116691332981778
 50
88.0799923925432751
 51
95.9110974017239641
  0
ARC
  5
320EB
  8
0
 10
2898.7415827127388184
 20
84.4090717587490076
 30
0.0
 40
0.2000777042396921
 50
257.4056866655824933
 51
272.0681558862719953
  0
LINE
  5
320EC
  8
0
 10
2900.0595315550949636
 20
85.9690936540367971
 30
0.0
 11
2899.5058495925450188
 21
85.8397017785367922
 31
0.0
  0
ARC
  5
320ED
  8
0
 10
2898.1696664126361611
 20
89.3890389902390439
 30
0.0
 40
3.7925163325484501
 50
286.7643303183079979
 51
290.6293442537973988
  0
ARC
  5
320EE
  8
0
 10
2898.208554538035969
 20
89.2703321782770729
 30
0.0
 40
3.6676391469395559
 50
278.3002750544278001
 51
286.7175259043153233
  0
ARC
  5
320EF
  8
0
 10
2897.6317016855591646
 20
89.0898301702988675
 30
0.0
 40
3.6218226415576442
 50
278.9624628398124173
 51
287.7857540967066825
  0
ARC
  5
320F0
  8
0
 10
2898.2184301141610376
 20
85.3427146242825359
 30
0.0
 40
0.1709991014914089
 50
97.5589482625874638
 51
148.4299422992681912
  0
ARC
  5
320F1
  8
0
 10
2898.7634025976781231
 20
85.0307030212433546
 30
0.0
 40
0.7989043519055385
 50
149.8272326852332981
 51
210.4057155348720016
  0
ARC
  5
320F2
  8
0
 10
2898.7860066148950864
 20
85.0512912465675157
 30
0.0
 40
0.8288436601037487
 50
210.842345192064812
 51
253.3601031519629032
  0
ARC
  5
320F3
  8
0
 10
2898.9920828501672077
 20
85.5055522756109383
 30
0.0
 40
1.324806763432381
 50
250.4453623130137032
 51
257.1726161135571829
  0
ARC
  5
320F4
  8
0
 10
2893.1294693023969558
 20
82.8207782074147048
 30
0.0
 40
5.6063018212351947
 50
5.0382475337754542
 51
14.8452369650069809
  0
ARC
  5
320F5
  8
0
 10
2895.9429052418909123
 20
83.0688145401441034
 30
0.0
 40
2.781953434794433
 50
347.1215898642806792
 51
5.0382475337754542
  0
ARC
  5
320F6
  8
0
 10
2897.258044997979141
 20
82.7681288398094352
 30
0.0
 40
1.432878022362309
 50
329.7844899136132994
 51
347.1215898642806792
  0
ARC
  5
320F7
  8
0
 10
2935.5363990504060894
 20
60.4757205278342767
 30
0.0
 40
42.8636665077787384
 50
149.7844899136132994
 51
151.0913852253179073
  0
ARC
  5
320F8
  8
0
 10
2902.2854215489369381
 20
78.8377698193227161
 30
0.0
 40
4.8795598447782611
 50
151.0913852253179073
 51
160.0275997021585113
  0
ARC
  5
320F9
  8
0
 10
2905.5449989283551986
 20
77.2669176792131367
 30
0.0
 40
7.9433183162827321
 50
148.0742652830296038
 51
152.9326354638365046
  0
ARC
  5
320FA
  8
0
 10
2895.4736046092139077
 20
83.5420865281580944
 30
0.0
 40
3.9230512892201239
 50
328.0742652830296038
 51
337.7996732051799995
  0
ARC
  5
320FB
  8
0
 10
2896.9516705203009224
 20
82.9388891684667442
 30
0.0
 40
2.326640974716073
 50
337.7996732051799995
 51
2.5531770755248462
  0
ARC
  5
320FC
  8
0
 10
2886.1316852631489382
 20
82.4564166648543733
 30
0.0
 40
13.1573778232284706
 50
2.5531770755248462
 51
4.887789317407738
  0
ARC
  5
320FD
  8
0
 10
2893.2964599731290036
 20
82.8346220902979837
 30
0.0
 40
5.990990749596981
 50
7.1228239204143344
 51
13.2236279320457797
  0
ARC
  5
320FE
  8
0
 10
2897.9995137935798084
 20
88.3492318218524844
 30
0.0
 40
2.8426101155740131
 50
274.1889151665328086
 51
282.4461588080774277
  0
ARC
  5
320FF
  8
0
 10
2889.5978391394819482
 20
126.4159873694890024
 30
0.0
 40
41.8255039911810016
 50
282.4461588080774277
 51
283.112739176063485
  0
ARC
  5
32100
  8
0
 10
2922.8616360471542066
 20
-16.3828305051331711
 30
0.0
 40
104.7963994581482012
 50
102.5672170461017032
 51
103.1127391760635987
  0
LINE
  5
32101
  8
0
 10
2897.8508148647711096
 20
85.9236696380916243
 30
0.0
 11
2897.8340187670951309
 21
85.9965647193367886
 31
0.0
  0
ARC
  5
32102
  8
0
 10
2897.8368170505509624
 20
85.9972094849568975
 30
0.0
 40
0.0028716046049626
 50
113.3961887426150952
 51
192.9753287977177081
  0
ARC
  5
32103
  8
0
 10
2897.8455178270928627
 20
85.9852056032267882
 30
0.0
 40
0.0176396696509395
 50
105.2914722858086947
 51
123.9102280261648019
  0
ARC
  5
32104
  8
0
 10
2897.8563673844059849
 20
85.9450198629126731
 30
0.0
 40
0.0592641981859121
 50
89.5690891194755068
 51
105.1631626658799945
  0
ARC
  5
32105
  8
0
 10
2897.8535451230409308
 20
87.4961264344444487
 30
0.0
 40
1.491847628745977
 50
270.1255095749186239
 51
273.721087248461572
  0
ARC
  5
32106
  8
0
 10
2897.841658825741888
 20
87.7135928998677059
 30
0.0
 40
1.7096285306126049
 50
273.645606479121227
 51
284.6251172794977151
  0
LINE
  5
32107
  8
0
 10
2897.8755149963949407
 20
85.9244260835367868
 30
0.0
 11
2897.9316993350958001
 21
85.7396067115122946
 31
0.0
  0
ARC
  5
32108
  8
0
 10
2897.950524231889176
 20
85.7453620600318374
 30
0.0
 40
0.0196850393915194
 50
196.9999999851187908
 51
287.0013065437984778
  0
LINE
  5
32109
  8
0
 10
2897.9562800096850879
 20
85.7265372944873434
 30
0.0
 11
2898.7587105511352092
 21
85.9729336199566063
 31
0.0
  0
ARC
  5
3210A
  8
0
 10
2898.7529546391660915
 20
85.9917588243237958
 30
0.0
 40
0.0196854982679876
 50
287.0013065437984778
 51
16.9429724676127087
  0
LINE
  5
3210B
  8
0
 10
2898.7717856939939338
 20
85.9974955669637069
 30
0.0
 11
2898.7077292812359701
 21
86.2067009730097737
 31
0.0
  0
ARC
  5
3210C
  8
0
 10
2898.7566435015078241
 20
85.9312142778168351
 30
0.0
 40
0.0392731569743975
 50
106.8026484647167962
 51
197.3951049897268888
  0
LINE
  5
3210D
  8
0
 10
2898.7191664680708527
 20
85.9194732036125544
 30
0.0
 11
2898.7638952523047919
 21
85.9111043649049293
 31
0.0
  0
ARC
  5
3210E
  8
0
 10
2898.7615517878421088
 20
85.8985792918326325
 30
0.0
 40
0.0127424205376068
 50
61.4621605183740627
 51
79.4023833379254143
  0
LINE
  5
3210F
  8
0
 10
2898.8088882614938484
 20
85.9223817786367903
 30
0.0
 11
2897.9429430099939964
 21
85.6567073797682497
 31
0.0
  0
LINE
  5
32110
  8
0
 10
2897.9429430099939964
 20
85.6567073797682497
 30
0.0
 11
2898.0424295920379336
 21
85.3749069205860849
 31
0.0
  0
LINE
  5
32111
  8
0
 10
2898.8088882614938484
 20
85.9223817786367903
 30
0.0
 11
2898.8762633452220143
 21
85.6639847378646238
 31
0.0
  0
ARC
  5
32112
  8
0
 10
2897.982442722920041
 20
85.6936600834613245
 30
0.0
 40
0.03909257548323
 50
61.2133147117067011
 51
108.1149570538591007
  0
ARC
  5
32113
  8
0
 10
2897.9812156864290955
 20
85.6940406094564082
 30
0.0
 40
0.0393700790257955
 50
17.0000002443022211
 51
59.381287785264611
  0
LINE
  5
32114
  8
0
 10
2898.0188654801941084
 20
85.705551306736794
 30
0.0
 11
2898.0257725559467872
 21
85.6829592802707793
 31
0.0
  0
LINE
  5
32115
  8
0
 10
2898.7191664680708527
 20
85.9194732036125544
 30
0.0
 11
2898.0189162562078309
 21
85.7053852258833899
 31
0.0
  0
LINE
  5
32116
  8
0
 10
2898.7191664680708527
 20
85.9194732036125544
 30
0.0
 11
2898.1964050542142104
 21
85.7351268702555984
 31
0.0
  0
ARC
  5
32117
  8
0
 10
2897.8282232184328677
 20
85.8163547846181558
 30
0.0
 40
0.2772932905587129
 50
83.2534246891399761
 51
117.237005151672804
  0
ARC
  5
32118
  8
0
 10
2897.8465630538248661
 20
87.8219460060396671
 30
0.0
 40
1.7302766188740111
 50
270.4714124990118762
 51
277.6838938678948807
  0
ARC
  5
32119
  8
0
 10
2897.6558968617778191
 20
88.685812612072624
 30
0.0
 40
2.6129124557345071
 50
279.2946829253692727
 51
291.3749843897708161
  0
ARC
  5
3211A
  8
0
 10
2902.5160181283749807
 20
74.7044660744378461
 30
0.0
 40
12.1914279043249998
 50
107.8036885435693932
 51
108.6953473777338957
  0
LINE
  5
3211D
  8
0
 10
2892.8165552208820372
 20
90.609895637112345
 30
0.0
 11
2892.9014682166580315
 21
90.5527239126582941
 31
0.0
  0
LINE
  5
3211E
  8
0
 10
2893.6416484508231406
 20
90.1593077466160366
 30
0.0
 11
2893.7364114663691907
 21
90.1206659679660333
 31
0.0
  0
LINE
  5
3211F
  8
0
 10
2899.1019058381948525
 20
80.0187826729367941
 30
0.0
 11
2899.1097599693439406
 21
80.0187826730367959
 31
0.0
  0
ARC
  5
32120
  8
0
 10
2899.1097599695940517
 20
79.9990976338307576
 30
0.0
 40
0.0196850392060382
 50
19.4712193015778396
 51
90.0000007294908073
  0
ARC
  5
32121
  8
0
 10
2898.7200160444781432
 20
79.8613023578428312
 30
0.0
 40
0.4330708943705083
 50
340.5287806984222243
 51
19.4712193015778396
  0
ARC
  5
32122
  8
0
 10
2899.1097599701429317
 20
79.723507081660955
 30
0.0
 40
0.0196850386241533
 50
269.9999984032129987
 51
340.5287806984222243
  0
LINE
  5
32123
  8
0
 10
2899.1097599695940517
 20
79.7038220430367943
 30
0.0
 11
2899.1019058381948525
 21
79.7038220432556841
 31
0.0
  0
LINE
  5
32124
  8
0
 10
2899.1019058381948525
 20
79.9892551139367924
 30
0.0
 11
2899.0977035174701086
 21
79.9892551139367924
 31
0.0
  0
LINE
  5
32125
  8
0
 10
2899.1019058381948525
 20
79.7333496021367978
 30
0.0
 11
2899.0976667095610537
 21
79.7333496021367978
 31
0.0
  0
LINE
  5
32126
  8
0
 10
2899.1283192026949109
 20
80.0056593135222727
 30
0.0
 11
2899.1283192026949109
 21
79.7169454025513176
 31
0.0
  0
LINE
  5
32127
  8
0
 10
2899.1019058381948525
 20
79.9164204682367938
 30
0.0
 11
2899.0891550511601054
 21
79.9164204682367938
 31
0.0
  0
LINE
  5
32128
  8
0
 10
2899.1019058381948525
 20
79.9335230224368019
 30
0.0
 11
2899.0905581452238948
 21
79.9335230224368019
 31
0.0
  0
LINE
  5
32129
  8
0
 10
2899.1019058381948525
 20
79.8061842477367946
 30
0.0
 11
2899.0890603497177835
 21
79.8061842477367946
 31
0.0
  0
LINE
  5
3212A
  8
0
 10
2899.1019058381948525
 20
79.7890816935368008
 30
0.0
 11
2899.0904483425279068
 21
79.7890816935368008
 31
0.0
  0
ENDSEC
  0
EOF
