  0
SECTION
  2
HEADER
  9
$ACADVER
  1
AC1009
  9
$INSBASE
 10
735.7042844892886251
 20
17.1343225606060905
 30
0.0
  9
$EXTMIN
 10
727.5425273882274269
 20
12.1047353996830402
 30
0.0
  9
$EXTMAX
 10
735.7224017037406156
 20
31.5108536397422796
 30
0.0
  9
$LIMMIN
 10
0.0
 20
0.0
  9
$LIMMAX
 10
11.6929133858000007
 20
8.2677165353999982
  9
$ORTHOMODE
 70
     1
  9
$REGENMODE
 70
     1
  9
$FILLMODE
 70
     1
  9
$QTEXTMODE
 70
     0
  9
$MIRRTEXT
 70
     0
  9
$DRAGMODE
 70
     2
  9
$LTSCALE
 40
0.6431102362
  9
$OSMODE
 70
  4095
  9
$ATTMODE
 70
     1
  9
$TEXTSIZE
 40
0.2
  9
$TRACEWID
 40
0.05
  9
$TEXTSTYLE
  7
STANDARD
  9
$CLAYER
  8
0
  9
$CELTYPE
  6
BYLAYER
  9
$CECOLOR
 62
   256
  9
$DIMSCALE
 40
1.0
  9
$DIMASZ
 40
0.1875
  9
$DIMEXO
 40
0.0625
  9
$DIMDLI
 40
0.4443307087
  9
$DIMRND
 40
0.0
  9
$DIMDLE
 40
0.0
  9
$DIMEXE
 40
0.125
  9
$DIMTP
 40
0.01
  9
$DIMTM
 40
0.01
  9
$DIMTXT
 40
1.0
  9
$DIMCEN
 40
0.1052362205
  9
$DIMTSZ
 40
0.0
  9
$DIMTOL
 70
     1
  9
$DIMLIM
 70
     0
  9
$DIMTIH
 70
     1
  9
$DIMTOH
 70
     1
  9
$DIMSE1
 70
     0
  9
$DIMSE2
 70
     0
  9
$DIMTAD
 70
     0
  9
$DIMZIN
 70
     0
  9
$DIMBLK
  1

  9
$DIMASO
 70
     1
  9
$DIMSHO
 70
     1
  9
$DIMPOST
  1
\X
  9
$DIMAPOST
  1

  9
$DIMALT
 70
     1
  9
$DIMALTD
 70
     2
  9
$DIMALTF
 40
25.3999999999999986
  9
$DIMLFAC
 40
1.0
  9
$DIMTOFL
 70
     0
  9
$DIMTVP
 40
0.0
  9
$DIMTIX
 70
     0
  9
$DIMSOXD
 70
     0
  9
$DIMSAH
 70
     0
  9
$DIMBLK1
  1

  9
$DIMBLK2
  1

  9
$DIMSTYLE
  2
STANDARD
  9
$DIMCLRD
 70
     0
  9
$DIMCLRE
 70
     0
  9
$DIMCLRT
 70
     0
  9
$DIMTFAC
 40
1.0
  9
$DIMGAP
 40
0.09
  9
$LUNITS
 70
     2
  9
$LUPREC
 70
     4
  9
$SKETCHINC
 40
0.1
  9
$FILLETRAD
 40
0.0
  9
$AUNITS
 70
     0
  9
$AUPREC
 70
     0
  9
$MENU
  1
.
  9
$ELEVATION
 40
0.0
  9
$PELEVATION
 40
0.0
  9
$THICKNESS
 40
0.0
  9
$LIMCHECK
 70
     0
  9
$BLIPMODE
 70
     0
  9
$CHAMFERA
 40
0.0
  9
$CHAMFERB
 40
0.0
  9
$SKPOLY
 70
     0
  9
$TDCREATE
 40
2458306.6094560190103948
  9
$TDUPDATE
 40
2459907.9252083338797092
  9
$TDINDWG
 40
0.0752868056
  9
$TDUSRTIMER
 40
0.0752866782
  9
$USRTIMER
 70
     1
  9
$ANGBASE
 50
0.0
  9
$ANGDIR
 70
     0
  9
$PDMODE
 70
     0
  9
$PDSIZE
 40
0.3125
  9
$PLINEWID
 40
0.0
  9
$COORDS
 70
     1
  9
$SPLFRAME
 70
     0
  9
$SPLINETYPE
 70
     6
  9
$SPLINESEGS
 70
     8
  9
$ATTDIA
 70
     1
  9
$ATTREQ
 70
     1
  9
$HANDLING
 70
     1
  9
$HANDSEED
  5
5733
  9
$SURFTAB1
 70
     6
  9
$SURFTAB2
 70
     6
  9
$SURFTYPE
 70
     6
  9
$SURFU
 70
     6
  9
$SURFV
 70
     6
  9
$UCSNAME
  2

  9
$UCSORG
 10
0.0
 20
0.0
 30
0.0
  9
$UCSXDIR
 10
1.0
 20
0.0
 30
0.0
  9
$UCSYDIR
 10
0.0
 20
1.0
 30
0.0
  9
$PUCSNAME
  2

  9
$PUCSORG
 10
0.0
 20
0.0
 30
0.0
  9
$PUCSXDIR
 10
1.0
 20
0.0
 30
0.0
  9
$PUCSYDIR
 10
0.0
 20
1.0
 30
0.0
  9
$USERI1
 70
     0
  9
$USERI2
 70
     0
  9
$USERI3
 70
     0
  9
$USERI4
 70
     0
  9
$USERI5
 70
     0
  9
$USERR1
 40
0.0
  9
$USERR2
 40
0.0
  9
$USERR3
 40
0.0
  9
$USERR4
 40
0.0
  9
$USERR5
 40
0.0
  9
$WORLDVIEW
 70
     1
  9
$SHADEDGE
 70
     3
  9
$SHADEDIF
 70
    70
  9
$TILEMODE
 70
     1
  9
$MAXACTVP
 70
    64
  9
$PLIMCHECK
 70
     0
  9
$PEXTMIN
 10
1.0000000000000000E+20
 20
1.0000000000000000E+20
 30
1.0000000000000000E+20
  9
$PEXTMAX
 10
-1.0000000000000000E+20
 20
-1.0000000000000000E+20
 30
-1.0000000000000000E+20
  9
$PLIMMIN
 10
0.0
 20
0.0
  9
$PLIMMAX
 10
12.0
 20
9.0
  9
$UNITMODE
 70
     0
  9
$VISRETAIN
 70
     1
  9
$PLINEGEN
 70
     0
  9
$PSLTSCALE
 70
     1
  0
ENDSEC
  0
SECTION
  2
TABLES
  0
TABLE
  2
VPORT
 70
     1
  0
VPORT
  2
*ACTIVE
 70
     0
 10
0.0
 20
0.0
 11
1.0
 21
1.0
 12
0.0
 22
0.0
 13
0.0
 23
0.0
 14
1.0
 24
1.0
 15
0.0
 25
0.0
 16
0.0
 26
0.0
 36
60.5115222346408217
 17
731.632471603982367
 27
21.8077960014343191
 37
0.0
 40
21.0596108902083898
 41
2.156179775280898
 42
50.0
 43
0.0
 44
0.0
 50
0.0
 51
0.0
 71
     0
 72
   100
 73
     1
 74
     1
 75
     0
 76
     0
 77
     0
 78
     0
  0
ENDTAB
  0
TABLE
  2
LTYPE
 70
     1
  0
LTYPE
  2
CONTINUOUS
 70
     0
  3
Solid line
 72
    65
 73
     0
 40
0.0
  0
ENDTAB
  0
TABLE
  2
LAYER
 70
     2
  0
LAYER
  2
0
 70
     0
 62
   255
  6
CONTINUOUS
  0
LAYER
  2
DEFPOINT
 70
     0
 62
     7
  6
CONTINUOUS
  0
ENDTAB
  0
TABLE
  2
STYLE
 70
     1
  0
STYLE
  2
STANDARD
 70
     0
 40
0.0
 41
0.8
 50
0.0
 71
     0
 42
0.2
  3
txt
  4

  0
ENDTAB
  0
TABLE
  2
VIEW
 70
     0
  0
ENDTAB
  0
TABLE
  2
UCS
 70
     0
  0
ENDTAB
  0
TABLE
  2
APPID
 70
    10
  0
APPID
  2
ACAD
 70
     0
  0
APPID
  2
ACADANNOTATIVE
 70
     0
  0
APPID
  2
ACAD_MLEADERVER
 70
     0
  0
APPID
  2
ACAD_EXEMPT_FROM_CAD_STANDARDS
 70
     0
  0
APPID
  2
ACAD_DSTYLE_DIMJAG
 70
     0
  0
APPID
  2
ACAD_DSTYLE_DIMTALN
 70
     0
  0
APPID
  2
ACAD_NAV_VCDISPLAY
 70
     0
  0
APPID
  2
ACAECLAYERSTANDARD
 70
     0
  0
APPID
  2
ACCMTRANSPARENCY
 70
     0
  0
APPID
  2
ACDBATTR
 70
     0
  0
ENDTAB
  0
TABLE
  2
DIMSTYLE
 70
     1
  0
DIMSTYLE
  2
STANDARD
 70
     0
  3

  4

  5

  6

  7

 40
1.0
 41
0.1875
 42
0.0625
 43
0.38
 44
0.125
 45
0.0
 46
0.0
 47
0.01
 48
0.01
140
0.15625
141
0.09
142
0.0
143
25.3999999999999986
144
1.0
145
0.0
146
1.0
147
0.09
 71
     1
 72
     0
 73
     1
 74
     1
 75
     0
 76
     0
 77
     0
 78
     4
170
     0
171
     2
172
     0
173
     0
174
     0
175
     0
176
     0
177
     0
178
     0
  0
ENDTAB
  0
ENDSEC
  0
SECTION
  2
BLOCKS
  0
BLOCK
  8
0
  2
$MODEL_SPACE
 70
     0
 10
0.0
 20
0.0
 30
0.0
  3
$MODEL_SPACE
  1

  0
ENDBLK
  5
1598
  8
0
  0
BLOCK
 67
     1
  8
0
  2
$PAPER_SPACE
 70
     0
 10
0.0
 20
0.0
 30
0.0
  3
$PAPER_SPACE
  1

  0
ENDBLK
  5
1594
 67
     1
  8
0
  0
ENDSEC
  0
SECTION
  2
ENTITIES
  0
ATTDEF
  5
659
  8
DEFPOINT
 10
735.7117350370740496
 20
17.1353190338478107
 30
0.0
 40
0.001
  1
K-27892T-4
  3

  2
MODELNUMBER
 70
     0
1001
ACDBATTR
1070
     0
1070
     1
  0
ATTDEF
  5
65A
  8
DEFPOINT
 10
735.7117350370740496
 20
17.1336523671811385
 30
0.0
 40
0.001
  1
ATOM
  3

  2
TRADENAME
 70
     0
1001
ACDBATTR
1070
     0
1070
     1
  0
ATTDEF
  5
65B
  8
DEFPOINT
 10
735.7117350370740496
 20
17.1319857005144804
 30
0.0
 40
0.001
  1
BATH AND SHOWER FAUCET
  3

  2
PRODUCT
 70
     0
1001
ACDBATTR
1070
     0
1070
     1
  0
LINE
  5
5257
  8
0
 10
729.7104394829885905
 20
16.1111816882060914
 30
0.0
 11
729.7101729122886127
 21
16.1112566362060896
 31
0.0
  0
LINE
  5
5258
  8
0
 10
729.6570404108884986
 20
16.1329649223060905
 30
0.0
 11
729.655749456688568
 21
16.133467841006091
 31
0.0
  0
LINE
  5
5259
  8
0
 10
729.6802944054886666
 20
16.1184367417060983
 30
0.0
 11
729.6810782460886458
 21
16.1181019344060985
 31
0.0
  0
LINE
  5
525A
  8
0
 10
729.7109767899886492
 20
16.1153144607060916
 30
0.0
 11
729.7113923065885501
 21
16.1151218302060997
 31
0.0
  0
LINE
  5
525B
  8
0
 10
729.6817859958886174
 20
16.1221936860060993
 30
0.0
 11
729.6822600663886078
 21
16.1219602637060895
 31
0.0
  0
LINE
  5
525C
  8
0
 10
729.6767918559885402
 20
16.1240797387060901
 30
0.0
 11
729.6764298715886525
 21
16.1242626287060986
 31
0.0
  0
LINE
  5
525D
  8
0
 10
729.6584385604885483
 20
16.1368196350060984
 30
0.0
 11
729.6586289332885826
 21
16.1367072326060992
 31
0.0
  0
LINE
  5
525E
  8
0
 10
729.1376773305886445
 20
16.52889270660609
 30
0.0
 11
730.0406795841886378
 21
15.8966037216061
 31
0.0
  0
LINE
  5
525F
  8
0
 10
732.139611528288583
 20
16.4847162614060991
 30
0.0
 11
731.3246508983886542
 21
16.4847162614060991
 31
0.0
  0
LINE
  5
5260
  8
0
 10
731.1938803126886341
 20
16.5044013008060908
 30
0.0
 11
732.2703821139840556
 21
16.5044013008060908
 31
0.0
  0
LINE
  5
5261
  8
0
 10
731.0825249140885944
 20
16.5831414583060912
 30
0.0
 11
730.8083252033885628
 21
16.5831414583060912
 31
0.0
  0
LINE
  5
5262
  8
0
 10
732.8252992136217472
 20
17.6855036630060916
 30
0.0
 11
731.8344934179885968
 21
17.6855036630060916
 31
0.0
  0
LINE
  5
5263
  8
0
 10
731.6297690085884824
 20
17.6855036630060916
 30
0.0
 11
730.8083252033885628
 21
17.6855036630060916
 31
0.0
  0
LINE
  5
5264
  8
0
 10
731.3246508983886542
 20
16.4847162614060991
 30
0.0
 11
731.3106283092886315
 21
16.5022444977060907
 31
0.0
  0
LINE
  5
5265
  8
0
 10
734.7466587723886278
 20
18.6776296473061016
 30
0.0
 11
733.5092798774928724
 21
18.6776296473061016
 31
0.0
  0
LINE
  5
5266
  8
0
 10
733.5325446560589171
 20
18.7839288599061014
 30
0.0
 11
734.0379973549886472
 21
18.7839288599061014
 31
0.0
  0
LINE
  5
5267
  8
0
 10
731.0065012920886147
 20
19.5319603559060901
 30
0.0
 11
733.0143753077885549
 21
19.5319603559060901
 31
0.0
  0
LINE
  5
5268
  8
0
 10
734.7072886935884526
 20
19.7681808284060914
 30
0.0
 11
733.8297751820800841
 21
19.7681808284060914
 31
0.0
  0
LINE
  5
5269
  8
0
 10
731.0065012920886147
 20
19.7681808284060914
 30
0.0
 11
733.2408936449112389
 21
19.7681808284060914
 31
0.0
  0
LINE
  5
526A
  8
0
 10
730.9671312132885532
 20
19.5713304347060983
 30
0.0
 11
730.9671312132885532
 21
19.7288107496061009
 31
0.0
  0
LINE
  5
526B
  8
0
 10
731.4565406620886279
 20
15.8744800410060893
 30
0.0
 11
731.4565406620886279
 21
15.6776296473060999
 31
0.0
  0
LINE
  5
526C
  8
0
 10
732.0077217644884513
 20
15.8744800410060893
 30
0.0
 11
732.0077217644884513
 21
15.6776296473060999
 31
0.0
  0
LINE
  5
526D
  8
0
 10
733.0931154652886335
 20
19.4532201984060897
 30
0.0
 11
733.0931154652886335
 21
19.2976530040116288
 31
0.0
  0
LINE
  5
526E
  8
0
 10
729.4538218230884468
 20
16.9803938333060884
 30
0.0
 11
729.1376773305886445
 21
16.52889270660609
 31
0.0
  0
LINE
  5
526F
  8
0
 10
729.609796315543349
 20
16.1529620382168986
 30
0.0
 11
729.6311035619886525
 21
16.1833919398060999
 31
0.0
  0
LINE
  5
5270
  8
0
 10
729.6396928071884531
 20
16.140746943106091
 30
0.0
 11
729.6428730852885565
 21
16.1452888509060983
 31
0.0
  0
LINE
  5
5271
  8
0
 10
729.637694422388563
 20
16.1378929537060998
 30
0.0
 11
729.6387448162886358
 21
16.1393930718061007
 31
0.0
  0
LINE
  5
5272
  8
0
 10
729.6447956485884561
 20
16.14803455590609
 30
0.0
 11
729.6501972773885427
 21
16.1557488812060903
 31
0.0
  0
LINE
  5
5273
  8
0
 10
729.6531514746884568
 20
16.1599679122060991
 30
0.0
 11
729.6569036263884982
 21
16.1653265402060917
 31
0.0
  0
LINE
  5
5274
  8
0
 10
729.6404185841886374
 20
16.1403200394060988
 30
0.0
 11
729.6436799062886394
 21
16.1449776900060904
 31
0.0
  0
LINE
  5
5275
  8
0
 10
729.6384464461885955
 20
16.1375035344060898
 30
0.0
 11
729.6395236023886355
 21
16.1390418729060983
 31
0.0
  0
LINE
  5
5276
  8
0
 10
729.6454949742884537
 20
16.1475698758060986
 30
0.0
 11
729.6510343114886155
 21
16.1554808691060998
 31
0.0
  0
LINE
  5
5277
  8
0
 10
729.6538233577884967
 20
16.1594640401060907
 30
0.0
 11
729.6575912091885812
 21
16.1648450896060893
 31
0.0
  0
LINE
  5
5278
  8
0
 10
729.6639579203886115
 20
16.1551239772060917
 30
0.0
 11
729.6605807230886285
 21
16.150300839506091
 31
0.0
  0
LINE
  5
5279
  8
0
 10
729.6555019623885983
 20
16.14304761760609
 30
0.0
 11
729.6533044638886167
 21
16.1399092645060911
 31
0.0
  0
LINE
  5
527A
  8
0
 10
729.650314619488654
 20
16.1356393241060907
 30
0.0
 11
729.6492311572884546
 21
16.1340919797060991
 31
0.0
  0
LINE
  5
527B
  8
0
 10
729.6566073254886078
 20
16.1337181230060907
 30
0.0
 11
729.6582449589885755
 21
16.1360569060061003
 31
0.0
  0
LINE
  5
527C
  8
0
 10
729.654081175688475
 20
16.1301104072061001
 30
0.0
 11
729.6546220186885421
 21
16.1308828112060993
 31
0.0
  0
LINE
  5
527D
  8
0
 10
729.6622718832885539
 20
16.1418079500060898
 30
0.0
 11
729.6650538045886378
 21
16.1457809454060914
 31
0.0
  0
LINE
  5
527E
  8
0
 10
729.6645312375884487
 20
16.1262209241060894
 30
0.0
 11
729.6667104940886475
 21
16.1293332249061017
 31
0.0
  0
LINE
  5
527F
  8
0
 10
729.6680717928885542
 20
16.1312773611060898
 30
0.0
 11
729.6724925769884749
 21
16.1375908950060989
 31
0.0
  0
LINE
  5
5280
  8
0
 10
729.6748053796885642
 20
16.1408939196060999
 30
0.0
 11
729.6803954597885422
 21
16.1488773814060913
 31
0.0
  0
LINE
  5
5281
  8
0
 10
729.685192839588467
 20
16.1369150315060992
 30
0.0
 11
729.6823897301884472
 21
16.1329117764061003
 31
0.0
  0
LINE
  5
5282
  8
0
 10
729.6783327763886291
 20
16.1271178459060991
 30
0.0
 11
729.676683141988633
 21
16.1247619238061013
 31
0.0
  0
LINE
  5
5283
  8
0
 10
729.6746834464886433
 20
16.1219060627060884
 30
0.0
 11
729.6741387135884906
 21
16.1211281035060914
 31
0.0
  0
LINE
  5
5284
  8
0
 10
729.6850494384884769
 20
16.1258021168060992
 30
0.0
 11
729.6872728762886027
 21
16.1289775151060901
 31
0.0
  0
LINE
  5
5285
  8
0
 10
729.6809289706884556
 20
16.1199174789060891
 30
0.0
 11
729.6820248624884471
 21
16.1214825746061017
 31
0.0
  0
LINE
  5
5286
  8
0
 10
729.6924129660885683
 20
16.1363183241060995
 30
0.0
 11
729.6943601542884608
 21
16.1390991970060895
 31
0.0
  0
LINE
  5
5287
  8
0
 10
729.6922038392884815
 20
16.1172059417060893
 30
0.0
 11
729.6955273644884983
 21
16.1219524277060984
 31
0.0
  0
LINE
  5
5288
  8
0
 10
729.6901946903885801
 20
16.1143365798060998
 30
0.0
 11
729.6912920057884548
 21
16.1159037086061012
 31
0.0
  0
LINE
  5
5289
  8
0
 10
729.6973776023885421
 20
16.1245948413060987
 30
0.0
 11
729.7030267926885472
 21
16.1326627212060885
 31
0.0
  0
LINE
  5
528A
  8
0
 10
729.7080242249885487
 20
16.1209860757060994
 30
0.0
 11
729.7057795989885562
 21
16.1177804177060899
 31
0.0
  0
LINE
  5
528B
  8
0
 10
729.7027266673884469
 20
16.1134203795060884
 30
0.0
 11
729.7016206317886144
 21
16.1118407969060904
 31
0.0
  0
LINE
  5
528C
  8
0
 10
729.706815772988648
 20
16.1083521109060896
 30
0.0
 11
729.7073684403884499
 21
16.1091414017060899
 31
0.0
  0
LINE
  5
528D
  8
0
 10
729.7151899055886588
 20
16.1203116116060983
 30
0.0
 11
729.7171644048886492
 21
16.1231314889060897
 31
0.0
  0
LINE
  5
528E
  8
0
 10
729.7093974936885843
 20
16.1120391902060902
 30
0.0
 11
729.7110716228885394
 21
16.1144300944060888
 31
0.0
  0
LINE
  5
528F
  8
0
 10
729.7215365733884482
 20
16.1105618744060912
 30
0.0
 11
729.7260039609884643
 21
16.1169419650060988
 31
0.0
  0
LINE
  5
5290
  8
0
 10
729.7179102192885694
 20
16.1053829039061007
 30
0.0
 11
729.7201420600885058
 21
16.1085703029060916
 31
0.0
  0
LINE
  5
5291
  8
0
 10
729.7324524843886593
 20
16.1073376926060909
 30
0.0
 11
729.7307590021886199
 21
16.1049191494060899
 31
0.0
  0
LINE
  5
5292
  8
0
 10
729.7287067640886562
 20
16.1019882495060997
 30
0.0
 11
729.7281478323885722
 21
16.1011900124060894
 31
0.0
  0
LINE
  5
5293
  8
0
 10
729.7353387234886668
 20
16.10055155250609
 30
0.0
 11
729.7364647882884583
 21
16.1021597398061012
 31
0.0
  0
LINE
  5
5294
  8
0
 10
729.7473025936884596
 20
16.0988240117060997
 30
0.0
 11
729.7488082115885391
 21
16.100974256906099
 31
0.0
  0
LINE
  5
5295
  8
0
 10
729.7452338014886664
 20
16.0958694701060914
 30
0.0
 11
729.7463635970885889
 21
16.0974829855060904
 31
0.0
  0
LINE
  5
5296
  8
0
 10
730.3568240766885538
 20
16.3481048484060913
 30
0.0
 11
730.0406795841886378
 21
15.8966037216061
 31
0.0
  0
LINE
  5
5297
  8
0
 10
734.7466587723886278
 20
17.7987765922060888
 30
0.0
 11
734.7466587723886278
 21
18.6776296473061016
 31
0.0
  0
LINE
  5
5298
  8
0
 10
734.7466587723886278
 20
19.0418605219060915
 30
0.0
 11
734.0379973549886472
 21
18.7839288599061014
 31
0.0
  0
ARC
  5
5299
  8
0
 10
730.8083252033885628
 20
16.0319603559060901
 30
0.0
 40
1.6535433071000001
 50
90.0
 51
145.0000000000005969
  0
ARC
  5
529A
  8
0
 10
730.8083252033885628
 20
16.0319603559060901
 30
0.0
 40
0.5511811024000001
 50
90.0
 51
145.0000000000005969
  0
ARC
  5
529B
  8
0
 10
729.8034917402884503
 20
16.57468223140609
 30
0.0
 40
0.4562999201000001
 50
251.8034321780995981
 51
253.3161789592977016
  0
ARC
  5
529C
  8
0
 10
729.8015774542885765
 20
16.5747767257060907
 30
0.0
 40
0.4548274428
 50
251.6518862914969077
 51
252.1646764428026017
  0
ARC
  5
529D
  8
0
 10
729.8028928339886079
 20
16.572843827306091
 30
0.0
 40
0.4543664279
 50
251.0715180801983877
 51
251.8027843141020981
  0
ARC
  5
529E
  8
0
 10
729.8014024636886461
 20
16.5742477504060908
 30
0.0
 40
0.4542702747
 50
251.3986109101984141
 51
251.651833108699492
  0
ARC
  5
529F
  8
0
 10
729.8009898068886514
 20
16.5730322946060902
 30
0.0
 40
0.4529866833
 50
250.1640932232980958
 51
251.3990398200986931
  0
ARC
  5
52A0
  8
0
 10
729.8006359723885907
 20
16.5720405000060893
 30
0.0
 40
0.4519336678000001
 50
249.9230009768020011
 51
250.1636238536985957
  0
ARC
  5
52A1
  8
0
 10
729.8193110457884814
 20
16.5652247556060885
 30
0.0
 40
0.4602311989000001
 50
252.9071686244994055
 51
254.3976230060985984
  0
ARC
  5
52A2
  8
0
 10
729.8173594012886269
 20
16.565185790006101
 30
0.0
 40
0.4588724643
 50
252.7378155663973871
 51
253.2415722795024067
  0
ARC
  5
52A3
  8
0
 10
729.8171641520885942
 20
16.5645558162060915
 30
0.0
 40
0.4582129273
 50
252.4874048803978042
 51
252.7377546922986085
  0
ARC
  5
52A4
  8
0
 10
729.8187114664885939
 20
16.5632582197060998
 30
0.0
 40
0.4581752965
 50
252.1584061243013934
 51
252.9065546366026069
  0
ARC
  5
52A5
  8
0
 10
729.8170428547884967
 20
16.5641712204060916
 30
0.0
 40
0.4578096570000001
 50
252.2844487615996059
 51
252.487397929197499
  0
ARC
  5
52A6
  8
0
 10
729.8166556409886425
 20
16.5629711215060915
 30
0.0
 40
0.4565486422
 50
251.0071473954972134
 51
252.284909542401607
  0
ARC
  5
52A7
  8
0
 10
729.8212300822885936
 20
16.5555692036060904
 30
0.0
 40
0.4533799871000001
 50
248.7679136666986892
 51
250.0733446038971977
  0
ARC
  5
52A8
  8
0
 10
729.8192423303886471
 20
16.5557039001060886
 30
0.0
 40
0.4522412419000001
 50
248.4221287224987122
 51
248.9231379437003113
  0
ARC
  5
52A9
  8
0
 10
729.8190591689885878
 20
16.5552397654060997
 30
0.0
 40
0.4517422739
 50
248.1731915052019986
 51
248.4220821144027127
  0
ARC
  5
52AA
  8
0
 10
729.8206200406885955
 20
16.5539966358060902
 30
0.0
 40
0.451693233
 50
247.8496827795009096
 51
248.5920693218020006
  0
ARC
  5
52AB
  8
0
 10
729.8189346159886099
 20
16.5549287744060898
 30
0.0
 40
0.4514072682000001
 50
247.925366395197301
 51
248.1731911074975869
  0
ARC
  5
52AC
  8
0
 10
729.8186357021886579
 20
16.5541958265060885
 30
0.0
 40
0.450615713
 50
246.9450459392980122
 51
247.9255634579974981
  0
ARC
  5
52AD
  8
0
 10
729.8183456834885874
 20
16.5535100415060903
 30
0.0
 40
0.4498711265999999
 50
246.702413042898911
 51
246.9448284033985033
  0
ARC
  5
52AE
  8
0
 10
729.8174002337884758
 20
16.5770113610060896
 30
0.0
 40
0.4689588970000001
 50
257.2645865703976824
 51
258.7358694308023246
  0
ARC
  5
52AF
  8
0
 10
729.815435612188594
 20
16.5764498674061009
 30
0.0
 40
0.4670238859000001
 50
256.8449995057001729
 51
257.6051275190977776
  0
ARC
  5
52B0
  8
0
 10
729.8168508429886288
 20
16.5745546808060915
 30
0.0
 40
0.4664415422000001
 50
256.5078317827999967
 51
257.2638866443015218
  0
ARC
  5
52B1
  8
0
 10
729.8148788960886577
 20
16.5740887729060908
 30
0.0
 40
0.4645980506000001
 50
255.3502473479007051
 51
256.8455858229007731
  0
ARC
  5
52B2
  8
0
 10
729.801727828188632
 20
16.5861638185060905
 30
0.0
 40
0.4641175926
 50
256.1964515160013889
 51
257.8176551538343233
  0
ARC
  5
52B3
  8
0
 10
729.7997842647886273
 20
16.5857327931061
 30
0.0
 40
0.4620627238
 50
255.7937016104004044
 51
256.5631287974979955
  0
ARC
  5
52B4
  8
0
 10
729.8011524159885539
 20
16.5837957729060896
 30
0.0
 40
0.4616806476
 50
255.4533388486009926
 51
256.1956812696969905
  0
ARC
  5
52B5
  8
0
 10
729.7992112351886362
 20
16.5834876375060887
 30
0.0
 40
0.4597455993
 50
254.3001953059977893
 51
255.7942640330965105
  0
ARC
  5
52B6
  8
0
 10
729.7858541978886251
 20
16.5939029799061011
 30
0.0
 40
0.4553962184000001
 50
254.4742862663019025
 51
255.3771434327998975
  0
ARC
  5
52B7
  8
0
 10
729.7839663078884769
 20
16.5938056539060916
 30
0.0
 40
0.4534201738000001
 50
253.5668105368970089
 51
254.8272287300972891
  0
ARC
  5
52B8
  8
0
 10
729.7836007602885502
 20
16.5925500492060891
 30
0.0
 40
0.4521124478000001
 50
253.3187692371996036
 51
253.5662286127009963
  0
ARC
  5
52B9
  8
0
 10
729.7862593918885068
 20
16.5954542876060884
 30
0.0
 40
0.4569995703
 50
255.3770891216018981
 51
256.0383139174007283
  0
ARC
  5
52BA
  8
0
 10
729.7844943547886487
 20
16.5957416371060908
 30
0.0
 40
0.4554268765
 50
254.8268596443002139
 51
255.7951444540045998
  0
ARC
  5
52BB
  8
0
 10
729.8563139520886125
 20
16.5294530491060883
 30
0.0
 40
0.4471211159
 50
246.9259799618002944
 51
248.1899438714006862
  0
ARC
  5
52BC
  8
0
 10
729.8557876477885884
 20
16.5282123242060912
 30
0.0
 40
0.4457733797
 50
246.4346213488018122
 51
246.8161608339026998
  0
ARC
  5
52BD
  8
0
 10
729.855687411588633
 20
16.5279824731060998
 30
0.0
 40
0.4455226232000001
 50
245.9523642406003887
 51
246.434619236198813
  0
ARC
  5
52BE
  8
0
 10
729.8588423905886202
 20
16.5227461233060993
 30
0.0
 40
0.4415756535
 50
242.6408259869002961
 51
243.8935374335027859
  0
ARC
  5
52BF
  8
0
 10
729.8568104770886293
 20
16.5230954309060891
 30
0.0
 40
0.4412605934000001
 50
241.9763090639997074
 51
242.7285460071985028
  0
ARC
  5
52C0
  8
0
 10
729.8567073389885991
 20
16.5229019571060896
 30
0.0
 40
0.4410413456000001
 50
241.7275485739017995
 51
241.9763278245007996
  0
ARC
  5
52C1
  8
0
 10
729.8584272080886421
 20
16.5219405414060887
 30
0.0
 40
0.4406693773
 50
242.1471866724000108
 51
242.6406338940001035
  0
ARC
  5
52C2
  8
0
 10
729.8583719041886297
 20
16.5218353622061009
 30
0.0
 40
0.4405505449
 50
241.6584961352990888
 51
242.1471550798000862
  0
ARC
  5
52C3
  8
0
 10
729.8564555159885003
 20
16.5224314273060884
 30
0.0
 40
0.4405076679000001
 50
240.4976747364003984
 51
241.7274066006004887
  0
ARC
  5
52C4
  8
0
 10
729.8375071586884815
 20
16.5464824864060986
 30
0.0
 40
0.4547273412
 50
249.9909884865969047
 51
251.2436342671003899
  0
ARC
  5
52C5
  8
0
 10
729.8354546396884643
 20
16.5464189659060992
 30
0.0
 40
0.4536316796000001
 50
249.5793856279987892
 51
250.0840518195981019
  0
ARC
  5
52C6
  8
0
 10
729.8370961190886419
 20
16.5453433536060999
 30
0.0
 40
0.4535163232000001
 50
249.7442747576033923
 51
249.9905405037015953
  0
ARC
  5
52C7
  8
0
 10
729.8352707514885651
 20
16.5459239248061003
 30
0.0
 40
0.4531035883
 50
249.3292008416989063
 51
249.5793360146032001
  0
ARC
  5
52C8
  8
0
 10
729.8368606765884579
 20
16.5447078346060898
 30
0.0
 40
0.452838594
 50
249.0143121517986913
 51
249.7443833719983104
  0
ARC
  5
52C9
  8
0
 10
729.8351411688886401
 20
16.5455804824060912
 30
0.0
 40
0.452736513
 50
249.0805149444022106
 51
249.3292016110995917
  0
ARC
  5
52CA
  8
0
 10
729.8347694791884805
 20
16.5446153591060892
 30
0.0
 40
0.4517022937000001
 50
247.8593506670987949
 51
249.0808430078018034
  0
ARC
  5
52CB
  8
0
 10
729.8376630600886301
 20
16.5385975468060913
 30
0.0
 40
0.4478437803000001
 50
245.5415790989019058
 51
245.7999434208977902
  0
ARC
  5
52CC
  8
0
 10
729.8375840478886403
 20
16.5384238316060888
 30
0.0
 40
0.4476529403000001
 50
245.2862437631004013
 51
245.5415788495031109
  0
ARC
  5
52CD
  8
0
 10
729.8375027609885137
 20
16.5382472082060907
 30
0.0
 40
0.4474585094
 50
245.0339319090010974
 51
245.2862435107983003
  0
ARC
  5
52CE
  8
0
 10
729.8373859843884475
 20
16.5379965218060896
 30
0.0
 40
0.4471819584000001
 50
244.7845979841015946
 51
245.0339389122025864
  0
ARC
  5
52CF
  8
0
 10
729.8370752451885437
 20
16.5373390010060888
 30
0.0
 40
0.4464547092
 50
243.817025141898597
 51
244.7847277369004075
  0
ARC
  5
52D0
  8
0
 10
729.8369203923884925
 20
16.5370212412060908
 30
0.0
 40
0.4461012278
 50
243.5825556481995875
 51
243.8168652555008862
  0
ARC
  5
52D1
  8
0
 10
729.8332500431886274
 20
16.56778566590609
 30
0.0
 40
0.4713519389
 50
258.6575843427028758
 51
258.9334713517999944
  0
ARC
  5
52D2
  8
0
 10
729.833126915688581
 20
16.5671715997061
 30
0.0
 40
0.47072565
 50
258.4057137636983157
 51
258.6575786234021166
  0
ARC
  5
52D3
  8
0
 10
729.8314346293884682
 20
16.5679160238060987
 30
0.0
 40
0.4703733616
 50
257.9873540520017059
 51
258.945610104365187
  0
ARC
  5
52D4
  8
0
 10
729.8328918788886313
 20
16.5660343134060994
 30
0.0
 40
0.4695643320000001
 50
257.6490512504000776
 51
258.4059174037976732
  0
ARC
  5
52D5
  8
0
 10
729.8311935323886246
 20
16.5667746827061002
 30
0.0
 40
0.4692068351
 50
257.7364681345968052
 51
257.9871431437019851
  0
ARC
  5
52D6
  8
0
 10
729.8308337249884516
 20
16.565141592506091
 30
0.0
 40
0.4675345842
 50
256.4806697917979932
 51
257.7370459247989061
  0
ARC
  5
52D7
  8
0
 10
729.8355498227886073
 20
16.5566973554060901
 30
0.0
 40
0.4627491835
 50
254.3141208188986866
 51
255.5582307167989029
  0
ARC
  5
52D8
  8
0
 10
729.8335041376884647
 20
16.5562919969061006
 30
0.0
 40
0.4612624149000001
 50
253.8957439626009034
 51
254.3917411025020101
  0
ARC
  5
52D9
  8
0
 10
729.8351403665884618
 20
16.5552232152061016
 30
0.0
 40
0.4612192407000001
 50
254.0640865169968095
 51
254.2791817680017061
  0
ARC
  5
52DA
  8
0
 10
729.833309106188608
 20
16.5556146502060884
 30
0.0
 40
0.4605575493
 50
253.6473970266011122
 51
253.8956807257011121
  0
ARC
  5
52DB
  8
0
 10
729.8348920071886141
 20
16.5543583522060906
 30
0.0
 40
0.4603194248
 50
253.3145915210006081
 51
254.0642553312999894
  0
ARC
  5
52DC
  8
0
 10
729.8331769620886007
 20
16.5551642661060896
 30
0.0
 40
0.4600881795000001
 50
253.3989124054976116
 51
253.6473962600022105
  0
ARC
  5
52DD
  8
0
 10
729.8327887667885534
 20
16.5538751399061006
 30
0.0
 40
0.4587418778
 50
252.1541228380017969
 51
253.399374821000805
  0
ARC
  5
52DE
  8
0
 10
729.8520780987886383
 20
16.548687372906091
 30
0.0
 40
0.4634230844
 50
255.5451646735997997
 51
256.8137861430005842
  0
ARC
  5
52DF
  8
0
 10
729.850000013088561
 20
16.54810361750609
 30
0.0
 40
0.4620065608
 50
255.1195130488987957
 51
255.630095765101089
  0
ARC
  5
52E0
  8
0
 10
729.8516705061886114
 20
16.547086846906101
 30
0.0
 40
0.4617714816
 50
255.2950295911986984
 51
255.544565626798402
  0
ARC
  5
52E1
  8
0
 10
729.849814304088568
 20
16.5474025987060998
 30
0.0
 40
0.4612813609000001
 50
254.8663705269011928
 51
255.1194455693016891
  0
ARC
  5
52E2
  8
0
 10
729.8514296211885721
 20
16.5461738074060989
 30
0.0
 40
0.4608272013000001
 50
254.5551967525017858
 51
255.2951821907975045
  0
ARC
  5
52E3
  8
0
 10
729.8496812453886378
 20
16.5469106633060896
 30
0.0
 40
0.4607717482
 50
254.6147518438023951
 51
254.86637226800039
  0
ARC
  5
52E4
  8
0
 10
729.8492889943886439
 20
16.5454993489061017
 30
0.0
 40
0.4593069427000001
 50
253.3791556111972909
 51
254.6152210554027135
  0
ARC
  5
52E5
  8
0
 10
729.8543849349885022
 20
16.5388078059060888
 30
0.0
 40
0.4551688048
 50
252.2338053987029127
 51
252.4916677278004045
  0
ARC
  5
52E6
  8
0
 10
729.854082319688473
 20
16.5378710071061015
 30
0.0
 40
0.4541843443
 50
251.2238567175025992
 51
252.2340999355986924
  0
ARC
  5
52E7
  8
0
 10
729.8520980256886332
 20
16.5379815794060896
 30
0.0
 40
0.4535288450000001
 50
251.0588674587999094
 51
251.3166691483010879
  0
ARC
  5
52E8
  8
0
 10
729.8519876427884583
 20
16.5376599241060909
 30
0.0
 40
0.4531887766
 50
250.8033403390030003
 51
251.0588671711988979
  0
ARC
  5
52E9
  8
0
 10
729.8537059622884726
 20
16.5367563349060909
 30
0.0
 40
0.4530078524000001
 50
250.976181325897187
 51
251.2235465499989004
  0
ARC
  5
52EA
  8
0
 10
729.8518747146886199
 20
16.537335570906091
 30
0.0
 40
0.4528453268
 50
250.5500828442017109
 51
250.803340047799594
  0
ARC
  5
52EB
  8
0
 10
729.8517387290885381
 20
16.5369506165061004
 30
0.0
 40
0.4524370597
 50
250.299057718401798
 51
250.5500881885998012
  0
ARC
  5
52EC
  8
0
 10
729.8513372390884797
 20
16.5358370908061012
 30
0.0
 40
0.4512533677000001
 50
249.0778003784994894
 51
250.2993887585028858
  0
ARC
  5
52ED
  8
0
 10
729.8470838171886044
 20
16.5566853753060883
 30
0.0
 40
0.468607854
 50
257.7058175605998258
 51
258.5231196677004846
  0
ARC
  5
52EE
  8
0
 10
729.8769423304886459
 20
16.5094825455060885
 30
0.0
 40
0.4327531034000001
 50
238.8207362920005892
 51
239.6445533051974053
  0
ARC
  5
52EF
  8
0
 10
729.8788943558886331
 20
16.5089010551060902
 30
0.0
 40
0.4324879274000001
 50
239.3828237801994874
 51
240.8259258464973982
  0
ARC
  5
52F0
  8
0
 10
729.8767347990884673
 20
16.509140377306089
 30
0.0
 40
0.4323529182
 50
237.3817868342001987
 51
238.8207902792007928
  0
ARC
  5
52F1
  8
0
 10
729.8786497115886505
 20
16.5084844602060983
 30
0.0
 40
0.432004813
 50
239.0628852850003909
 51
239.3532866412969895
  0
ARC
  5
52F2
  8
0
 10
729.8785970066885511
 20
16.5083966397060991
 30
0.0
 40
0.4319023912
 50
238.5584567563020926
 51
239.0628930237016903
  0
ARC
  5
52F3
  8
0
 10
729.871149655147633
 20
16.530346874980161
 30
0.0
 40
0.4523554105522379
 50
252.4638871454976083
 51
253.8378884216780023
  0
ARC
  5
52F4
  8
0
 10
729.8706289136886198
 20
16.5286820449060983
 30
0.0
 40
0.4506110468
 50
252.0598838064007055
 51
252.4632407649004051
  0
ARC
  5
52F5
  8
0
 10
729.8704949976886383
 20
16.5282675964060886
 30
0.0
 40
0.4501755000000001
 50
251.8122689859004026
 51
252.0598513756004024
  0
ARC
  5
52F6
  8
0
 10
729.8703961160886138
 20
16.5279666240061012
 30
0.0
 40
0.4498587004
 50
251.566330366899706
 51
251.8122687873000984
  0
ARC
  5
52F7
  8
0
 10
729.8684108804884545
 20
16.5281235816060885
 30
0.0
 40
0.4495054657
 50
250.6208970625002905
 51
251.8127613733985868
  0
ARC
  5
52F8
  8
0
 10
729.8680806084886399
 20
16.5271740203060986
 30
0.0
 40
0.4485001131000001
 50
250.3755028672987066
 51
250.6204473028988104
  0
ARC
  5
52F9
  8
0
 10
729.8858098665886018
 20
16.5210163894060997
 30
0.0
 40
0.4458988745
 50
251.7761272219995021
 51
253.579675109215799
  0
ARC
  5
52FA
  8
0
 10
729.8733825323886322
 20
16.5213430971061008
 30
0.0
 40
0.4440658988
 50
248.2360374492984079
 51
249.5059013790016991
  0
ARC
  5
52FB
  8
0
 10
729.8712399533885673
 20
16.5212444116061015
 30
0.0
 40
0.4434893049000001
 50
247.8048497012009079
 51
248.3149077713991915
  0
ARC
  5
52FC
  8
0
 10
729.8728832511884548
 20
16.5200852589060894
 30
0.0
 40
0.4427125949000001
 50
247.7358400339024058
 51
248.2356887964998862
  0
ARC
  5
52FD
  8
0
 10
729.8727156000885543
 20
16.5196752254061003
 30
0.0
 40
0.4422696115
 50
247.240944233202498
 51
247.735814093500295
  0
ARC
  5
52FE
  8
0
 10
729.8707367535886306
 20
16.5200237290060983
 30
0.0
 40
0.4421689817
 50
246.056948164498607
 51
247.8054698610997093
  0
ARC
  5
52FF
  8
0
 10
729.8758382327886238
 20
16.5141350194060905
 30
0.0
 40
0.4373491548
 50
243.728966320601188
 51
245.1729551114015067
  0
ARC
  5
5300
  8
0
 10
729.8737712309886092
 20
16.51440144340609
 30
0.0
 40
0.4372092260000001
 50
243.2217925929026023
 51
243.9873931864985934
  0
ARC
  5
5301
  8
0
 10
729.8754193747886347
 20
16.5132800031060896
 30
0.0
 40
0.4363970587
 50
243.4086039902011009
 51
243.6592183119007871
  0
ARC
  5
5302
  8
0
 10
729.8733538111886219
 20
16.513579119106101
 30
0.0
 40
0.4362870244
 50
241.7291132291983899
 51
243.1688161397972863
  0
ARC
  5
5303
  8
0
 10
729.8753434623886278
 20
16.513128621306091
 30
0.0
 40
0.4362277096
 50
242.9089983888974871
 51
243.4086197852984128
  0
ARC
  5
5304
  8
0
 10
729.89029850388863
 20
16.5124740475060889
 30
0.0
 40
0.437668663
 50
249.1284982236996086
 51
249.3831487680976977
  0
ARC
  5
5305
  8
0
 10
729.8901612125886231
 20
16.5121147672060999
 30
0.0
 40
0.4372840448
 50
248.6214716537022014
 51
249.1285349774996973
  0
ARC
  5
5306
  8
0
 10
729.8880635376884811
 20
16.5121624563060898
 30
0.0
 40
0.4371318438000001
 50
247.4094048237967058
 51
248.9343041069994058
  0
ARC
  5
5307
  8
0
 10
729.8933050996886323
 20
16.50632287750609
 30
0.0
 40
0.4314292506000001
 50
245.0610492969003928
 51
246.5381513092013961
  0
ARC
  5
5308
  8
0
 10
729.8911604395884751
 20
16.5064070674060908
 30
0.0
 40
0.4313675107
 50
244.498016202799505
 51
245.3241882443971917
  0
ARC
  5
5309
  8
0
 10
729.8928727962885432
 20
16.5053853129060997
 30
0.0
 40
0.4303968249000001
 50
244.7440106914968965
 51
244.9996403750006948
  0
ARC
  5
530A
  8
0
 10
729.890709004488599
 20
16.5054646086060899
 30
0.0
 40
0.4303225133
 50
243.0269983166994052
 51
244.4982403628997076
  0
ARC
  5
530B
  8
0
 10
729.8927593340886233
 20
16.5051452596060884
 30
0.0
 40
0.430131308
 50
244.233549171399801
 51
244.7440365922014109
  0
ARC
  5
530C
  8
0
 10
729.8942441504885892
 20
16.5011298788061005
 30
0.0
 40
0.4258338763000001
 50
240.0858644602010088
 51
240.9195246297030906
  0
ARC
  5
530D
  8
0
 10
729.8962806215886303
 20
16.5007043521061014
 30
0.0
 40
0.4254653631
 50
240.6524681876987017
 51
242.1281723562998991
  0
ARC
  5
530E
  8
0
 10
729.8939746722885502
 20
16.5006627813061009
 30
0.0
 40
0.4252946192
 50
238.6158607162020928
 51
240.0859499249002056
  0
ARC
  5
530F
  8
0
 10
729.8959994248884868
 20
16.5001999626060893
 30
0.0
 40
0.4248878893
 50
240.3320436971002891
 51
240.6521856251995928
  0
ARC
  5
5310
  8
0
 10
729.8959153591886206
 20
16.5000525644061007
 30
0.0
 40
0.4247182035
 50
239.8181200300018077
 51
240.3320554719028053
  0
ARC
  5
5311
  8
0
 10
729.8981343276884672
 20
16.4976390773061006
 30
0.0
 40
0.4220552988000001
 50
235.6306103094015896
 51
236.4784114182976964
  0
ARC
  5
5312
  8
0
 10
729.89811459468865
 20
16.4976095698060909
 30
0.0
 40
0.422019803
 50
234.1637412299016887
 51
235.6305600913977116
  0
ARC
  5
5313
  8
0
 10
729.90000832758858
 20
16.4968938513061012
 30
0.0
 40
0.421250898
 50
236.2105557218999081
 51
237.6828545929994903
  0
ARC
  5
5314
  8
0
 10
729.8999047499886501
 20
16.496737938406099
 30
0.0
 40
0.4210637165
 50
235.3626925065993021
 51
236.2104481605996114
  0
ARC
  5
5315
  8
0
 10
729.9046561398886297
 20
16.4946343900061017
 30
0.0
 40
0.4186361762
 50
233.0748308584022936
 51
233.1897724516990991
  0
ARC
  5
5316
  8
0
 10
729.8907918028885433
 20
16.5138004801060987
 30
0.0
 40
0.4390838445
 50
249.3838473036018968
 51
250.925805065601395
  0
ARC
  5
5317
  8
0
 10
729.8886663696886217
 20
16.5137223540060987
 30
0.0
 40
0.4388041782000001
 50
249.1901630280005122
 51
249.7049049235012035
  0
ARC
  5
5318
  8
0
 10
729.8885197472884556
 20
16.5133356880060909
 30
0.0
 40
0.4383906463000001
 50
248.9337791768020907
 51
249.1901221952996934
  0
ARC
  5
5319
  8
0
 10
729.9053229498886139
 20
16.664249340906089
 30
0.0
 40
0.5905511811000002
 50
239.9718715682018058
 51
243.0487232131989117
  0
ARC
  5
531A
  8
0
 10
731.0825249140885944
 20
16.4650312221060986
 30
0.0
 40
0.1181102362
 50
19.471220634500181
 51
90.0000000096013082
  0
ARC
  5
531B
  8
0
 10
731.316776882588556
 20
16.5071633564060889
 30
0.0
 40
0.0078740157
 50
200.5350958818387141
 51
218.6598082538997119
  0
ARC
  5
531C
  8
0
 10
731.0065012920886147
 20
19.7288107496061009
 30
0.0
 40
0.0393700787
 50
90.0
 51
180.0
  0
ARC
  5
531D
  8
0
 10
731.0065012920886147
 20
19.5713304347060983
 30
0.0
 40
0.0393700787
 50
180.0
 51
270.0
  0
ARC
  5
531E
  8
0
 10
733.9541049919886291
 20
18.5521714808060914
 30
0.0
 40
0.7480314961
 50
9.6551511892000939
 51
34.6421126451361516
  0
ARC
  5
531F
  8
0
 10
733.0143753077885549
 20
19.4532201984060897
 30
0.0
 40
0.0787401575
 50
0.0
 51
90.0
  0
ARC
  5
5320
  8
0
 10
734.7072886935884526
 20
19.7288107496061009
 30
0.0
 40
0.0393700787
 50
0.0
 51
90.0
  0
LINE
  5
5321
  8
0
 10
729.6510343114886155
 20
16.1554808691060998
 30
0.0
 11
729.6501972773885427
 21
16.1557488812060903
 31
0.0
  0
LINE
  5
5322
  8
0
 10
729.6436799062886394
 20
16.1449776900060904
 30
0.0
 11
729.6428730852885565
 21
16.1452888509060983
 31
0.0
  0
LINE
  5
5323
  8
0
 10
729.6395236023886355
 20
16.1390418729060983
 30
0.0
 11
729.6387448162886358
 21
16.1393930718061007
 31
0.0
  0
LINE
  5
5324
  8
0
 10
729.6447956485884561
 20
16.14803455590609
 30
0.0
 11
729.6454949742884537
 21
16.1475698758060986
 31
0.0
  0
LINE
  5
5325
  8
0
 10
729.6396928071884531
 20
16.140746943106091
 30
0.0
 11
729.6404185841886374
 21
16.1403200394060988
 31
0.0
  0
LINE
  5
5326
  8
0
 10
729.637694422388563
 20
16.1378929537060998
 30
0.0
 11
729.6382698790885115
 21
16.137577306306099
 31
0.0
  0
LINE
  5
5327
  8
0
 10
729.6382698790885115
 20
16.137577306306099
 30
0.0
 11
729.6384464461885955
 21
16.1375035344060898
 31
0.0
  0
LINE
  5
5328
  8
0
 10
733.7927422822886001
 20
24.5979699332061017
 30
0.0
 11
734.608487809088615
 21
24.8473683690061016
 31
0.0
  0
LINE
  5
5329
  8
0
 10
734.6283717203885999
 20
24.7711095572060991
 30
0.0
 11
733.8189011591886128
 21
24.523629570906099
 31
0.0
  0
LINE
  5
532A
  8
0
 10
733.9758544203886004
 20
24.0775873969061003
 30
0.0
 11
734.7476751879886478
 21
24.3135566861061001
 31
0.0
  0
LINE
  5
532B
  8
0
 10
733.8189011591886128
 20
24.523629570906099
 30
0.0
 11
733.9758544203886004
 21
24.0775873969061003
 31
0.0
  0
LINE
  5
532C
  8
0
 10
734.6283717203885999
 20
24.7711095572060991
 30
0.0
 11
734.7476751879886478
 21
24.3135566861061001
 31
0.0
  0
LINE
  5
532D
  8
0
 10
727.8309066911012906
 20
31.4819273954405716
 30
0.0
 11
727.5484574442884877
 21
30.9927110740060989
 31
0.0
  0
LINE
  5
532E
  8
0
 10
728.8763831393886221
 20
29.9631509052060885
 30
0.0
 11
728.8934431387885979
 21
29.9884433945060884
 31
0.0
  0
LINE
  5
532F
  8
0
 10
728.7444930911885876
 20
30.0332780878060994
 30
0.0
 11
728.7583324158886171
 21
30.0675316184061003
 31
0.0
  0
LINE
  5
5330
  8
0
 10
731.7025518728886482
 20
29.3820280501061006
 30
0.0
 11
731.8783683812886238
 21
29.5568611760061017
 31
0.0
  0
LINE
  5
5331
  8
0
 10
734.4444419695886381
 20
16.7418225606060886
 30
0.0
 11
734.4050718908886211
 21
16.7418225606060886
 31
0.0
  0
LINE
  5
5332
  8
0
 10
734.4444419695886381
 20
17.5268225606060994
 30
0.0
 11
734.4050718908886211
 21
17.5268225606060994
 31
0.0
  0
LINE
  5
5333
  8
0
 10
734.4927923815886288
 20
17.7987765922060888
 30
0.0
 11
734.9866427386886016
 21
17.7987765922060888
 31
0.0
  0
LINE
  5
5334
  8
0
 10
734.3778844849886127
 20
25.685221093906101
 30
0.0
 11
733.5344610264694438
 21
25.3992413485648214
 31
0.0
  0
LINE
  5
5335
  8
0
 10
734.4494165188884836
 20
25.4574388637060984
 30
0.0
 11
733.5834712673886315
 21
25.1926928318060988
 31
0.0
  0
LINE
  5
5336
  8
0
 10
734.3778844849886127
 20
25.685221093906101
 30
0.0
 11
734.4271844703886245
 21
25.7214857941061013
 31
0.0
  0
LINE
  5
5337
  8
0
 10
735.0349931506885923
 20
17.7150312220060897
 30
0.0
 11
734.9866427386886016
 21
17.7987765922060888
 31
0.0
  0
LINE
  5
5338
  8
0
 10
734.4050718908886211
 20
16.5993998465593897
 30
0.0
 11
734.4050718908886211
 21
17.6660082627061001
 31
0.0
  0
LINE
  5
5339
  8
0
 10
734.4444419695886381
 20
17.7150312220060897
 30
0.0
 11
734.4444419695886381
 21
16.5536138992060806
 31
0.0
  0
LINE
  5
533A
  8
0
 10
733.5344610264166931
 20
25.3992413485627715
 30
0.0
 11
733.5906453651886068
 21
25.2154706570060902
 31
0.0
  0
LINE
  5
533B
  8
0
 10
733.4872701267886441
 20
25.4733899577061003
 30
0.0
 11
733.5087605418885914
 21
25.398443973706101
 31
0.0
  0
LINE
  5
533C
  8
0
 10
733.3579332687886563
 20
25.5336816157061683
 30
0.0
 11
733.405571236888477
 21
25.4338236577060997
 31
0.0
  0
LINE
  5
533D
  8
0
 10
733.5834712673886315
 20
25.1926928318060988
 30
0.0
 11
733.7927422823695451
 21
24.5979699332308499
 31
0.0
  0
LINE
  5
533E
  8
0
 10
734.3667887542026165
 20
25.6814588624522315
 30
0.0
 11
734.4307317239886288
 21
25.4723108320060909
 31
0.0
  0
LINE
  5
533F
  8
0
 10
734.4494165188884836
 20
25.4574388637060984
 30
0.0
 11
734.6084878090955499
 21
24.8473683690082616
 31
0.0
  0
LINE
  5
5340
  8
0
 10
734.4444419695886381
 20
17.7150312220060897
 30
0.0
 11
734.4927923815886288
 21
17.7987765922060888
 31
0.0
  0
LINE
  5
5341
  8
0
 10
728.7535031756885928
 20
30.0085230841060984
 30
0.0
 11
728.8508219353885806
 21
29.9567777817060907
 31
0.0
  0
ARC
  5
5342
  8
0
 10
727.884308574472584
 20
31.4470968533700912
 30
0.0
 40
0.06375678637219
 50
79.2913692087435322
 51
146.8862291138080138
  0
ARC
  5
5343
  8
0
 10
727.6077802735134128
 20
30.9655312842550714
 30
0.0
 40
0.0652528852860202
 50
155.384289858865003
 51
236.6456733556333063
  0
ARC
  5
5344
  8
0
 10
727.6431376752885853
 20
30.9120650954060885
 30
0.0
 40
0.0452927551
 50
206.2727683827991996
 51
221.0486186736982859
  0
ARC
  5
5345
  8
0
 10
727.6201753156884706
 20
30.9007299667060984
 30
0.0
 40
0.0196850394
 50
195.5374774478493123
 51
206.2727683835009032
  0
ARC
  5
5346
  8
0
 10
728.8600635020886784
 20
29.9741586396060988
 30
0.0
 40
0.0196850394
 50
242.0000000000003979
 51
326.0000000000010232
  0
ARC
  5
5347
  8
0
 10
728.7627447418884685
 20
30.0259039423061012
 30
0.0
 40
0.0196850394
 50
158.0000000000007958
 51
242.0000000000003979
  0
ARC
  5
5348
  8
0
 10
730.5467623277730809
 20
29.3681676598723413
 30
0.0
 40
0.0452794285455829
 50
262.9482417104674141
 51
277.7283203266139253
  0
ARC
  5
5349
  8
0
 10
730.5502045293884521
 20
29.3428057987060917
 30
0.0
 40
0.0196850394
 50
277.7272316165019106
 51
283.0330703193101272
  0
ARC
  5
534A
  8
0
 10
734.3656987272646575
 20
17.6314582426598285
 30
0.0
 40
0.0393726893272089
 50
7.5455055254160897
 51
90.5420855581756143
  0
ARC
  5
534B
  8
0
 10
734.3657017964695797
 20
17.6660082667384906
 30
0.0
 40
0.0393700944189279
 50
359.9999941316125955
 51
71.9746130209209412
  0
ARC
  5
534C
  8
0
 10
733.4709650584859446
 20
27.0312238153996311
 30
0.0
 40
1.633217226827584
 50
271.3260422324054844
 51
272.2280980285040073
  0
ARC
  5
534D
  8
0
 10
733.4731469065673082
 20
26.9783751108060983
 30
0.0
 40
1.5803324741961451
 50
269.5010996382717963
 51
271.2913002688857205
  0
ARC
  5
534E
  8
0
 10
734.3912636083604184
 20
25.7683684598611009
 30
0.0
 40
0.059061770013619
 50
307.4588457426546029
 51
18.9455078310506089
  0
ARC
  5
534F
  8
0
 10
734.411906827769144
 20
25.4665554832667702
 30
0.0
 40
0.0196850390103216
 50
287.0030616191141917
 51
17.0000010751919994
  0
ARC
  5
5350
  8
0
 10
733.6094702368035314
 20
25.2212254615553206
 30
0.0
 40
0.0196848562570025
 50
196.9985070827596871
 51
286.6683676550134123
  0
LINE
  5
5351
  8
0
 10
735.4720010246885522
 20
15.8843225606060905
 30
0.0
 11
735.7042844892886251
 21
15.8843225606060905
 31
0.0
  0
LINE
  5
5352
  8
0
 10
735.0457413691884767
 20
16.4671767629060994
 30
0.0
 11
735.071017925088654
 21
16.4542977144060885
 31
0.0
  0
LINE
  5
5353
  8
0
 10
735.1027641298885555
 20
16.4246938995060887
 30
0.0
 11
735.4045075364886088
 21
15.9225085390060901
 31
0.0
  0
LINE
  5
5354
  8
0
 10
735.0349931506885923
 20
16.4847162614060991
 30
0.0
 11
735.0349931506885923
 21
17.7839288620358289
 31
0.0
  0
LINE
  5
5355
  8
0
 10
735.1027641298885555
 20
16.4246938995060887
 30
0.0
 11
735.1027641298885555
 21
17.8439512217060887
 31
0.0
  0
LINE
  5
5356
  8
0
 10
735.4045075364886088
 20
18.3461365822060891
 30
0.0
 11
735.4045075364886088
 21
15.9225085390060901
 31
0.0
  0
LINE
  5
5357
  8
0
 10
735.7042844892886251
 20
18.3843225606060905
 30
0.0
 11
735.7042844892886251
 21
15.8843225606060905
 31
0.0
  0
ARC
  5
5358
  8
0
 10
735.4720010246885522
 20
15.9630627181060891
 30
0.0
 40
0.0787401575
 50
210.9999999999986073
 51
270.0
  0
ARC
  5
5359
  8
0
 10
735.0352706415884541
 20
16.3841397204060897
 30
0.0
 40
0.0787401575
 50
31.0000000000987193
 51
62.9999999999023714
  0
ARC
  5
535A
  8
0
 10
735.0562326358772225
 20
16.4856688270717591
 30
0.0
 40
0.0212608352769309
 50
182.5679267974761899
 51
240.4320732023363121
  0
LINE
  5
535B
  8
0
 10
735.4720010246885522
 20
18.3843225606060905
 30
0.0
 11
735.7042844892886251
 21
18.3843225606060905
 31
0.0
  0
LINE
  5
535C
  8
0
 10
735.0457413691884767
 20
17.8014683583060886
 30
0.0
 11
735.071017925088654
 21
17.8143474068060996
 31
0.0
  0
LINE
  5
535D
  8
0
 10
735.1027641298885555
 20
17.8439512217060994
 30
0.0
 11
735.4045075364886088
 21
18.3461365822060998
 31
0.0
  0
ARC
  5
535E
  8
0
 10
735.4720010246885522
 20
18.3055824031061007
 30
0.0
 40
0.0787401575
 50
90.0
 51
149.0000000000013927
  0
ARC
  5
535F
  8
0
 10
735.0352706415884541
 20
17.8845054008060984
 30
0.0
 40
0.0787401575
 50
297.0000000000977138
 51
328.9999999999013198
  0
ARC
  5
5360
  8
0
 10
735.0562326358772225
 20
17.782976294140429
 30
0.0
 40
0.0212608352769309
 50
119.5679267976636027
 51
177.4320732025238101
  0
ARC
  5
5361
  8
0
 10
734.7371471756324581
 20
17.6376443609792091
 30
0.0
 40
0.2926992677005585
 50
153.4016230039393065
 51
212.3648192325769912
  0
ARC
  5
5362
  8
0
 10
734.4427831546416883
 20
17.4639122812060315
 30
0.0
 40
0.0501218712448904
 50
340.1154581158040742
 51
19.8845418843381587
  0
ARC
  5
5363
  8
0
 10
735.5412084492827489
 20
17.1343225606061509
 30
0.0
 40
1.0967664796941881
 50
163.4431390691052002
 51
180.0
  0
ARC
  5
5364
  8
0
 10
734.7422879446446586
 20
17.6376443609792091
 30
0.0
 40
0.2926992677005585
 50
327.635180767423094
 51
26.5983769960607006
  0
ARC
  5
5365
  8
0
 10
735.0366519656354285
 20
17.4639122812060315
 30
0.0
 40
0.0501218712448904
 50
160.1154581156617951
 51
199.8845418841958974
  0
ARC
  5
5366
  8
0
 10
733.9382266709944815
 20
17.1343225606061509
 30
0.0
 40
1.0967664796941881
 50
0.0
 51
16.5568609308947288
  0
LINE
  5
5367
  8
0
 10
734.4927923815886288
 20
16.4698685290060993
 30
0.0
 11
734.9866427386886016
 21
16.4698685290060993
 31
0.0
  0
LINE
  5
5368
  8
0
 10
735.0349931506885923
 20
16.5536138992060984
 30
0.0
 11
734.9866427386886016
 21
16.4698685290060993
 31
0.0
  0
LINE
  5
5369
  8
0
 10
734.4444419695886381
 20
16.5536138992060984
 30
0.0
 11
734.4927923815886288
 21
16.4698685290060993
 31
0.0
  0
ARC
  5
536A
  8
0
 10
734.7371471756324581
 20
16.631000760232979
 30
0.0
 40
0.2926992677005585
 50
147.6351807674230088
 51
206.5983769960606935
  0
ARC
  5
536B
  8
0
 10
734.4427831546416883
 20
16.8047328400061602
 30
0.0
 40
0.0501218712448904
 50
340.1154581156613972
 51
19.8845418841959294
  0
ARC
  5
536C
  8
0
 10
735.5412084492827489
 20
17.1343225606060408
 30
0.0
 40
1.0967664796941881
 50
180.0
 51
196.5568609308946861
  0
ARC
  5
536D
  8
0
 10
734.7422879446446586
 20
16.631000760232979
 30
0.0
 40
0.2926992677005585
 50
333.4016230039359812
 51
32.3648192325769628
  0
ARC
  5
536E
  8
0
 10
735.0366519656354285
 20
16.8047328400061602
 30
0.0
 40
0.0501218712448904
 50
160.1154581158039889
 51
199.8845418843380912
  0
ARC
  5
536F
  8
0
 10
733.9382266709944815
 20
17.1343225606060408
 30
0.0
 40
1.0967664796941881
 50
343.4431390691053139
 51
0.0
  0
LINE
  5
5370
  8
0
 10
734.4929050258865573
 20
16.8047328400061602
 30
0.0
 11
734.9865300943904458
 21
16.8047328400061602
 31
0.0
  0
LINE
  5
5371
  8
0
 10
734.4929050258865573
 20
17.463912281206099
 30
0.0
 11
734.9865300943904458
 21
17.463912281206099
 31
0.0
  0
ARC
  5
5372
  8
0
 10
725.4658375766272229
 20
21.5173699607682813
 30
0.0
 40
10.2836749423840406
 50
51.4231242543411469
 51
76.330096947822156
  0
ARC
  5
5373
  8
0
 10
726.9740518971179881
 20
23.4546596179456692
 30
0.0
 40
7.8287408969835539
 50
17.3369013317035012
 51
51.2112906636440002
  0
ARC
  5
5374
  8
0
 10
726.5570239914652575
 20
23.4560222102940017
 30
0.0
 40
7.0999830825250081
 50
30.3207055195708506
 51
55.7332618061951806
  0
ARC
  5
5375
  8
0
 10
726.3098822438075786
 20
23.2929203633715609
 30
0.0
 40
7.3956767263516321
 50
17.6368324802568885
 51
30.4448523113985203
  0
ARC
  5
5376
  8
0
 10
733.4599718795867602
 20
25.4573824062958884
 30
0.0
 40
0.0592827509576388
 50
203.4155120515567887
 51
269.4341425825203942
  0
ARC
  5
5377
  8
0
 10
733.4926428501162263
 20
25.4743227559352796
 30
0.0
 40
0.0054530971466565
 50
124.5423452911478961
 51
189.8493640269398952
  0
ARC
  5
5378
  8
0
 10
733.5115155504759059
 20
25.4470071273315916
 30
0.0
 40
0.0386543309070512
 50
100.2146156799140044
 51
124.627140092916207
  0
ARC
  5
5379
  8
0
 10
733.5254395669785481
 20
25.3907608141295604
 30
0.0
 40
0.0965504213009082
 50
93.7769047927489368
 51
102.427967435152496
  0
ARC
  5
537A
  8
0
 10
733.4973607127442392
 20
27.2867557960455507
 30
0.0
 40
1.7997853096422349
 50
270.6914337677865205
 51
278.8788765890167269
  0
ARC
  5
537B
  8
0
 10
733.4673507968873309
 20
27.4095276142351416
 30
0.0
 40
1.9257475793464141
 50
279.1972579731798874
 51
287.600279152275391
  0
ARC
  5
537C
  8
0
 10
614.8754726096361765
 20
-183.4318037540587909
 30
0.0
 40
242.8446899083245967
 50
61.3815237677624026
 51
62.2636838525957188
  0
ARC
  5
537D
  8
0
 10
818.3605205090777872
 20
152.0841561623460905
 30
0.0
 40
150.2178943116408902
 50
234.5297222587489898
 51
234.7684776993359037
  0
ARC
  5
537E
  8
0
 10
-355.6049908322211195
 20
-2007.9870257029319873
 30
0.0
 40
2308.7610207419029393
 50
61.9364043097445105
 51
62.0202559595347935
  0
ARC
  5
537F
  8
0
 10
728.7475277396573574
 20
29.8941207837572698
 30
0.0
 40
0.1737471110610383
 50
32.8794295648917299
 51
86.4346915589213012
  0
LINE
  5
5380
  8
0
 10
728.848568352738539
 20
29.8531009384061008
 30
0.0
 11
728.8656283521386285
 21
29.8783934277060901
 31
0.0
  0
LINE
  5
5381
  8
0
 10
728.7166783045385046
 20
29.9232281210061011
 30
0.0
 11
728.7305176292386477
 21
29.9574816516060913
 31
0.0
  0
LINE
  5
5382
  8
0
 10
728.7256883890385097
 20
29.8984731173061
 30
0.0
 11
728.8230071487386112
 21
29.8467278149060995
 31
0.0
  0
ARC
  5
5383
  8
0
 10
728.8322487154385954
 20
29.8641086728061005
 30
0.0
 40
0.0196850394
 50
242.0000000000003979
 51
326.0000000000010232
  0
ARC
  5
5384
  8
0
 10
728.7349299552386128
 20
29.9158539755060993
 30
0.0
 40
0.0196850394
 50
158.0000000000007958
 51
242.0000000000003979
  0
ARC
  5
5385
  8
0
 10
728.7197129530075017
 20
29.7840708169572785
 30
0.0
 40
0.1737471110610383
 50
32.8794295648917299
 51
86.4346915589213012
  0
LINE
  5
5386
  8
0
 10
728.7095214876385398
 20
29.9270334680061012
 30
0.0
 11
728.7265814870386293
 21
29.9523259573060905
 31
0.0
  0
LINE
  5
5387
  8
0
 10
728.5776314394386191
 20
29.9971606506061015
 30
0.0
 11
728.5856729624476884
 21
30.0170641184726783
 31
0.0
  0
LINE
  5
5388
  8
0
 10
728.5866415239386242
 20
29.9724056469061004
 30
0.0
 11
728.6839602836386121
 21
29.9206603445060999
 31
0.0
  0
ARC
  5
5389
  8
0
 10
728.6932018503384825
 20
29.9380412024061009
 30
0.0
 40
0.0196850394
 50
242.0000000000003979
 51
326.0000000000010232
  0
ARC
  5
538A
  8
0
 10
728.5958830901384999
 20
29.9897865051060997
 30
0.0
 40
0.0196850394
 50
158.0000000000007958
 51
242.0000000000003979
  0
ARC
  5
538B
  8
0
 10
728.5806660879075025
 20
29.8580033465572789
 30
0.0
 40
0.1737471110610383
 50
32.8794295648917299
 51
44.4511107841323323
  0
LINE
  5
538C
  8
0
 10
728.7017485009886286
 20
29.9753099166060899
 30
0.0
 11
728.7188085003886044
 21
30.0006024059061005
 31
0.0
  0
LINE
  5
538D
  8
0
 10
728.5698584527884805
 20
30.0454370992060902
 30
0.0
 11
728.5836977774886236
 21
30.0796906298061018
 31
0.0
  0
LINE
  5
538E
  8
0
 10
728.5788685372884856
 20
30.0206820955060891
 30
0.0
 11
728.6761872969884735
 21
29.9689367931060886
 31
0.0
  0
ARC
  5
538F
  8
0
 10
728.6854288636884576
 20
29.9863176510061002
 30
0.0
 40
0.0196850394
 50
242.0000000000003979
 51
326.0000000000010232
  0
ARC
  5
5390
  8
0
 10
728.5881101034885887
 20
30.038062953706099
 30
0.0
 40
0.0196850394
 50
158.0000000000007958
 51
242.0000000000003979
  0
ARC
  5
5391
  8
0
 10
728.5728931012574776
 20
29.9062797951572783
 30
0.0
 40
0.1737471110610383
 50
32.8794295648917299
 51
86.4346915589213012
  0
LINE
  5
5392
  8
0
 10
728.7590338440386404
 20
30.1414898903061008
 30
0.0
 11
728.7760938434386162
 21
30.1667823796061008
 31
0.0
  0
LINE
  5
5393
  8
0
 10
728.6271437958386059
 20
30.2116170729060904
 30
0.0
 11
728.6409831205386354
 21
30.2458706035060985
 31
0.0
  0
LINE
  5
5394
  8
0
 10
728.6361538803386111
 20
30.1868620692060894
 30
0.0
 11
728.7334726400385989
 21
30.1351167668060995
 31
0.0
  0
ARC
  5
5395
  8
0
 10
728.742714206738583
 20
30.1524976247061005
 30
0.0
 40
0.0196850394
 50
242.0000000000003979
 51
326.0000000000010232
  0
ARC
  5
5396
  8
0
 10
728.6453954465386005
 20
30.2042429274060993
 30
0.0
 40
0.0196850394
 50
158.0000000000007958
 51
242.0000000000003979
  0
ARC
  5
5397
  8
0
 10
728.6301784443073757
 20
30.0724597688572786
 30
0.0
 40
0.1737471110610383
 50
32.8794295648917299
 51
86.4346915589213012
  0
LINE
  5
5398
  8
0
 10
728.5700803040886058
 20
30.126015011706091
 30
0.0
 11
728.5871403034884679
 21
30.1513075010061016
 31
0.0
  0
LINE
  5
5399
  8
0
 10
728.4381902558885713
 20
30.1961421943060913
 30
0.0
 11
728.4520295805886008
 21
30.2303957249060993
 31
0.0
  0
LINE
  5
539A
  8
0
 10
728.4472003403885765
 20
30.1713871906060902
 30
0.0
 11
728.5445191000884506
 21
30.1196418882061003
 31
0.0
  0
ARC
  5
539B
  8
0
 10
728.5537606667885484
 20
30.1370227461060907
 30
0.0
 40
0.0196850394
 50
242.0000000000003979
 51
326.0000000000010232
  0
ARC
  5
539C
  8
0
 10
728.4564419065886796
 20
30.1887680488061001
 30
0.0
 40
0.0196850394
 50
158.0000000000007958
 51
242.0000000000003979
  0
ARC
  5
539D
  8
0
 10
728.4412249043574548
 20
30.0569848902572794
 30
0.0
 40
0.1737471110610383
 50
32.8794295648917299
 51
86.4346915589213012
  0
LINE
  5
539E
  8
0
 10
728.4790842550386287
 20
30.0937025963560991
 30
0.0
 11
728.4961442544386045
 21
30.1189950856560991
 31
0.0
  0
LINE
  5
539F
  8
0
 10
728.3471942068385943
 20
30.1638297789560887
 30
0.0
 11
728.3610335315386237
 21
30.1980833095561003
 31
0.0
  0
LINE
  5
53A0
  8
0
 10
728.2747035202871757
 20
30.1824095039033793
 30
0.0
 11
728.4535230510384736
 21
30.0873294728561014
 31
0.0
  0
ARC
  5
53A1
  8
0
 10
728.4627646177384577
 20
30.1047103307560917
 30
0.0
 40
0.0196850394
 50
242.0000000000003979
 51
326.0000000000010232
  0
ARC
  5
53A2
  8
0
 10
728.3654458575384751
 20
30.1564556334561011
 30
0.0
 40
0.0196850394
 50
158.0000000000007958
 51
242.0000000000003979
  0
ARC
  5
53A3
  8
0
 10
728.3218908855091058
 20
29.97626117678751
 30
0.0
 40
0.225249207155526
 50
39.3214906618517972
 51
79.9926304619619657
  0
LINE
  5
53A4
  8
0
 10
728.4530228104886191
 20
30.3041988431060894
 30
0.0
 11
728.470082809888595
 21
30.3294913324060893
 31
0.0
  0
LINE
  5
53A5
  8
0
 10
728.321132762288471
 20
30.3743260257061003
 30
0.0
 11
728.3349720869885005
 21
30.4085795563061012
 31
0.0
  0
LINE
  5
53A6
  8
0
 10
728.3301428467884762
 20
30.3495710220060992
 30
0.0
 11
728.4274616064885777
 21
30.2978257196060916
 31
0.0
  0
ARC
  5
53A7
  8
0
 10
728.4367031731885618
 20
30.3152065775060997
 30
0.0
 40
0.0196850394
 50
242.0000000000003979
 51
326.0000000000010232
  0
ARC
  5
53A8
  8
0
 10
728.3393844129885792
 20
30.3669518802060985
 30
0.0
 40
0.0196850394
 50
158.0000000000007958
 51
242.0000000000003979
  0
ARC
  5
53A9
  8
0
 10
728.3241674107575818
 20
30.2351687216572707
 30
0.0
 40
0.1737471110610383
 50
32.8794295648917299
 51
86.4346915589213012
  0
LINE
  5
53AA
  8
0
 10
728.190245179538465
 20
30.4439201878561008
 30
0.0
 11
728.2073051789385545
 21
30.4692126771560901
 31
0.0
  0
LINE
  5
53AB
  8
0
 10
728.0583551313385442
 20
30.514047370456101
 30
0.0
 11
728.0721944560385737
 21
30.5483009010560984
 31
0.0
  0
LINE
  5
53AC
  8
0
 10
728.0673652158386631
 20
30.4892923667561
 30
0.0
 11
728.1646839755386509
 21
30.4375470643560995
 31
0.0
  0
ARC
  5
53AD
  8
0
 10
728.173925542238635
 20
30.4549279222561005
 30
0.0
 40
0.0196850394
 50
242.0000000000003979
 51
326.0000000000010232
  0
ARC
  5
53AE
  8
0
 10
728.0766067820386525
 20
30.5066732249560992
 30
0.0
 40
0.0196850394
 50
158.0000000000007958
 51
242.0000000000003979
  0
ARC
  5
53AF
  8
0
 10
728.0613897798075413
 20
30.3748900664072785
 30
0.0
 40
0.1737471110610383
 50
32.8794295648917299
 51
86.4346915589213012
  0
LINE
  5
53B0
  8
0
 10
728.1573996112886107
 20
30.3454412283561012
 30
0.0
 11
728.1744596106885865
 21
30.3707337176561012
 31
0.0
  0
LINE
  5
53B1
  8
0
 10
728.0255095630884625
 20
30.4155684109560909
 30
0.0
 11
728.039348887788492
 21
30.4498219415560989
 31
0.0
  0
LINE
  5
53B2
  8
0
 10
727.9779171712032166
 20
30.4209094777997393
 30
0.0
 11
728.1318384072885692
 21
30.3390681048560999
 31
0.0
  0
ARC
  5
53B3
  8
0
 10
728.1410799739885533
 20
30.3564489627560903
 30
0.0
 40
0.0196850394
 50
242.0000000000003979
 51
326.0000000000010232
  0
ARC
  5
53B4
  8
0
 10
728.0437612137885708
 20
30.4081942654560997
 30
0.0
 40
0.0196850394
 50
158.0000000000007958
 51
242.0000000000003979
  0
ARC
  5
53B5
  8
0
 10
728.0285442115575734
 20
30.276411106907279
 30
0.0
 40
0.1737471110610383
 50
32.8794295648917299
 51
86.4346915589213012
  0
LINE
  5
53B6
  8
0
 10
728.3203723534386427
 20
30.2587870842060909
 30
0.0
 11
728.3374323528386185
 21
30.2840795735060908
 31
0.0
  0
LINE
  5
53B7
  8
0
 10
728.1884823052386082
 20
30.3289142668060983
 30
0.0
 11
728.2023216299386377
 21
30.3631677974060885
 31
0.0
  0
LINE
  5
53B8
  8
0
 10
728.1974923897386134
 20
30.3041592631061008
 30
0.0
 11
728.2948111494386012
 21
30.2524139607060896
 31
0.0
  0
ARC
  5
53B9
  8
0
 10
728.3040527161385853
 20
30.2697948186060906
 30
0.0
 40
0.0196850394
 50
242.0000000000003979
 51
326.0000000000010232
  0
ARC
  5
53BA
  8
0
 10
728.2067339559386028
 20
30.3215401213061
 30
0.0
 40
0.0196850394
 50
158.0000000000007958
 51
242.0000000000003979
  0
ARC
  5
53BB
  8
0
 10
728.191516953707378
 20
30.1897569627572686
 30
0.0
 40
0.1737471110610383
 50
32.8794295648917299
 51
86.4346915589213012
  0
ARC
  5
53BC
  8
0
 10
731.1110390762412408
 20
33.9318360006303834
 30
0.0
 40
4.6437007890578306
 50
221.0486186804990041
 51
223.809296330054309
  0
ARC
  5
53BD
  8
0
 10
731.1110390762412408
 20
33.9318360006303834
 30
0.0
 40
4.6437007890578306
 50
226.2113999624895087
 51
228.5845738573590893
  0
ARC
  5
53BE
  8
0
 10
731.1110390762412408
 20
33.9318360006303834
 30
0.0
 40
4.6437007890578306
 50
230.5233948448777994
 51
230.9771598601645906
  0
ARC
  5
53BF
  8
0
 10
731.1110390762412408
 20
33.9318360006303834
 30
0.0
 40
4.6437007890578306
 50
231.8395004606018119
 51
233.6480073723309943
  0
ARC
  5
53C0
  8
0
 10
731.1110390762412408
 20
33.9318360006303834
 30
0.0
 40
4.6437007890578306
 50
235.5591145428329867
 51
236.8213412806215104
  0
ARC
  5
53C1
  8
0
 10
731.1110390762412408
 20
33.9318360006303834
 30
0.0
 40
4.6437007890578306
 50
239.0676638277830932
 51
239.1008371893481979
  0
ARC
  5
53C2
  8
0
 10
731.1110390762412408
 20
33.9318360006303834
 30
0.0
 40
4.6437007890578306
 50
241.0049700046347994
 51
242.0000002750632007
  0
LINE
  5
53C3
  8
0
 10
727.9886088111386471
 20
30.5511321467060988
 30
0.0
 11
728.0056688105386229
 21
30.5764246360060987
 31
0.0
  0
LINE
  5
53C4
  8
0
 10
727.8567187629386126
 20
30.6212593293060884
 30
0.0
 11
727.8705580876386421
 21
30.6555128599061
 31
0.0
  0
LINE
  5
53C5
  8
0
 10
727.8657288474386178
 20
30.5965043256060909
 30
0.0
 11
727.9630476071384919
 21
30.544759023206101
 31
0.0
  0
ARC
  5
53C6
  8
0
 10
727.972289173838476
 20
30.5621398811060914
 30
0.0
 40
0.0196850394
 50
242.0000000000003979
 51
326.0000000000010232
  0
ARC
  5
53C7
  8
0
 10
727.8749704136386072
 20
30.6138851838061008
 30
0.0
 40
0.0196850394
 50
158.0000000000007958
 51
242.0000000000003979
  0
ARC
  5
53C8
  8
0
 10
727.6365063381617801
 20
30.1007168839032886
 30
0.0
 40
0.6021451622507934
 50
52.1875405832638322
 51
67.126580540547593
  0
LINE
  5
53C9
  8
0
 10
727.7298133760026531
 20
30.6887361204549407
 30
0.0
 11
727.7436527007027962
 21
30.7229896510549416
 31
0.0
  0
LINE
  5
53CA
  8
0
 10
727.6955150748857477
 20
30.6870085938530686
 30
0.0
 11
727.8361422202026461
 21
30.6122358143549391
 31
0.0
  0
ARC
  5
53CB
  8
0
 10
727.8453837869028575
 20
30.6296166722549401
 30
0.0
 40
0.0196850394
 50
242.0000000000003979
 51
300.3344335685657143
  0
ARC
  5
53CC
  8
0
 10
727.7480650267026476
 20
30.6813619749549389
 30
0.0
 40
0.0196850394
 50
158.0000000000007958
 51
242.0000000000003979
  0
ARC
  5
53CD
  8
0
 10
727.6055967841132315
 20
30.3102414987702886
 30
0.0
 40
0.4352246239814129
 50
52.4965362726021709
 51
71.5059529473862909
  0
LINE
  5
53CE
  8
0
 10
727.6865049904117768
 20
30.7117635975391892
 30
0.0
 11
727.70034431511192
 21
30.7460171281391794
 31
0.0
  0
ARC
  5
53CF
  8
0
 10
727.7047566411118851
 20
30.7043894520391802
 30
0.0
 40
0.0196850394
 50
158.0000000000007958
 51
242.0000000000003979
  0
ARC
  5
53D0
  8
0
 10
727.6895396388806603
 20
30.5726062934903595
 30
0.0
 40
0.1737471110610383
 50
73.4723060149496234
 51
86.4346915589213012
  0
LINE
  5
53D1
  8
0
 10
727.9689070867118517
 20
30.4456644814529511
 30
0.0
 11
727.9886684742587022
 21
30.4945756319396395
 31
0.0
  0
ARC
  5
53D2
  8
0
 10
727.9871587374118462
 20
30.43829033595296
 30
0.0
 40
0.0196850394
 50
158.0000000000007958
 51
242.0000000000003979
  0
LINE
  5
53D3
  8
0
 10
728.2656934358145691
 20
30.2071645075922
 30
0.0
 11
728.2825715328929164
 21
30.2489392637503585
 31
0.0
  0
ARC
  5
53D4
  8
0
 10
728.2839450865146773
 20
30.1997903620922017
 30
0.0
 40
0.0196850394
 50
158.0000000000007958
 51
242.0000000000003979
  0
LINE
  5
53D5
  8
0
 10
729.0704537954086391
 20
29.8599617247824014
 30
0.0
 11
729.0818823847008616
 21
29.8882484874339802
 31
0.0
  0
LINE
  5
53D6
  8
0
 10
729.2023438536568847
 20
29.7898345610805002
 30
0.0
 11
729.2230024609781367
 21
29.8204622154187611
 31
0.0
  0
LINE
  5
53D7
  8
0
 10
729.1767826510797477
 20
29.7834614336148817
 30
0.0
 11
729.0794638839919344
 21
29.8352067221203683
 31
0.0
  0
ARC
  5
53D8
  8
0
 10
729.088705447234247
 20
29.8525875818587991
 30
0.0
 40
0.0196850394
 50
158.0000081895564108
 51
242.000008189556695
  0
ARC
  5
53D9
  8
0
 10
729.186024214850363
 20
29.8008422931065411
 30
0.0
 40
0.0196850394
 50
242.000008189556695
 51
326.0000081895589119
  0
ARC
  5
53DA
  8
0
 10
729.0852802769794607
 20
29.7145346050580592
 30
0.0
 40
0.1737471110610382
 50
37.5653166306407229
 51
91.1205786246628548
  0
LINE
  5
53DB
  8
0
 10
728.9947720814712966
 20
29.7753630502976492
 30
0.0
 11
729.0062006707636328
 21
29.8036498129492315
 31
0.0
  0
LINE
  5
53DC
  8
0
 10
729.1266621397196559
 20
29.7052358865957409
 30
0.0
 11
729.1473207470409079
 21
29.7358635409340089
 31
0.0
  0
LINE
  5
53DD
  8
0
 10
729.1011009371425189
 20
29.6988627591301402
 30
0.0
 11
729.0037821700544782
 21
29.7506080476356303
 31
0.0
  0
ARC
  5
53DE
  8
0
 10
729.0130237332970182
 20
29.7679889073740611
 30
0.0
 40
0.0196850394
 50
158.0000081895564108
 51
242.000008189556695
  0
ARC
  5
53DF
  8
0
 10
729.1103425009132479
 20
29.7162436186218102
 30
0.0
 40
0.0196850394
 50
242.000008189556695
 51
326.0000081895589119
  0
ARC
  5
53E0
  8
0
 10
729.0095985630423456
 20
29.6299359305733105
 30
0.0
 40
0.1737471110610382
 50
37.5653166306407229
 51
91.1205786246628548
  0
LINE
  5
53E1
  8
0
 10
729.1338189571249586
 20
29.7014305405463617
 30
0.0
 11
729.1452475464172949
 21
29.7297173031979298
 31
0.0
  0
LINE
  5
53E2
  8
0
 10
729.2657090153733179
 20
29.6313033768444605
 30
0.0
 11
729.277712972915424
 21
29.6490999812607612
 31
0.0
  0
LINE
  5
53E3
  8
0
 10
729.2401478127961809
 20
29.6249302493788385
 30
0.0
 11
729.1428290457082539
 21
29.6766755378843214
 31
0.0
  0
ARC
  5
53E4
  8
0
 10
729.1520706089506803
 20
29.6940563976227594
 30
0.0
 40
0.0196850394
 50
158.0000081895564108
 51
242.000008189556695
  0
ARC
  5
53E5
  8
0
 10
729.2493893765667963
 20
29.6423111088705014
 30
0.0
 40
0.0196850394
 50
242.000008189556695
 51
326.0000081895589119
  0
ARC
  5
53E6
  8
0
 10
729.1486454386961213
 20
29.5560034208220088
 30
0.0
 40
0.1737471110610382
 50
79.5488974054231335
 51
91.1205786246628548
  0
LINE
  5
53E7
  8
0
 10
729.17818854291977
 20
29.7219822963663809
 30
0.0
 11
729.1896171322121063
 21
29.750269059017949
 31
0.0
  0
LINE
  5
53E8
  8
0
 10
729.310078601168243
 20
29.651855132664469
 30
0.0
 11
729.3307372084892677
 21
29.6824827870027192
 31
0.0
  0
LINE
  5
53E9
  8
0
 10
729.2845173985908787
 20
29.6454820051988612
 30
0.0
 11
729.1871986315030654
 21
29.6972272937043513
 31
0.0
  0
ARC
  5
53EA
  8
0
 10
729.1964401947454917
 20
29.7146081534427786
 30
0.0
 40
0.0196850394
 50
158.0000081895564108
 51
242.000008189556695
  0
ARC
  5
53EB
  8
0
 10
729.2937589623617214
 20
29.6628628646905312
 30
0.0
 40
0.0196850394
 50
242.000008189556695
 51
326.0000081895589119
  0
ARC
  5
53EC
  8
0
 10
729.1930150244909328
 20
29.5765551766420316
 30
0.0
 40
0.1737471110610382
 50
37.5653166306407229
 51
91.1205786246628548
  0
LINE
  5
53ED
  8
0
 10
729.2839244075462375
 20
29.8624006752168611
 30
0.0
 11
729.2953529968385737
 21
29.89068743786844
 31
0.0
  0
LINE
  5
53EE
  8
0
 10
729.4158144657945968
 20
29.7922735115149493
 30
0.0
 11
729.4364730731158488
 21
29.8229011658532102
 31
0.0
  0
LINE
  5
53EF
  8
0
 10
729.3902532632173461
 20
29.7859003840493308
 30
0.0
 11
729.2929344961295328
 21
29.8376456725548316
 31
0.0
  0
ARC
  5
53F0
  8
0
 10
729.3021760593718454
 20
29.8550265322932518
 30
0.0
 40
0.0196850394
 50
158.0000081895564108
 51
242.000008189556695
  0
ARC
  5
53F1
  8
0
 10
729.3994948269879615
 20
29.8032812435410008
 30
0.0
 40
0.0196850394
 50
242.000008189556695
 51
326.0000081895589119
  0
ARC
  5
53F2
  8
0
 10
729.2987508891171728
 20
29.7169735554925012
 30
0.0
 40
0.1737471110610382
 50
37.5653166306407229
 51
91.1205786246628548
  0
LINE
  5
53F3
  8
0
 10
729.3767566540094549
 20
29.6970976621047811
 30
0.0
 11
729.3881852433016775
 21
29.7253844247563705
 31
0.0
  0
LINE
  5
53F4
  8
0
 10
729.5086467122577005
 20
29.6269704984028905
 30
0.0
 11
729.5293053195789525
 21
29.6575981527411514
 31
0.0
  0
LINE
  5
53F5
  8
0
 10
729.4830855096804498
 20
29.6205973709372614
 30
0.0
 11
729.3857667425927502
 21
29.6723426594427586
 31
0.0
  0
ARC
  5
53F6
  8
0
 10
729.3950083058350629
 20
29.6897235191811788
 30
0.0
 40
0.0196850394
 50
158.0000081895564108
 51
242.000008189556695
  0
ARC
  5
53F7
  8
0
 10
729.4923270734511789
 20
29.6379782304289314
 30
0.0
 40
0.0196850394
 50
242.000008189556695
 51
326.0000081895589119
  0
ARC
  5
53F8
  8
0
 10
729.3915831355802766
 20
29.5516705423804389
 30
0.0
 40
0.1737471110610382
 50
37.5653166306407229
 51
91.1205786246628548
  0
LINE
  5
53F9
  8
0
 10
729.4008528058624279
 20
29.6035896485747401
 30
0.0
 11
729.4122813951546505
 21
29.6318764112263189
 31
0.0
  0
LINE
  5
53FA
  8
0
 10
729.5327428641106735
 20
29.5334624848728318
 30
0.0
 11
729.5534014714319255
 21
29.5640901392110891
 31
0.0
  0
LINE
  5
53FB
  8
0
 10
729.5886824387720253
 20
29.4837546403960289
 30
0.0
 11
729.4098628944457232
 21
29.5788346459127105
 31
0.0
  0
ARC
  5
53FC
  8
0
 10
729.4191044576881495
 20
29.5962155056511307
 30
0.0
 40
0.0196850394
 50
158.0000081895564108
 51
242.000008189556695
  0
ARC
  5
53FD
  8
0
 10
729.5164232253042655
 20
29.5444702168988691
 30
0.0
 40
0.0196850394
 50
242.000008189556695
 51
326.0000081895589119
  0
ARC
  5
53FE
  8
0
 10
729.3913909011934038
 20
29.4075980293295203
 30
0.0
 40
0.225249207155526
 50
44.0073777275995326
 51
84.6785175277059636
  0
LINE
  5
53FF
  8
0
 10
729.5899354644102459
 20
29.6996917662640385
 30
0.0
 11
729.6013640537025822
 21
29.7279785289156209
 31
0.0
  0
LINE
  5
5400
  8
0
 10
729.7218255226583778
 20
29.6295646025621302
 30
0.0
 11
729.7424841299797436
 21
29.6601922569003911
 31
0.0
  0
LINE
  5
5401
  8
0
 10
729.6962643200813545
 20
29.6231914750965117
 30
0.0
 11
729.5989455529935412
 21
29.6749367636020089
 31
0.0
  0
ARC
  5
5402
  8
0
 10
729.6081871162359676
 20
29.6923176233404291
 30
0.0
 40
0.0196850394
 50
158.0000081895564108
 51
242.000008189556695
  0
ARC
  5
5403
  8
0
 10
729.7055058838520836
 20
29.6405723345881711
 30
0.0
 40
0.0196850394
 50
242.000008189556695
 51
326.0000081895589119
  0
ARC
  5
5404
  8
0
 10
729.6047619459811813
 20
29.5542646465396786
 30
0.0
 40
0.1737471110610382
 50
37.5653166306407229
 51
91.1205786246628548
  0
LINE
  5
5405
  8
0
 10
729.8527131152850416
 20
29.5599704589871202
 30
0.0
 11
729.8641417045772641
 21
29.588257221638699
 31
0.0
  0
LINE
  5
5406
  8
0
 10
729.9846031735332872
 20
29.4898432952852083
 30
0.0
 11
730.0052617808545392
 21
29.5204709496234692
 31
0.0
  0
LINE
  5
5407
  8
0
 10
729.9590419709561502
 20
29.4834701678195898
 30
0.0
 11
729.8617232038683369
 21
29.5352154563250906
 31
0.0
  0
ARC
  5
5408
  8
0
 10
729.8709647671106495
 20
29.5525963160635285
 30
0.0
 40
0.0196850394
 50
158.0000081895564108
 51
242.000008189556695
  0
ARC
  5
5409
  8
0
 10
729.9682835347268792
 20
29.5008510273112705
 30
0.0
 40
0.0196850394
 50
242.000008189556695
 51
326.0000081895589119
  0
ARC
  5
540A
  8
0
 10
729.8675395968558632
 20
29.4145433392627709
 30
0.0
 40
0.1737471110610382
 50
37.5653166306407229
 51
91.1205786246628548
  0
LINE
  5
540B
  8
0
 10
729.7894373781924742
 20
29.4776715044780708
 30
0.0
 11
729.8008659674849241
 21
29.505958267129639
 31
0.0
  0
LINE
  5
540C
  8
0
 10
729.9213274364409472
 20
29.407544340776159
 30
0.0
 11
729.9419860437620855
 21
29.4381719951144198
 31
0.0
  0
LINE
  5
540D
  8
0
 10
729.9523687145460826
 20
29.3710751508481991
 30
0.0
 11
729.7984474667758832
 21
29.4529165018160413
 31
0.0
  0
ARC
  5
540E
  8
0
 10
729.8076890300181958
 20
29.4702973615544614
 30
0.0
 40
0.0196850394
 50
158.0000081895564108
 51
242.000008189556695
  0
ARC
  5
540F
  8
0
 10
729.9050077976344255
 20
29.4185520728021999
 30
0.0
 40
0.0196850394
 50
242.000008189556695
 51
326.0000081895589119
  0
ARC
  5
5410
  8
0
 10
729.8042638597636369
 20
29.3322443847537109
 30
0.0
 40
0.1737471110610382
 50
37.5653166306407229
 51
91.1205786246628548
  0
LINE
  5
5411
  8
0
 10
729.626464623619313
 20
29.5643256252632689
 30
0.0
 11
729.6378932129116492
 21
29.5926123879148406
 31
0.0
  0
LINE
  5
5412
  8
0
 10
729.7583546818675586
 20
29.4941984615613606
 30
0.0
 11
729.7790132891889243
 21
29.5248261158996215
 31
0.0
  0
LINE
  5
5413
  8
0
 10
729.7327934792904216
 20
29.4878253340957315
 30
0.0
 11
729.6354747122026083
 21
29.5395706226012287
 31
0.0
  0
ARC
  5
5414
  8
0
 10
729.6447162754450346
 20
29.5569514823396595
 30
0.0
 40
0.0196850394
 50
158.0000081895564108
 51
242.000008189556695
  0
ARC
  5
5415
  8
0
 10
729.7420350430611506
 20
29.5052061935874015
 30
0.0
 40
0.0196850394
 50
242.000008189556695
 51
326.0000081895589119
  0
ARC
  5
5416
  8
0
 10
729.6412911051902483
 20
29.4188985055389089
 30
0.0
 40
0.1737471110610382
 50
37.5653166306407229
 51
91.1205786246628548
  0
ARC
  5
5417
  8
0
 10
731.1110385295554579
 20
33.9318362913082368
 30
0.0
 40
4.6437007890578297
 50
260.1907118595025281
 51
262.951389509056014
  0
ARC
  5
5418
  8
0
 10
731.1110385295554579
 20
33.9318362913082368
 30
0.0
 40
4.6437007890578297
 50
255.4154343322007037
 51
257.788608227063321
  0
ARC
  5
5419
  8
0
 10
731.1110385295554579
 20
33.9318362913082368
 30
0.0
 40
4.6437007890578297
 50
253.0228483293950887
 51
253.4766133446811978
  0
ARC
  5
541A
  8
0
 10
731.1110385295554579
 20
33.9318362913082368
 30
0.0
 40
4.6437007890578297
 50
250.3520008172241944
 51
252.1605077289516998
  0
ARC
  5
541B
  8
0
 10
731.1110385295554579
 20
33.9318362913082368
 30
0.0
 40
4.6437007890578297
 50
247.1786669089358099
 51
248.4408936467187061
  0
ARC
  5
541C
  8
0
 10
731.1110385295554579
 20
33.9318362913082368
 30
0.0
 40
4.6437007890578297
 50
244.8991710002098898
 51
244.9323443617741987
  0
ARC
  5
541D
  8
0
 10
731.1110385295554579
 20
33.9318362913082368
 30
0.0
 40
4.6437007890578297
 50
242.0000079144938923
 51
242.9950381849226915
  0
LINE
  5
541E
  8
0
 10
730.0543494990140516
 20
29.4527585289669389
 30
0.0
 11
730.0657780883063879
 21
29.4810452916185106
 31
0.0
  0
LINE
  5
541F
  8
0
 10
730.1862395572624109
 20
29.3826313652650306
 30
0.0
 11
730.2068981645835493
 21
29.4132590196032915
 31
0.0
  0
LINE
  5
5420
  8
0
 10
730.1606783546850465
 20
29.3762582377994086
 30
0.0
 11
730.0633595875973469
 21
29.4280035263049093
 31
0.0
  0
ARC
  5
5421
  8
0
 10
730.0726011508396596
 20
29.4453843860433295
 30
0.0
 40
0.0196850394
 50
158.0000081895564108
 51
242.000008189556695
  0
ARC
  5
5422
  8
0
 10
730.1699199184557756
 20
29.3936390972910715
 30
0.0
 40
0.0196850394
 50
242.000008189556695
 51
326.0000081895589119
  0
ARC
  5
5423
  8
0
 10
729.8778316048058059
 20
28.9089833056748695
 30
0.0
 40
0.6021451622507933
 50
56.8734276490083275
 51
71.8124676062957832
  0
LINE
  5
5424
  8
0
 10
730.3131449538317383
 20
29.3151545922342116
 30
0.0
 11
730.3338035611528767
 21
29.3457822465724689
 31
0.0
  0
LINE
  5
5425
  8
0
 10
730.3308921401593352
 20
29.2857539938537315
 30
0.0
 11
730.1902649841666744
 21
29.3605267532740903
 31
0.0
  0
ARC
  5
5426
  8
0
 10
730.199506547408987
 20
29.3779076130125105
 30
0.0
 40
0.0196850394
 50
183.6655746209891902
 51
242.000008189556695
  0
ARC
  5
5427
  8
0
 10
730.2968253150252167
 20
29.3261623242602489
 30
0.0
 40
0.0196850394
 50
242.000008189556695
 51
326.0000081895589119
  0
ARC
  5
5428
  8
0
 10
730.0688197730949014
 20
29.0005228290525991
 30
0.0
 40
0.4352246239814129
 50
52.4940552421680025
 51
71.503471916954183
  0
LINE
  5
5429
  8
0
 10
730.3564533427103243
 20
29.292127121333241
 30
0.0
 11
730.3771119500314626
 21
29.3227547756714984
 31
0.0
  0
ARC
  5
542A
  8
0
 10
730.3401337039039163
 20
29.303134853359289
 30
0.0
 40
0.0196850394
 50
242.000008189556695
 51
326.0000081895589119
  0
ARC
  5
542B
  8
0
 10
730.239389766033014
 20
29.2168271653108
 30
0.0
 40
0.1737471110610382
 50
37.5653166306407229
 51
50.52770217460791
  0
LINE
  5
542C
  8
0
 10
729.9779299170795639
 20
29.3774482782948105
 30
0.0
 11
730.0074286646198516
 21
29.4211819835261394
 31
0.0
  0
ARC
  5
542D
  8
0
 10
729.9616102782731559
 20
29.3884560103208514
 30
0.0
 40
0.0196850394
 50
242.000008189556695
 51
326.0000081895589119
  0
LINE
  5
542E
  8
0
 10
729.6142436413243786
 20
29.4901277678782705
 30
0.0
 11
729.6394383663148346
 21
29.5274804952983416
 31
0.0
  0
ARC
  5
542F
  8
0
 10
729.5979240025180843
 20
29.5011354999043114
 30
0.0
 40
0.0196850394
 50
242.000008189556695
 51
326.0000081895589119
  0
LINE
  5
5430
  8
0
 10
729.0059135187385664
 20
29.8135825079560988
 30
0.0
 11
729.0229735181385422
 21
29.8388749972560987
 31
0.0
  0
LINE
  5
5431
  8
0
 10
728.8740234705386456
 20
29.883709690556099
 30
0.0
 11
728.8878627952384477
 21
29.9179632211560893
 31
0.0
  0
LINE
  5
5432
  8
0
 10
728.8830335550386508
 20
29.8589546868561015
 30
0.0
 11
728.9803523147386386
 21
29.8072093844560904
 31
0.0
  0
ARC
  5
5433
  8
0
 10
728.9895938814386227
 20
29.8245902423560914
 30
0.0
 40
0.0196850394
 50
242.0000000000003979
 51
326.0000000000010232
  0
ARC
  5
5434
  8
0
 10
728.8922751212386402
 20
29.8763355450561008
 30
0.0
 40
0.0196850394
 50
158.0000000000007958
 51
242.0000000000003979
  0
ARC
  5
5435
  8
0
 10
728.8533329076333303
 20
29.7040213149817909
 30
0.0
 40
0.2167105266375469
 50
38.4825050721669299
 51
80.8316160516422428
  0
LINE
  5
5436
  8
0
 10
729.0874241325885805
 20
29.9668816766561008
 30
0.0
 11
729.1044841319885563
 21
29.9921741659560901
 31
0.0
  0
LINE
  5
5437
  8
0
 10
728.955534084388546
 20
30.0370088592560904
 30
0.0
 11
728.9693734090884618
 21
30.0712623898560913
 31
0.0
  0
LINE
  5
5438
  8
0
 10
728.9645441688885512
 20
30.0122538555560894
 30
0.0
 11
729.0618629285886527
 21
29.9605085531560995
 31
0.0
  0
ARC
  5
5439
  8
0
 10
729.0711044952886368
 20
29.9778894110561005
 30
0.0
 40
0.0196850394
 50
242.0000000000003979
 51
326.0000000000010232
  0
ARC
  5
543A
  8
0
 10
728.9737857350885406
 20
30.0296347137560993
 30
0.0
 40
0.0196850394
 50
158.0000000000007958
 51
242.0000000000003979
  0
ARC
  5
543B
  8
0
 10
728.9585687328575432
 20
29.8978515552072786
 30
0.0
 40
0.1737471110610383
 50
32.8794295648917299
 51
86.4346915589213012
  0
ARC
  5
543C
  8
0
 10
734.5633753204999721
 20
6.4163801345376221
 30
0.0
 40
11.2885899926112891
 50
90.9415103565660985
 51
92.600812666318717
  0
ARC
  5
543D
  8
0
 10
734.1066573887529785
 20
16.3356266892086417
 30
0.0
 40
1.358850304946394
 50
92.3419080286050047
 51
104.8113046983440029
  0
ARC
  5
543E
  8
0
 10
733.8545867082398217
 20
17.2545194917946105
 30
0.0
 40
0.4061462977321277
 50
103.5708243293458963
 51
136.7446613581454073
  0
ARC
  5
543F
  8
0
 10
733.8660991177442838
 20
17.2607527887488317
 30
0.0
 40
0.4104477126624519
 50
138.4798827713090077
 51
171.8522356858271962
  0
ARC
  5
5440
  8
0
 10
734.6384892696391944
 20
17.1228621891643904
 30
0.0
 40
1.194889776617043
 50
170.5559917918259032
 51
179.4504589496038136
  0
ARC
  5
5441
  8
0
 10
734.3712615464108922
 20
15.2286624736699103
 30
0.0
 40
2.4421739085847292
 50
90.1392486590301729
 51
96.4105866052494065
  0
ARC
  5
5442
  8
0
 10
734.1930292742565598
 20
16.7591156755173003
 30
0.0
 40
0.9014116650288142
 50
96.0140286931386271
 51
110.620612428581893
  0
ARC
  5
5443
  8
0
 10
734.0035316782675636
 20
17.2490812987592186
 30
0.0
 40
0.3761304143085549
 50
109.8891462327106012
 51
147.610948944972705
  0
ARC
  5
5444
  8
0
 10
734.112544221338112
 20
17.2037418942810589
 30
0.0
 40
0.4928810152676603
 50
149.9491191036910038
 51
174.7402361524221135
  0
ARC
  5
5445
  8
0
 10
773.5161697758885566
 20
14.9931932108040602
 30
0.0
 40
39.9581526960334088
 50
176.7637979942381889
 51
176.9283750684894869
  0
ARC
  5
5446
  8
0
 10
734.3656987272646575
 20
16.6371868785523596
 30
0.0
 40
0.0393726893272089
 50
269.4579144418244141
 51
352.4544944745838961
  0
ARC
  5
5447
  8
0
 10
736.0322489907224508
 20
84.1619238732351675
 30
0.0
 40
67.6172679427189252
 50
267.7173644027050159
 51
268.5876147946175934
  0
ARC
  5
5448
  8
0
 10
734.1374943758286236
 20
18.0820037596202994
 30
0.0
 40
1.510791007654666
 50
255.5024725370747944
 51
266.7211448167823846
  0
ARC
  5
5449
  8
0
 10
733.8545867082398217
 20
17.0141256294175811
 30
0.0
 40
0.4061462977321277
 50
223.2553386418545927
 51
256.4291756706541037
  0
ARC
  5
544A
  8
0
 10
733.8660991177442838
 20
17.00789233246336
 30
0.0
 40
0.4104477126624519
 50
188.1477643141722922
 51
221.5201172286909923
  0
ARC
  5
544B
  8
0
 10
734.6384892696391944
 20
17.1457829320478012
 30
0.0
 40
1.194889776617043
 50
180.5495410503957885
 51
189.4440082081740115
  0
ARC
  5
544C
  8
0
 10
734.3712615464108922
 20
19.0399826475422707
 30
0.0
 40
2.4421739085847292
 50
263.5894133947505793
 51
269.8607513409633043
  0
ARC
  5
544D
  8
0
 10
734.1930292742565598
 20
17.5095294456948913
 30
0.0
 40
0.9014116650288142
 50
249.379387571418107
 51
263.9859713068613019
  0
ARC
  5
544E
  8
0
 10
734.0035316782675636
 20
17.0195638224529695
 30
0.0
 40
0.3761304143085549
 50
212.389051055027295
 51
250.1108537672893988
  0
ARC
  5
544F
  8
0
 10
734.112544221338112
 20
17.0649032269311292
 30
0.0
 40
0.4928810152676603
 50
185.2597638475774033
 51
210.0508808963089962
  0
ARC
  5
5450
  8
0
 10
773.5161697758885566
 20
19.2754519104081297
 30
0.0
 40
39.9581526960334088
 50
183.0716249315103994
 51
183.2362020057612995
  0
ARC
  5
5451
  8
0
 10
734.3659229202747838
 20
16.6047044626472093
 30
0.0
 40
0.0395067190736093
 50
269.531569663309881
 51
352.2835187517156896
  0
ARC
  5
5453
  8
0
 10
733.8432801337844467
 20
24.5721421701056606
 30
0.0
 40
0.0571862895571704
 50
166.7872045780144958
 51
225.6755554307152067
  0
ARC
  5
5454
  8
0
 10
733.8117785771553372
 20
24.5783125808663883
 30
0.0
 40
0.0251366208675435
 50
121.241630237437704
 51
164.0664552461919072
  0
ARC
  5
5455
  8
0
 10
733.821872998730214
 20
24.5523471565895086
 30
0.0
 40
0.0281066071361057
 50
228.7008307880236089
 51
268.1165740291452266
  0
ARC
  5
5456
  8
0
 10
734.5810327331304279
 20
24.7976957754204683
 30
0.0
 40
0.0571862895571704
 50
348.3244446216849042
 51
47.2127954743829932
  0
ARC
  5
5457
  8
0
 10
734.6036982572403531
 20
24.8204267247152792
 30
0.0
 40
0.0251366208675435
 50
49.9335448062062
 51
92.758366206863414
  0
ARC
  5
5458
  8
0
 10
734.6098492834975104
 20
24.793255683498689
 30
0.0
 40
0.0281066071361057
 50
305.8834236192495837
 51
345.2991692643747115
  0
LINE
  5
5459
  8
0
 10
731.3953372324385782
 20
16.3154249229060895
 30
0.0
 11
731.3953372324385782
 21
15.9532198937061001
 31
0.0
  0
LINE
  5
545A
  8
0
 10
731.3988145926384732
 20
15.9630630273061005
 30
0.0
 11
731.3988145926384732
 21
16.3055817849060887
 31
0.0
  0
LINE
  5
545B
  8
0
 10
731.4005126658386189
 20
16.3055821692061009
 30
0.0
 11
731.4005126658386189
 21
15.9630626430061007
 31
0.0
  0
LINE
  5
545C
  8
0
 10
731.4189441546385524
 20
16.3154251144649614
 30
0.0
 11
731.4189441546385524
 21
15.9532198937061001
 31
0.0
  0
LINE
  5
545D
  8
0
 10
731.4238828571385511
 20
15.9630630273061005
 30
0.0
 11
731.4238828571385511
 21
16.3055817849060887
 31
0.0
  0
LINE
  5
545E
  8
0
 10
731.4257198224386229
 20
16.3055821692061009
 30
0.0
 11
731.4257198224386229
 21
15.9630626430061007
 31
0.0
  0
LINE
  5
545F
  8
0
 10
731.4444819792385033
 20
16.3154251144649614
 30
0.0
 11
731.4444819792385033
 21
15.9532198937061001
 31
0.0
  0
LINE
  5
5460
  8
0
 10
731.4508515753385609
 20
15.9630630273061005
 30
0.0
 11
731.4508515753385609
 21
16.3055817849060993
 31
0.0
  0
LINE
  5
5461
  8
0
 10
731.4528161071384602
 20
16.3055817849060887
 30
0.0
 11
731.4528161071384602
 21
15.9630626430061007
 31
0.0
  0
LINE
  5
5462
  8
0
 10
731.4717932570385983
 20
16.3154249229060895
 30
0.0
 11
731.4717932570385983
 21
15.9532198937061001
 31
0.0
  0
LINE
  5
5463
  8
0
 10
731.4795544760386292
 20
15.9630630273061005
 30
0.0
 11
731.4795544760386292
 21
16.3055817849060993
 31
0.0
  0
LINE
  5
5464
  8
0
 10
731.4816344623386613
 20
16.3055821692061009
 30
0.0
 11
731.4816344623386613
 21
15.9630626430061007
 31
0.0
  0
LINE
  5
5465
  8
0
 10
731.5007096048384483
 20
16.3154249229060895
 30
0.0
 11
731.500709604838562
 21
15.9532198937061001
 31
0.0
  0
LINE
  5
5466
  8
0
 10
731.5098145962385843
 20
15.9630630273061005
 30
0.0
 11
731.5098145962385843
 21
16.3055817849060887
 31
0.0
  0
LINE
  5
5467
  8
0
 10
731.5119972133386455
 20
16.3055821692061009
 30
0.0
 11
731.5119972133386455
 21
15.9630626430061007
 31
0.0
  0
LINE
  5
5468
  8
0
 10
731.5310527438384725
 20
16.3154249229060895
 30
0.0
 11
731.5310527438384725
 21
15.9532198937061001
 31
0.0
  0
LINE
  5
5469
  8
0
 10
731.541445372338444
 20
15.9630630273061005
 30
0.0
 11
731.541445372338444
 21
16.3055817849060887
 31
0.0
  0
LINE
  5
546A
  8
0
 10
731.5437171636385756
 20
16.3055821692061009
 30
0.0
 11
731.5437171636385756
 21
15.9630626430061007
 31
0.0
  0
LINE
  5
546B
  8
0
 10
731.5626355985385771
 20
16.3154249229060895
 30
0.0
 11
731.5626355985385771
 21
15.9532198937061001
 31
0.0
  0
LINE
  5
546C
  8
0
 10
731.5742517901386464
 20
15.9630630273061005
 30
0.0
 11
731.5742517901385327
 21
16.3055817849060993
 31
0.0
  0
LINE
  5
546D
  8
0
 10
731.5765987492386557
 20
16.3055821692061009
 30
0.0
 11
731.5765987492386557
 21
15.9630626430061007
 31
0.0
  0
LINE
  5
546E
  8
0
 10
731.5952634500384875
 20
16.3154249229060895
 30
0.0
 11
731.5952634500384875
 21
15.9532198937061001
 31
0.0
  0
LINE
  5
546F
  8
0
 10
731.6080315869386368
 20
15.9630630273061005
 30
0.0
 11
731.6080315869386368
 21
16.3055817849060993
 31
0.0
  0
LINE
  5
5470
  8
0
 10
731.6104392441386608
 20
16.3055821692061009
 30
0.0
 11
731.6104392441386608
 21
15.9630626430061007
 31
0.0
  0
LINE
  5
5471
  8
0
 10
731.6287351367385554
 20
16.3154249229060895
 30
0.0
 11
731.6287351367385554
 21
15.9532198937061001
 31
0.0
  0
LINE
  5
5472
  8
0
 10
731.6425764993384746
 20
15.9630630273061005
 30
0.0
 11
731.6425764993384746
 21
16.3055817849060993
 31
0.0
  0
LINE
  5
5473
  8
0
 10
731.6450300105384486
 20
16.3055821692061009
 30
0.0
 11
731.6450300105384486
 21
15.9630626430061007
 31
0.0
  0
LINE
  5
5474
  8
0
 10
731.6628442946384894
 20
16.3154249229060895
 30
0.0
 11
731.6628442946384894
 21
15.9532198937061001
 31
0.0
  0
LINE
  5
5475
  8
0
 10
731.6776735462385659
 20
15.9630630273061005
 30
0.0
 11
731.6776735462385659
 21
16.3055817849060887
 31
0.0
  0
LINE
  5
5476
  8
0
 10
731.6801577847386397
 20
16.3055821691060885
 30
0.0
 11
731.6801577847386397
 21
15.9630626431061007
 31
0.0
  0
LINE
  5
5477
  8
0
 10
731.6973806295386566
 20
16.3154249229060895
 30
0.0
 11
731.6973806295386566
 21
15.9532198937061001
 31
0.0
  0
LINE
  5
5478
  8
0
 10
731.7131063427384561
 20
15.9630630272060898
 30
0.0
 11
731.7131063427384561
 21
16.3055817850061011
 31
0.0
  0
LINE
  5
5479
  8
0
 10
731.7156059925385989
 20
16.3055821691060885
 30
0.0
 11
731.7156059925385989
 21
15.9630626431061007
 31
0.0
  0
LINE
  5
547A
  8
0
 10
731.2892178744385774
 20
15.8744800410060893
 30
0.0
 11
732.1750445521386155
 21
15.8744800410060893
 31
0.0
  0
LINE
  5
547B
  8
0
 10
732.1750445521386155
 20
15.9532201985060897
 30
0.0
 11
731.289217874338533
 21
15.9532201985060897
 31
0.0
  0
LINE
  5
547C
  8
0
 10
731.2796770337386079
 20
15.9630627181060891
 30
0.0
 11
731.2797752452386248
 21
15.9630627181060891
 31
0.0
  0
LINE
  5
547D
  8
0
 10
731.2823683529385335
 20
15.9630627181060891
 30
0.0
 11
731.282662381938394
 21
15.9630627181060891
 31
0.0
  0
LINE
  5
547E
  8
0
 10
731.2878326101385937
 20
15.9630627181060891
 30
0.0
 11
731.2883206438384605
 21
15.9630627181060891
 31
0.0
  0
LINE
  5
547F
  8
0
 10
731.2960361161384526
 20
15.9630627181060891
 30
0.0
 11
731.2967151457385171
 21
15.9630627181060891
 31
0.0
  0
LINE
  5
5480
  8
0
 10
731.3069282938386095
 20
15.9630627181060891
 30
0.0
 11
731.3077941327385361
 21
15.9630627181060891
 31
0.0
  0
LINE
  5
5481
  8
0
 10
731.3204419891385442
 20
15.9630627181060891
 30
0.0
 11
731.3214892992385785
 21
15.9630627181060891
 31
0.0
  0
LINE
  5
5482
  8
0
 10
731.3364938857386051
 20
15.9630627181060891
 30
0.0
 11
731.3377162100385931
 21
15.9630627181060891
 31
0.0
  0
LINE
  5
5483
  8
0
 10
731.3549850182384944
 20
15.9630627181060891
 30
0.0
 11
731.3563748207385515
 21
15.9630627181060891
 31
0.0
  0
LINE
  5
5484
  8
0
 10
731.3758013828385174
 20
15.9630627181060891
 30
0.0
 11
731.3773500948385617
 21
15.9630627181060891
 31
0.0
  0
LINE
  5
5485
  8
0
 10
731.289217874338533
 20
16.3154249229060895
 30
0.0
 11
732.1750445521386155
 21
16.3154249229060895
 31
0.0
  0
LINE
  5
5486
  8
0
 10
732.1750445521386155
 20
16.3941650804061005
 30
0.0
 11
731.2892178744385774
 21
16.3941650804061005
 31
0.0
  0
LINE
  5
5487
  8
0
 10
731.2796770337386079
 20
15.9630627181060891
 30
0.0
 11
731.2796770337386079
 21
16.3055820941061
 31
0.0
  0
LINE
  5
5488
  8
0
 10
731.2797752452386248
 20
16.3055820941061
 30
0.0
 11
731.2797752453412841
 21
15.96306271822003
 31
0.0
  0
LINE
  5
5489
  8
0
 10
731.2823683529385335
 20
15.9630627181060891
 30
0.0
 11
731.2823683529385335
 21
16.3055820941061
 31
0.0
  0
LINE
  5
548A
  8
0
 10
731.282662381938394
 20
16.3055820941061
 30
0.0
 11
731.2826623819224778
 21
15.9630627181426199
 31
0.0
  0
LINE
  5
548B
  8
0
 10
731.2878326101385937
 20
15.9630627181060891
 30
0.0
 11
731.2878326101385937
 21
16.3055820941061
 31
0.0
  0
LINE
  5
548C
  8
0
 10
731.2883206438384605
 20
16.3055820941061
 30
0.0
 11
731.2883206438324351
 21
15.9630627180263893
 31
0.0
  0
LINE
  5
548D
  8
0
 10
731.289217874338533
 20
16.3941650804061005
 30
0.0
 11
731.289217874338533
 21
16.3154249229060895
 31
0.0
  0
LINE
  5
548E
  8
0
 10
731.289217874338533
 20
15.9532201985060897
 30
0.0
 11
731.289217874338533
 21
15.8744800410060893
 31
0.0
  0
LINE
  5
548F
  8
0
 10
731.2960361161384526
 20
15.9630627181060891
 30
0.0
 11
731.2960361161384526
 21
16.3055820941061
 31
0.0
  0
LINE
  5
5490
  8
0
 10
731.2967151457385171
 20
16.3055820941061
 30
0.0
 11
731.2967151457545469
 21
15.9630627180409999
 31
0.0
  0
LINE
  5
5491
  8
0
 10
731.3069282938386095
 20
15.9630627181060891
 30
0.0
 11
731.3069282938386095
 21
16.3055820941061
 31
0.0
  0
LINE
  5
5492
  8
0
 10
731.3077941327385361
 20
16.3055820941061
 30
0.0
 11
731.3077941327568396
 21
15.96306271814049
 31
0.0
  0
LINE
  5
5493
  8
0
 10
731.3204419891385442
 20
15.9630627181060891
 30
0.0
 11
731.3204419891385442
 21
16.3055820941061
 31
0.0
  0
LINE
  5
5494
  8
0
 10
731.3214892992385785
 20
16.3055820941061
 30
0.0
 11
731.3214892992539262
 21
15.9630627181148395
 31
0.0
  0
LINE
  5
5495
  8
0
 10
731.3246509452385453
 20
16.4847162614060991
 30
0.0
 11
731.3246509452385453
 21
16.3941650804061005
 31
0.0
  0
LINE
  5
5496
  8
0
 10
731.3364938857386051
 20
15.9630627181060891
 30
0.0
 11
731.3364938857386051
 21
16.3055820941061
 31
0.0
  0
LINE
  5
5497
  8
0
 10
731.3377162100385931
 20
16.3055820941061
 30
0.0
 11
731.3377162100547366
 21
15.9630627180901996
 31
0.0
  0
LINE
  5
5498
  8
0
 10
731.3549850182876071
 20
15.9630627181099207
 30
0.0
 11
731.3549850182384944
 21
16.3055820941061
 31
0.0
  0
LINE
  5
5499
  8
0
 10
731.3563748207385515
 20
16.3055820941061
 30
0.0
 11
731.3563748207108119
 21
15.9630627181037301
 31
0.0
  0
LINE
  5
549A
  8
0
 10
731.3738068040386224
 20
16.3154246138061794
 30
0.0
 11
731.3738068040598819
 21
15.9532201985589506
 31
0.0
  0
LINE
  5
549B
  8
0
 10
731.375801382795089
 20
15.9630627181696099
 30
0.0
 11
731.3758013828385174
 21
16.3055820941061
 31
0.0
  0
LINE
  5
549C
  8
0
 10
731.3773500948385617
 20
16.3055820941061
 30
0.0
 11
731.3773500948385617
 21
15.9630627181060891
 31
0.0
  0
ARC
  5
549D
  8
0
 10
728.2083149041707202
 20
16.1178198259197387
 30
0.0
 40
3.1504733881096021
 50
357.0051612692030858
 51
357.1843917304112779
  0
ARC
  5
549E
  8
0
 10
730.5561422455768934
 20
16.1240426315194583
 30
0.0
 40
0.8353176843685726
 50
348.1997712466524035
 51
348.8886124838871865
  0
ARC
  5
549F
  8
0
 10
731.7169259160485808
 20
16.5899389837271514
 30
0.0
 40
0.7326485197768706
 50
238.8294364370883045
 51
240.3501042726452113
  0
ARC
  5
54A0
  8
0
 10
731.6930128376144467
 20
16.5491840555688086
 30
0.0
 40
0.6939509793901339
 50
237.6306991094000978
 51
239.1819122945566107
  0
ARC
  5
54A1
  8
0
 10
731.6695856834412552
 20
16.5029612727007091
 30
0.0
 40
0.6499104364550812
 50
236.1735555859831095
 51
237.7654897044714915
  0
ARC
  5
54A2
  8
0
 10
731.650090538288282
 20
16.4570306671349087
 30
0.0
 40
0.6073536883295688
 50
234.4207813542840029
 51
236.049197925477614
  0
ARC
  5
54A3
  8
0
 10
731.6328906864213195
 20
16.4091958814520815
 30
0.0
 40
0.5637049881654086
 50
232.3193694476067037
 51
233.9876841394639939
  0
ARC
  5
54A4
  8
0
 10
731.6194884588244349
 20
16.3617521796481391
 30
0.0
 40
0.5219244129325724
 50
229.8077676775712064
 51
231.5122891455766876
  0
ARC
  5
54A5
  8
0
 10
731.610281696245238
 20
16.3151335774069892
 30
0.0
 40
0.4828958522558467
 50
226.8095221529736989
 51
228.5440269161229025
  0
ARC
  5
54A6
  8
0
 10
731.6388672812020104
 20
16.1996400308545603
 30
0.0
 40
0.4233133179996743
 50
213.9777191191874977
 51
215.5999045117524986
  0
ARC
  5
54A7
  8
0
 10
731.611283044488232
 20
16.2292357786305104
 30
0.0
 40
0.4231228810477455
 50
218.981393991869794
 51
220.7174749427819904
  0
ARC
  5
54A8
  8
0
 10
731.7432086942686738
 20
16.6278220764776101
 30
0.0
 40
0.769119919292792
 50
239.804205073197295
 51
241.2955468497337108
  0
LINE
  5
54A9
  8
0
 10
731.2960361161384526
 20
15.9630627181060891
 30
0.0
 11
731.301455187048532
 21
15.9532201985060897
 31
0.0
  0
LINE
  5
54AA
  8
0
 10
731.3069282938386095
 20
15.9630627181060891
 30
0.0
 11
731.3108951455903934
 21
15.9532201985060897
 31
0.0
  0
LINE
  5
54AB
  8
0
 10
731.3204419891385442
 20
15.9630627181060891
 30
0.0
 11
731.3229326483232171
 21
15.9532201985060897
 31
0.0
  0
LINE
  5
54AC
  8
0
 10
731.3364938857386051
 20
15.9630627181060891
 30
0.0
 11
731.337492032497039
 21
15.9532201985060897
 31
0.0
  0
LINE
  5
54AD
  8
0
 10
731.2796770337386079
 20
16.3055820941061
 30
0.0
 11
731.2797752452386248
 21
16.3055820941061
 31
0.0
  0
LINE
  5
54AE
  8
0
 10
731.2823683529385335
 20
16.3055820941061
 30
0.0
 11
731.282662381938394
 21
16.3055820941061
 31
0.0
  0
LINE
  5
54AF
  8
0
 10
731.2878326101385937
 20
16.3055820941061
 30
0.0
 11
731.2883206438384605
 21
16.3055820941061
 31
0.0
  0
LINE
  5
54B0
  8
0
 10
731.2960361161384526
 20
16.3055820941061
 30
0.0
 11
731.2967151457385171
 21
16.3055820941061
 31
0.0
  0
LINE
  5
54B1
  8
0
 10
731.3069282938386095
 20
16.3055820941061
 30
0.0
 11
731.3077941327385361
 21
16.3055820941061
 31
0.0
  0
LINE
  5
54B2
  8
0
 10
731.3204419891385442
 20
16.3055820941061
 30
0.0
 11
731.3214892992385785
 21
16.3055820941061
 31
0.0
  0
LINE
  5
54B3
  8
0
 10
731.3364938857386051
 20
16.3055820941061
 30
0.0
 11
731.3377162100385931
 21
16.3055820941061
 31
0.0
  0
LINE
  5
54B4
  8
0
 10
731.3549850182384944
 20
16.3055820941061
 30
0.0
 11
731.3563748207385515
 21
16.3055820941061
 31
0.0
  0
LINE
  5
54B5
  8
0
 10
731.3758013828385174
 20
16.3055820941061
 30
0.0
 11
731.3773500948385617
 21
16.3055820941061
 31
0.0
  0
ARC
  5
54B6
  8
0
 10
728.2083149041707202
 20
16.1508249862924487
 30
0.0
 40
3.1504733881096021
 50
2.815608269588322
 51
2.9948387307969182
  0
ARC
  5
54B7
  8
0
 10
730.5561422455768934
 20
16.1446021806927291
 30
0.0
 40
0.8353176843685726
 50
11.1113875161127797
 51
11.8002287533475805
  0
ARC
  5
54B8
  8
0
 10
731.7169259160485808
 20
15.6787058284850396
 30
0.0
 40
0.7326485197768706
 50
119.6498957273547035
 51
121.1705635629116955
  0
ARC
  5
54B9
  8
0
 10
731.6930128376144467
 20
15.7194607566433806
 30
0.0
 40
0.6939509793901339
 50
120.8180877054378044
 51
122.3693008906000017
  0
ARC
  5
54BA
  8
0
 10
731.6695856834412552
 20
15.76568353951148
 30
0.0
 40
0.6499104364550812
 50
122.2345102955283949
 51
123.8264444140168052
  0
ARC
  5
54BB
  8
0
 10
731.650090538288282
 20
15.8116141450772805
 30
0.0
 40
0.6073536883295688
 50
123.9508020745224002
 51
125.5792186457159971
  0
ARC
  5
54BC
  8
0
 10
731.6328906864213195
 20
15.8594489307601201
 30
0.0
 40
0.5637049881654086
 50
126.0123158605360061
 51
127.6806305523932963
  0
ARC
  5
54BD
  8
0
 10
731.6194884588244349
 20
15.9068926325640501
 30
0.0
 40
0.5219244129325724
 50
128.4877108544233124
 51
130.1922323224287936
  0
ARC
  5
54BE
  8
0
 10
731.610281696245238
 20
15.9535112348051999
 30
0.0
 40
0.4828958522558467
 50
131.4559730838770122
 51
133.1904778470263011
  0
ARC
  5
54BF
  8
0
 10
731.6388672812020104
 20
16.0690047813576307
 30
0.0
 40
0.4233133179996743
 50
144.4000954882475014
 51
146.0222808808125023
  0
ARC
  5
54C0
  8
0
 10
731.611283044488232
 20
16.0394090335816699
 30
0.0
 40
0.4231228810477455
 50
139.2825250572178959
 51
141.0186060081300923
  0
ARC
  5
54C1
  8
0
 10
731.7432086942686738
 20
15.6408227357345897
 30
0.0
 40
0.769119919292792
 50
118.7044531502662039
 51
120.1957949268026056
  0
LINE
  5
54C2
  8
0
 10
731.2960361161384526
 20
16.3055820941061
 30
0.0
 11
731.301455187048532
 21
16.3154246137060994
 31
0.0
  0
LINE
  5
54C3
  8
0
 10
731.3069282938386095
 20
16.3055820941061
 30
0.0
 11
731.3108951455903934
 21
16.3154246137060994
 31
0.0
  0
LINE
  5
54C4
  8
0
 10
731.3204419891385442
 20
16.3055820941061
 30
0.0
 11
731.3229326483232171
 21
16.3154246137060994
 31
0.0
  0
LINE
  5
54C5
  8
0
 10
731.3364938857386051
 20
16.3055820941061
 30
0.0
 11
731.337492032497039
 21
16.3154246137060994
 31
0.0
  0
LINE
  5
54C6
  8
0
 10
731.3773500948385617
 20
15.9630627181060891
 30
0.0
 11
731.3953372324385782
 21
15.9532198937061001
 31
0.0
  0
LINE
  5
54C7
  8
0
 10
731.3953372324385782
 20
15.9532198937061001
 30
0.0
 11
731.3988145926384732
 21
15.9630630273061005
 31
0.0
  0
LINE
  5
54C8
  8
0
 10
731.3988145926384732
 20
15.9630630273061005
 30
0.0
 11
731.4005126658386189
 21
15.9630626430061007
 31
0.0
  0
LINE
  5
54C9
  8
0
 10
731.4005126658386189
 20
15.9630626430061007
 30
0.0
 11
731.4189441546385524
 21
15.9532201985060897
 31
0.0
  0
LINE
  5
54CA
  8
0
 10
731.4189441546385524
 20
15.9532201985060897
 30
0.0
 11
731.4238828571385511
 21
15.9630630273061005
 31
0.0
  0
LINE
  5
54CB
  8
0
 10
731.4238828571385511
 20
15.9630630273061005
 30
0.0
 11
731.4257198224386229
 21
15.9630626430061007
 31
0.0
  0
LINE
  5
54CC
  8
0
 10
731.4257198224386229
 20
15.9630626430061007
 30
0.0
 11
731.4444819792385033
 21
15.9532201985060897
 31
0.0
  0
LINE
  5
54CD
  8
0
 10
731.4444819792385033
 20
15.9532201985060897
 30
0.0
 11
731.4508515753385609
 21
15.9630630273061005
 31
0.0
  0
LINE
  5
54CE
  8
0
 10
731.4508515753385609
 20
15.9630630273061005
 30
0.0
 11
731.4528161071384602
 21
15.9630630273061005
 31
0.0
  0
LINE
  5
54CF
  8
0
 10
731.4528161071384602
 20
15.9630630273061005
 30
0.0
 11
731.4717932570385983
 21
15.9532201985060897
 31
0.0
  0
LINE
  5
54D0
  8
0
 10
731.4717932570385983
 20
15.9532201985060897
 30
0.0
 11
731.4795544760386292
 21
15.9630630273061005
 31
0.0
  0
LINE
  5
54D1
  8
0
 10
731.4795544760386292
 20
15.9630630273061005
 30
0.0
 11
731.4816344623386613
 21
15.9630626430061007
 31
0.0
  0
LINE
  5
54D2
  8
0
 10
731.4816344623386613
 20
15.9630626430061007
 30
0.0
 11
731.500709604838562
 21
15.9532198937061001
 31
0.0
  0
LINE
  5
54D3
  8
0
 10
731.500709604838562
 20
15.9532198937061001
 30
0.0
 11
731.5098145962385843
 21
15.9630630273061005
 31
0.0
  0
LINE
  5
54D4
  8
0
 10
731.5098145962385843
 20
15.9630630273061005
 30
0.0
 11
731.5119972133386455
 21
15.9630626430061007
 31
0.0
  0
LINE
  5
54D5
  8
0
 10
731.5119972133386455
 20
15.9630626430061007
 30
0.0
 11
731.5310527438384725
 21
15.9532198937061001
 31
0.0
  0
LINE
  5
54D6
  8
0
 10
731.5310527438384725
 20
15.9532198937061001
 30
0.0
 11
731.541445372338444
 21
15.9630630273061005
 31
0.0
  0
LINE
  5
54D7
  8
0
 10
731.541445372338444
 20
15.9630630273061005
 30
0.0
 11
731.5437171636385756
 21
15.9630626430061007
 31
0.0
  0
LINE
  5
54D8
  8
0
 10
731.5437171636385756
 20
15.9630626430061007
 30
0.0
 11
731.5626355985385771
 21
15.9532198937061001
 31
0.0
  0
LINE
  5
54D9
  8
0
 10
731.5626355985385771
 20
15.9532198937061001
 30
0.0
 11
731.5742517901386464
 21
15.9630630273061005
 31
0.0
  0
LINE
  5
54DA
  8
0
 10
731.5742517901386464
 20
15.9630630273061005
 30
0.0
 11
731.5765987492386557
 21
15.9630626430061007
 31
0.0
  0
LINE
  5
54DB
  8
0
 10
731.5765987492386557
 20
15.9630626430061007
 30
0.0
 11
731.5952634500384875
 21
15.9532198937061001
 31
0.0
  0
LINE
  5
54DC
  8
0
 10
731.5952634500384875
 20
15.9532198937061001
 30
0.0
 11
731.6080315869386368
 21
15.9630630273061005
 31
0.0
  0
LINE
  5
54DD
  8
0
 10
731.6080315869386368
 20
15.9630630273061005
 30
0.0
 11
731.6104392441386608
 21
15.9630626430061007
 31
0.0
  0
LINE
  5
54DE
  8
0
 10
731.6104392441386608
 20
15.9630626430061007
 30
0.0
 11
731.6287351367385554
 21
15.9532198937061001
 31
0.0
  0
LINE
  5
54DF
  8
0
 10
731.6287351367385554
 20
15.9532198937061001
 30
0.0
 11
731.6425764993384746
 21
15.9630630273061005
 31
0.0
  0
LINE
  5
54E0
  8
0
 10
731.6425764993384746
 20
15.9630630273061005
 30
0.0
 11
731.6450300105384486
 21
15.9630626430061007
 31
0.0
  0
LINE
  5
54E1
  8
0
 10
731.6450300105384486
 20
15.9630626430061007
 30
0.0
 11
731.6628442946384894
 21
15.9532198937061001
 31
0.0
  0
LINE
  5
54E2
  8
0
 10
731.6628442946384894
 20
15.9532198937061001
 30
0.0
 11
731.6776735462385659
 21
15.9630630273061005
 31
0.0
  0
LINE
  5
54E3
  8
0
 10
731.6776735462385659
 20
15.9630630273061005
 30
0.0
 11
731.6801577847386397
 21
15.9630626431061007
 31
0.0
  0
LINE
  5
54E4
  8
0
 10
731.6801577847386397
 20
15.9630626431061007
 30
0.0
 11
731.6973806295386566
 21
15.9532198937061001
 31
0.0
  0
LINE
  5
54E5
  8
0
 10
731.6973806295386566
 20
15.9532198937061001
 30
0.0
 11
731.7131063427384561
 21
15.9630630272060898
 31
0.0
  0
LINE
  5
54E6
  8
0
 10
731.7131063427384561
 20
15.9630630272060898
 30
0.0
 11
731.7156059925385989
 21
15.9630626431061007
 31
0.0
  0
LINE
  5
54E7
  8
0
 10
731.7156059925385989
 20
15.9630626431061007
 30
0.0
 11
731.7321312132386311
 21
15.9532201985060897
 31
0.0
  0
LINE
  5
54E8
  8
0
 10
731.3773500948385617
 20
16.3055820941061
 30
0.0
 11
731.3953372324385782
 21
16.3154249185060891
 31
0.0
  0
LINE
  5
54E9
  8
0
 10
731.3953372324385782
 20
16.3154249185060891
 30
0.0
 11
731.3988145926384732
 21
16.3055817849060887
 31
0.0
  0
LINE
  5
54EA
  8
0
 10
731.3988145926384732
 20
16.3055817849060887
 30
0.0
 11
731.4005126658386189
 21
16.3055821692061009
 31
0.0
  0
LINE
  5
54EB
  8
0
 10
731.4005126658386189
 20
16.3055821692061009
 30
0.0
 11
731.4189441546385524
 21
16.3154246137060994
 31
0.0
  0
LINE
  5
54EC
  8
0
 10
731.4189441546385524
 20
16.3154246137060994
 30
0.0
 11
731.4238828571385511
 21
16.3055817849060887
 31
0.0
  0
LINE
  5
54ED
  8
0
 10
731.4238828571385511
 20
16.3055817849060887
 30
0.0
 11
731.4257198224386229
 21
16.3055821692061009
 31
0.0
  0
LINE
  5
54EE
  8
0
 10
731.4257198224386229
 20
16.3055821692061009
 30
0.0
 11
731.4444819792385033
 21
16.3154246137060994
 31
0.0
  0
LINE
  5
54EF
  8
0
 10
731.4444819792385033
 20
16.3154246137060994
 30
0.0
 11
731.4508515753385609
 21
16.3055817849060887
 31
0.0
  0
LINE
  5
54F0
  8
0
 10
731.4508515753385609
 20
16.3055817849060887
 30
0.0
 11
731.4528161071384602
 21
16.3055817849060887
 31
0.0
  0
LINE
  5
54F1
  8
0
 10
731.4528161071384602
 20
16.3055817849060887
 30
0.0
 11
731.4717932570385983
 21
16.3154246137060994
 31
0.0
  0
LINE
  5
54F2
  8
0
 10
731.4717932570385983
 20
16.3154246137060994
 30
0.0
 11
731.4795544760386292
 21
16.3055817849060887
 31
0.0
  0
LINE
  5
54F3
  8
0
 10
731.4795544760386292
 20
16.3055817849060887
 30
0.0
 11
731.4816344623386613
 21
16.3055821692061009
 31
0.0
  0
LINE
  5
54F4
  8
0
 10
731.4816344623386613
 20
16.3055821692061009
 30
0.0
 11
731.500709604838562
 21
16.3154249185060891
 31
0.0
  0
LINE
  5
54F5
  8
0
 10
731.500709604838562
 20
16.3154249185060891
 30
0.0
 11
731.5098145962385843
 21
16.3055817849060887
 31
0.0
  0
LINE
  5
54F6
  8
0
 10
731.5098145962385843
 20
16.3055817849060887
 30
0.0
 11
731.5119972133386455
 21
16.3055821692061009
 31
0.0
  0
LINE
  5
54F7
  8
0
 10
731.5119972133386455
 20
16.3055821692061009
 30
0.0
 11
731.5310527438384725
 21
16.3154249185060891
 31
0.0
  0
LINE
  5
54F8
  8
0
 10
731.5310527438384725
 20
16.3154249185060891
 30
0.0
 11
731.541445372338444
 21
16.3055817849060887
 31
0.0
  0
LINE
  5
54F9
  8
0
 10
731.541445372338444
 20
16.3055817849060887
 30
0.0
 11
731.5437171636385756
 21
16.3055821692061009
 31
0.0
  0
LINE
  5
54FA
  8
0
 10
731.5437171636385756
 20
16.3055821692061009
 30
0.0
 11
731.5626355985385771
 21
16.3154249185060891
 31
0.0
  0
LINE
  5
54FB
  8
0
 10
731.5626355985385771
 20
16.3154249185060891
 30
0.0
 11
731.5742517901386464
 21
16.3055817849060887
 31
0.0
  0
LINE
  5
54FC
  8
0
 10
731.5742517901386464
 20
16.3055817849060887
 30
0.0
 11
731.5765987492386557
 21
16.3055821692061009
 31
0.0
  0
LINE
  5
54FD
  8
0
 10
731.5765987492386557
 20
16.3055821692061009
 30
0.0
 11
731.5952634500384875
 21
16.3154249185060891
 31
0.0
  0
LINE
  5
54FE
  8
0
 10
731.5952634500384875
 20
16.3154249185060891
 30
0.0
 11
731.6080315869386368
 21
16.3055817849060887
 31
0.0
  0
LINE
  5
54FF
  8
0
 10
731.6080315869386368
 20
16.3055817849060887
 30
0.0
 11
731.6104392441386608
 21
16.3055821692061009
 31
0.0
  0
LINE
  5
5500
  8
0
 10
731.6104392441386608
 20
16.3055821692061009
 30
0.0
 11
731.6287351367385554
 21
16.3154249185060891
 31
0.0
  0
LINE
  5
5501
  8
0
 10
731.6287351367385554
 20
16.3154249185060891
 30
0.0
 11
731.6425764993384746
 21
16.3055817849060887
 31
0.0
  0
LINE
  5
5502
  8
0
 10
731.6425764993384746
 20
16.3055817849060887
 30
0.0
 11
731.6450300105384486
 21
16.3055821692061009
 31
0.0
  0
LINE
  5
5503
  8
0
 10
731.6450300105384486
 20
16.3055821692061009
 30
0.0
 11
731.6628442946384894
 21
16.3154249185060891
 31
0.0
  0
LINE
  5
5504
  8
0
 10
731.6628442946384894
 20
16.3154249185060891
 30
0.0
 11
731.6776735462385659
 21
16.3055817849060887
 31
0.0
  0
LINE
  5
5505
  8
0
 10
731.6776735462385659
 20
16.3055817849060887
 30
0.0
 11
731.6801577847386397
 21
16.3055821691060885
 31
0.0
  0
LINE
  5
5506
  8
0
 10
731.6801577847386397
 20
16.3055821691060885
 30
0.0
 11
731.6973806295386566
 21
16.3154249185060891
 31
0.0
  0
LINE
  5
5507
  8
0
 10
731.6973806295386566
 20
16.3154249185060891
 30
0.0
 11
731.7131063427384561
 21
16.3055817850061011
 31
0.0
  0
LINE
  5
5508
  8
0
 10
731.7131063427384561
 20
16.3055817850061011
 30
0.0
 11
731.7156059925385989
 21
16.3055821691060885
 31
0.0
  0
LINE
  5
5509
  8
0
 10
731.7156059925385989
 20
16.3055821691060885
 30
0.0
 11
731.7321312132386311
 21
16.3154246137060994
 31
0.0
  0
LINE
  5
550A
  8
0
 10
732.0689251940384565
 20
16.3154249229060895
 30
0.0
 11
732.0689251940384565
 21
15.9532198937061001
 31
0.0
  0
LINE
  5
550B
  8
0
 10
732.0654478338385616
 20
15.9630630273061005
 30
0.0
 11
732.0654478338385616
 21
16.3055817849060887
 31
0.0
  0
LINE
  5
550C
  8
0
 10
732.0637497606385296
 20
16.3055821692061009
 30
0.0
 11
732.0637497606385296
 21
15.9630626430061007
 31
0.0
  0
LINE
  5
550D
  8
0
 10
732.0453182718384824
 20
16.3154251144649614
 30
0.0
 11
732.0453182718384824
 21
15.9532198937061001
 31
0.0
  0
LINE
  5
550E
  8
0
 10
732.0403795693385973
 20
15.9630630273061005
 30
0.0
 11
732.0403795693385973
 21
16.3055817849060887
 31
0.0
  0
LINE
  5
550F
  8
0
 10
732.0385426040386392
 20
16.3055821692061009
 30
0.0
 11
732.0385426040386392
 21
15.9630626430061007
 31
0.0
  0
LINE
  5
5510
  8
0
 10
732.0197804472386451
 20
16.3154251144649614
 30
0.0
 11
732.0197804472386451
 21
15.9532198937061001
 31
0.0
  0
LINE
  5
5511
  8
0
 10
732.0134108511385875
 20
15.9630630273061005
 30
0.0
 11
732.0134108511385875
 21
16.3055817849060993
 31
0.0
  0
LINE
  5
5512
  8
0
 10
732.0114463193385745
 20
16.3055817849060887
 30
0.0
 11
732.0114463193385745
 21
15.9630626430061007
 31
0.0
  0
LINE
  5
5513
  8
0
 10
731.9924691694385501
 20
16.3154249229060895
 30
0.0
 11
731.9924691694385501
 21
15.9532198937061001
 31
0.0
  0
LINE
  5
5514
  8
0
 10
731.9847079504386329
 20
15.9630630273061005
 30
0.0
 11
731.9847079504386329
 21
16.3055817849060993
 31
0.0
  0
LINE
  5
5515
  8
0
 10
731.9826279641386009
 20
16.3055821692061009
 30
0.0
 11
731.9826279641386009
 21
15.9630626430061007
 31
0.0
  0
LINE
  5
5516
  8
0
 10
731.9635528216385865
 20
16.3154249229060895
 30
0.0
 11
731.9635528216385865
 21
15.9532198937061001
 31
0.0
  0
LINE
  5
5517
  8
0
 10
731.9544478302384505
 20
15.9630630273061005
 30
0.0
 11
731.9544478302384505
 21
16.3055817849060887
 31
0.0
  0
LINE
  5
5518
  8
0
 10
731.9522652131386167
 20
16.3055821692061009
 30
0.0
 11
731.9522652131386167
 21
15.9630626430061007
 31
0.0
  0
LINE
  5
5519
  8
0
 10
731.9332096826385623
 20
16.3154249229060895
 30
0.0
 11
731.9332096826385623
 21
15.9532198937061001
 31
0.0
  0
LINE
  5
551A
  8
0
 10
731.9228170541385907
 20
15.9630630273061005
 30
0.0
 11
731.9228170541385907
 21
16.3055817849060887
 31
0.0
  0
LINE
  5
551B
  8
0
 10
731.9205452628384592
 20
16.3055821692061009
 30
0.0
 11
731.9205452628384592
 21
15.9630626430061007
 31
0.0
  0
LINE
  5
551C
  8
0
 10
731.9016268279384576
 20
16.3154249229060895
 30
0.0
 11
731.9016268279384576
 21
15.9532198937061001
 31
0.0
  0
LINE
  5
551D
  8
0
 10
731.8900106363386158
 20
15.9630630273061005
 30
0.0
 11
731.8900106363386158
 21
16.3055817849060993
 31
0.0
  0
LINE
  5
551E
  8
0
 10
731.8876636772386064
 20
16.3055821692061009
 30
0.0
 11
731.8876636772386064
 21
15.9630626430061007
 31
0.0
  0
LINE
  5
551F
  8
0
 10
731.8689989764385473
 20
16.3154249229060895
 30
0.0
 11
731.8689989764385473
 21
15.9532198937061001
 31
0.0
  0
LINE
  5
5520
  8
0
 10
731.8562308395386253
 20
15.9630630273061005
 30
0.0
 11
731.8562308395386253
 21
16.3055817849060993
 31
0.0
  0
LINE
  5
5521
  8
0
 10
731.8538231823386013
 20
16.3055821692061009
 30
0.0
 11
731.8538231823386013
 21
15.9630626430061007
 31
0.0
  0
LINE
  5
5522
  8
0
 10
731.8355272897384793
 20
16.3154249229060895
 30
0.0
 11
731.8355272897384793
 21
15.9532198937061001
 31
0.0
  0
LINE
  5
5523
  8
0
 10
731.8216859271385601
 20
15.9630630273061005
 30
0.0
 11
731.8216859271385601
 21
16.3055817849060993
 31
0.0
  0
LINE
  5
5524
  8
0
 10
731.8192324159385862
 20
16.3055821692061009
 30
0.0
 11
731.8192324159385862
 21
15.9630626430061007
 31
0.0
  0
LINE
  5
5525
  8
0
 10
731.8014181318385454
 20
16.3154249229060895
 30
0.0
 11
731.8014181318385454
 21
15.9532198937061001
 31
0.0
  0
LINE
  5
5526
  8
0
 10
731.7865888802384688
 20
15.9630630273061005
 30
0.0
 11
731.7865888802384688
 21
16.3055817849060887
 31
0.0
  0
LINE
  5
5527
  8
0
 10
731.7841046417385087
 20
16.3055821691060885
 30
0.0
 11
731.7841046417385087
 21
15.9630626431061007
 31
0.0
  0
LINE
  5
5528
  8
0
 10
731.7668817969384918
 20
16.3154249229060895
 30
0.0
 11
731.7668817969384918
 21
15.9532198937061001
 31
0.0
  0
LINE
  5
5529
  8
0
 10
731.751156083738465
 20
15.9630630272060898
 30
0.0
 11
731.751156083738465
 21
16.3055817850061011
 31
0.0
  0
LINE
  5
552A
  8
0
 10
731.7486564339385495
 20
16.3055821691060885
 30
0.0
 11
731.7486564339385495
 21
15.9630626431061007
 31
0.0
  0
LINE
  5
552B
  8
0
 10
732.1845853927386543
 20
15.9630627181060891
 30
0.0
 11
732.1844871812386373
 21
15.9630627181060891
 31
0.0
  0
LINE
  5
552C
  8
0
 10
732.1818940735385013
 20
15.9630627181060891
 30
0.0
 11
732.1816000445386408
 21
15.9630627181060891
 31
0.0
  0
LINE
  5
552D
  8
0
 10
732.1764298163386684
 20
15.9630627181060891
 30
0.0
 11
732.1759417826385743
 21
15.9630627181060891
 31
0.0
  0
LINE
  5
552E
  8
0
 10
732.1682263103386958
 20
15.9630627181060891
 30
0.0
 11
732.1675472807386313
 21
15.9630627181060891
 31
0.0
  0
LINE
  5
552F
  8
0
 10
732.1573341326386526
 20
15.9630627181060891
 30
0.0
 11
732.1564682937386124
 21
15.9630627181060891
 31
0.0
  0
LINE
  5
5530
  8
0
 10
732.1438204373386043
 20
15.9630627181060891
 30
0.0
 11
732.1427731272384563
 21
15.9630627181060891
 31
0.0
  0
LINE
  5
5531
  8
0
 10
732.1277685407386571
 20
15.9630627181060891
 30
0.0
 11
732.126546216438669
 21
15.9630627181060891
 31
0.0
  0
LINE
  5
5532
  8
0
 10
732.1092774082386541
 20
15.9630627181060891
 30
0.0
 11
732.1078876057384832
 21
15.9630627181060891
 31
0.0
  0
LINE
  5
5533
  8
0
 10
732.0884610436386311
 20
15.9630627181060891
 30
0.0
 11
732.086912331638473
 21
15.9630627181060891
 31
0.0
  0
LINE
  5
5534
  8
0
 10
732.1845853927386543
 20
15.9630627181060891
 30
0.0
 11
732.1845853927386543
 21
16.3055820941061
 31
0.0
  0
LINE
  5
5535
  8
0
 10
732.1844871812386373
 20
16.3055820941061
 30
0.0
 11
732.1844871811358644
 21
15.96306271822003
 31
0.0
  0
LINE
  5
5536
  8
0
 10
732.1818940735385013
 20
15.9630627181060891
 30
0.0
 11
732.1818940735385013
 21
16.3055820941061
 31
0.0
  0
LINE
  5
5537
  8
0
 10
732.1816000445386408
 20
16.3055820941061
 30
0.0
 11
732.1816000445544432
 21
15.9630627181426199
 31
0.0
  0
LINE
  5
5538
  8
0
 10
732.1764298163386684
 20
15.9630627181060891
 30
0.0
 11
732.1764298163386684
 21
16.3055820941061
 31
0.0
  0
LINE
  5
5539
  8
0
 10
732.1759417826385743
 20
16.3055820941061
 30
0.0
 11
732.1759417826447134
 21
15.9630627180263893
 31
0.0
  0
LINE
  5
553A
  8
0
 10
732.1750445521386155
 20
16.3941650804061005
 30
0.0
 11
732.1750445521386155
 21
16.3154249229060895
 31
0.0
  0
LINE
  5
553B
  8
0
 10
732.1750445521386155
 20
15.9532201985060897
 30
0.0
 11
732.1750445521386155
 21
15.8744800410060893
 31
0.0
  0
LINE
  5
553C
  8
0
 10
732.1682263103386958
 20
15.9630627181060891
 30
0.0
 11
732.1682263103386958
 21
16.3055820941061
 31
0.0
  0
LINE
  5
553D
  8
0
 10
732.1675472807386313
 20
16.3055820941061
 30
0.0
 11
732.1675472807226015
 21
15.9630627180409999
 31
0.0
  0
LINE
  5
553E
  8
0
 10
732.1573341326386526
 20
15.9630627181060891
 30
0.0
 11
732.1573341326386526
 21
16.3055820941061
 31
0.0
  0
LINE
  5
553F
  8
0
 10
732.1564682937386124
 20
16.3055820941061
 30
0.0
 11
732.1564682937203088
 21
15.96306271814049
 31
0.0
  0
LINE
  5
5540
  8
0
 10
732.1438204373386043
 20
15.9630627181060891
 30
0.0
 11
732.1438204373386043
 21
16.3055820941061
 31
0.0
  0
LINE
  5
5541
  8
0
 10
732.1427731272384563
 20
16.3055820941061
 30
0.0
 11
732.1427731272232222
 21
15.9630627181148395
 31
0.0
  0
LINE
  5
5542
  8
0
 10
732.1277685407386571
 20
15.9630627181060891
 30
0.0
 11
732.1277685407386571
 21
16.3055820941061
 31
0.0
  0
LINE
  5
5543
  8
0
 10
732.126546216438669
 20
16.3055820941061
 30
0.0
 11
732.1265462164224118
 21
15.9630627180901996
 31
0.0
  0
LINE
  5
5544
  8
0
 10
732.109277408189655
 20
15.9630627181099207
 30
0.0
 11
732.1092774082386541
 21
16.3055820941061
 31
0.0
  0
LINE
  5
5545
  8
0
 10
732.1078876057384832
 20
16.3055820941061
 30
0.0
 11
732.1078876057663365
 21
15.9630627181037301
 31
0.0
  0
LINE
  5
5546
  8
0
 10
732.0904556224386397
 20
16.3154246138061794
 30
0.0
 11
732.0904556224172666
 21
15.9532201985589506
 31
0.0
  0
LINE
  5
5547
  8
0
 10
732.0884610436819457
 20
15.9630627181696099
 30
0.0
 11
732.0884610436386311
 21
16.3055820941061
 31
0.0
  0
LINE
  5
5548
  8
0
 10
732.086912331638473
 20
16.3055820941061
 30
0.0
 11
732.086912331638473
 21
15.9630627181060891
 31
0.0
  0
ARC
  5
5549
  8
0
 10
735.2559475223065419
 20
16.1178198259197387
 30
0.0
 40
3.1504733881096021
 50
182.8156082695882958
 51
182.9948387307969142
  0
ARC
  5
554A
  8
0
 10
732.9081201809001413
 20
16.1240426315194583
 30
0.0
 40
0.8353176843685726
 50
191.1113875161123872
 51
191.8002287533471133
  0
ARC
  5
554B
  8
0
 10
731.7473365104285676
 20
16.5899389837271514
 30
0.0
 40
0.7326485197768706
 50
299.6498957273548172
 51
301.1705635629115818
  0
ARC
  5
554C
  8
0
 10
731.7712495888625881
 20
16.5491840555688086
 30
0.0
 40
0.6939509793901339
 50
300.8180877054377902
 51
302.3693008906000159
  0
ARC
  5
554D
  8
0
 10
731.7946767430358932
 20
16.5029612727007091
 30
0.0
 40
0.6499104364550812
 50
302.2345102955226821
 51
303.8264444140168052
  0
ARC
  5
554E
  8
0
 10
731.8141718881887527
 20
16.4570306671349087
 30
0.0
 40
0.6073536883295688
 50
303.9508020745224144
 51
305.5792186457160255
  0
ARC
  5
554F
  8
0
 10
731.8313717400558289
 20
16.4091958814520815
 30
0.0
 40
0.5637049881654086
 50
306.0123158605359777
 51
307.680630552393211
  0
ARC
  5
5550
  8
0
 10
731.8447739676528272
 20
16.3617521796481391
 30
0.0
 40
0.5219244129325724
 50
308.4877108544234261
 51
310.192232322428822
  0
ARC
  5
5551
  8
0
 10
731.8539807302320241
 20
16.3151335774069892
 30
0.0
 40
0.4828958522558467
 50
311.4559730838769838
 51
313.1904778470262727
  0
ARC
  5
5552
  8
0
 10
731.8253951452752517
 20
16.1996400308545603
 30
0.0
 40
0.4233133179996743
 50
324.400095488247473
 51
326.0222808808125023
  0
ARC
  5
5553
  8
0
 10
731.8529793819889164
 20
16.2292357786305104
 30
0.0
 40
0.4231228810477455
 50
319.2825250572179243
 51
321.0186060081301207
  0
ARC
  5
5554
  8
0
 10
731.7210537322082473
 20
16.6278220764776101
 30
0.0
 40
0.769119919292792
 50
298.7044531502662039
 51
300.1957949268025914
  0
LINE
  5
5555
  8
0
 10
732.1682263103386958
 20
15.9630627181060891
 30
0.0
 11
732.1628072394287301
 21
15.9532201985060897
 31
0.0
  0
LINE
  5
5556
  8
0
 10
732.1573341326386526
 20
15.9630627181060891
 30
0.0
 11
732.153367280886755
 21
15.9532201985060897
 31
0.0
  0
LINE
  5
5557
  8
0
 10
732.1438204373386043
 20
15.9630627181060891
 30
0.0
 11
732.141329778154045
 21
15.9532201985060897
 31
0.0
  0
LINE
  5
5558
  8
0
 10
732.1277685407386571
 20
15.9630627181060891
 30
0.0
 11
732.1267703939802232
 21
15.9532201985060897
 31
0.0
  0
LINE
  5
5559
  8
0
 10
732.1845853927386543
 20
16.3055820941061
 30
0.0
 11
732.1844871812386373
 21
16.3055820941061
 31
0.0
  0
LINE
  5
555A
  8
0
 10
732.1818940735385013
 20
16.3055820941061
 30
0.0
 11
732.1816000445386408
 21
16.3055820941061
 31
0.0
  0
LINE
  5
555B
  8
0
 10
732.1764298163386684
 20
16.3055820941061
 30
0.0
 11
732.1759417826385743
 21
16.3055820941061
 31
0.0
  0
LINE
  5
555C
  8
0
 10
732.1682263103386958
 20
16.3055820941061
 30
0.0
 11
732.1675472807386313
 21
16.3055820941061
 31
0.0
  0
LINE
  5
555D
  8
0
 10
732.1573341326386526
 20
16.3055820941061
 30
0.0
 11
732.1564682937386124
 21
16.3055820941061
 31
0.0
  0
LINE
  5
555E
  8
0
 10
732.1438204373386043
 20
16.3055820941061
 30
0.0
 11
732.1427731272384563
 21
16.3055820941061
 31
0.0
  0
LINE
  5
555F
  8
0
 10
732.1277685407386571
 20
16.3055820941061
 30
0.0
 11
732.126546216438669
 21
16.3055820941061
 31
0.0
  0
LINE
  5
5560
  8
0
 10
732.1092774082386541
 20
16.3055820941061
 30
0.0
 11
732.1078876057384832
 21
16.3055820941061
 31
0.0
  0
LINE
  5
5561
  8
0
 10
732.0884610436386311
 20
16.3055820941061
 30
0.0
 11
732.086912331638473
 21
16.3055820941061
 31
0.0
  0
ARC
  5
5562
  8
0
 10
735.2559475223065419
 20
16.1508249862924487
 30
0.0
 40
3.1504733881096021
 50
177.0051612692030858
 51
177.1843917304117042
  0
ARC
  5
5563
  8
0
 10
732.9081201809001413
 20
16.1446021806927291
 30
0.0
 40
0.8353176843685726
 50
168.1997712466524035
 51
168.8886124838871865
  0
ARC
  5
5564
  8
0
 10
731.7473365104285676
 20
15.6787058284850396
 30
0.0
 40
0.7326485197768706
 50
58.8294364370882903
 51
60.3501042726452468
  0
ARC
  5
5565
  8
0
 10
731.7712495888625881
 20
15.7194607566433806
 30
0.0
 40
0.6939509793901339
 50
57.6306991094000409
 51
59.1819122945621885
  0
ARC
  5
5566
  8
0
 10
731.7946767430358932
 20
15.76568353951148
 30
0.0
 40
0.6499104364550812
 50
56.1735555859831521
 51
57.7654897044715696
  0
ARC
  5
5567
  8
0
 10
731.8141718881887527
 20
15.8116141450772805
 30
0.0
 40
0.6073536883295688
 50
54.4207813542839531
 51
56.0491979254776425
  0
ARC
  5
5568
  8
0
 10
731.8313717400558289
 20
15.8594489307601201
 30
0.0
 40
0.5637049881654086
 50
52.3193694476066611
 51
53.9876841394639371
  0
ARC
  5
5569
  8
0
 10
731.8447739676528272
 20
15.9068926325640501
 30
0.0
 40
0.5219244129325724
 50
49.8077676775712135
 51
51.5122891455766805
  0
ARC
  5
556A
  8
0
 10
731.8539807302320241
 20
15.9535112348051999
 30
0.0
 40
0.4828958522558467
 50
46.8095221529736705
 51
48.5440269161228812
  0
ARC
  5
556B
  8
0
 10
731.8253951452752517
 20
16.0690047813576307
 30
0.0
 40
0.4233133179996743
 50
33.9777191191875119
 51
35.5999045117524915
  0
ARC
  5
556C
  8
0
 10
731.8529793819889164
 20
16.0394090335816699
 30
0.0
 40
0.4231228810477455
 50
38.9813939918698722
 51
40.7174749427820615
  0
ARC
  5
556D
  8
0
 10
731.7210537322082473
 20
15.6408227357345897
 30
0.0
 40
0.769119919292792
 50
59.8042050731973589
 51
61.2955468497338103
  0
LINE
  5
556E
  8
0
 10
732.1682263103386958
 20
16.3055820941061
 30
0.0
 11
732.1628072394287301
 21
16.3154246137060994
 31
0.0
  0
LINE
  5
556F
  8
0
 10
732.1573341326386526
 20
16.3055820941061
 30
0.0
 11
732.153367280886755
 21
16.3154246137060994
 31
0.0
  0
LINE
  5
5570
  8
0
 10
732.1438204373386043
 20
16.3055820941061
 30
0.0
 11
732.141329778154045
 21
16.3154246137060994
 31
0.0
  0
LINE
  5
5571
  8
0
 10
732.1277685407386571
 20
16.3055820941061
 30
0.0
 11
732.1267703939802232
 21
16.3154246137060994
 31
0.0
  0
LINE
  5
5572
  8
0
 10
732.086912331638473
 20
15.9630627181060891
 30
0.0
 11
732.0689251940384565
 21
15.9532198937061001
 31
0.0
  0
LINE
  5
5573
  8
0
 10
732.0689251940384565
 20
15.9532198937061001
 30
0.0
 11
732.0654478338385616
 21
15.9630630273061005
 31
0.0
  0
LINE
  5
5574
  8
0
 10
732.0654478338385616
 20
15.9630630273061005
 30
0.0
 11
732.0637497606385296
 21
15.9630626430061007
 31
0.0
  0
LINE
  5
5575
  8
0
 10
732.0637497606385296
 20
15.9630626430061007
 30
0.0
 11
732.0453182718384824
 21
15.9532201985060897
 31
0.0
  0
LINE
  5
5576
  8
0
 10
732.0453182718384824
 20
15.9532201985060897
 30
0.0
 11
732.0403795693385973
 21
15.9630630273061005
 31
0.0
  0
LINE
  5
5577
  8
0
 10
732.0403795693385973
 20
15.9630630273061005
 30
0.0
 11
732.0385426040386392
 21
15.9630626430061007
 31
0.0
  0
LINE
  5
5578
  8
0
 10
732.0385426040386392
 20
15.9630626430061007
 30
0.0
 11
732.0197804472386451
 21
15.9532201985060897
 31
0.0
  0
LINE
  5
5579
  8
0
 10
732.0197804472386451
 20
15.9532201985060897
 30
0.0
 11
732.0134108511385875
 21
15.9630630273061005
 31
0.0
  0
LINE
  5
557A
  8
0
 10
732.0134108511385875
 20
15.9630630273061005
 30
0.0
 11
732.0114463193385745
 21
15.9630630273061005
 31
0.0
  0
LINE
  5
557B
  8
0
 10
732.0114463193385745
 20
15.9630630273061005
 30
0.0
 11
731.9924691694385501
 21
15.9532201985060897
 31
0.0
  0
LINE
  5
557C
  8
0
 10
731.9924691694385501
 20
15.9532201985060897
 30
0.0
 11
731.9847079504386329
 21
15.9630630273061005
 31
0.0
  0
LINE
  5
557D
  8
0
 10
731.9847079504386329
 20
15.9630630273061005
 30
0.0
 11
731.9826279641386009
 21
15.9630626430061007
 31
0.0
  0
LINE
  5
557E
  8
0
 10
731.9826279641386009
 20
15.9630626430061007
 30
0.0
 11
731.9635528216385865
 21
15.9532198937061001
 31
0.0
  0
LINE
  5
557F
  8
0
 10
731.9635528216385865
 20
15.9532198937061001
 30
0.0
 11
731.9544478302384505
 21
15.9630630273061005
 31
0.0
  0
LINE
  5
5580
  8
0
 10
731.9544478302384505
 20
15.9630630273061005
 30
0.0
 11
731.9522652131386167
 21
15.9630626430061007
 31
0.0
  0
LINE
  5
5581
  8
0
 10
731.9522652131386167
 20
15.9630626430061007
 30
0.0
 11
731.9332096826385623
 21
15.9532198937061001
 31
0.0
  0
LINE
  5
5582
  8
0
 10
731.9332096826385623
 20
15.9532198937061001
 30
0.0
 11
731.9228170541385907
 21
15.9630630273061005
 31
0.0
  0
LINE
  5
5583
  8
0
 10
731.9228170541385907
 20
15.9630630273061005
 30
0.0
 11
731.9205452628384592
 21
15.9630626430061007
 31
0.0
  0
LINE
  5
5584
  8
0
 10
731.9205452628384592
 20
15.9630626430061007
 30
0.0
 11
731.9016268279384576
 21
15.9532198937061001
 31
0.0
  0
LINE
  5
5585
  8
0
 10
731.9016268279384576
 20
15.9532198937061001
 30
0.0
 11
731.8900106363386158
 21
15.9630630273061005
 31
0.0
  0
LINE
  5
5586
  8
0
 10
731.8900106363386158
 20
15.9630630273061005
 30
0.0
 11
731.8876636772386064
 21
15.9630626430061007
 31
0.0
  0
LINE
  5
5587
  8
0
 10
731.8876636772386064
 20
15.9630626430061007
 30
0.0
 11
731.8689989764385473
 21
15.9532198937061001
 31
0.0
  0
LINE
  5
5588
  8
0
 10
731.8689989764385473
 20
15.9532198937061001
 30
0.0
 11
731.8562308395386253
 21
15.9630630273061005
 31
0.0
  0
LINE
  5
5589
  8
0
 10
731.8562308395386253
 20
15.9630630273061005
 30
0.0
 11
731.8538231823386013
 21
15.9630626430061007
 31
0.0
  0
LINE
  5
558A
  8
0
 10
731.8538231823386013
 20
15.9630626430061007
 30
0.0
 11
731.8355272897384793
 21
15.9532198937061001
 31
0.0
  0
LINE
  5
558B
  8
0
 10
731.8355272897384793
 20
15.9532198937061001
 30
0.0
 11
731.8216859271385601
 21
15.9630630273061005
 31
0.0
  0
LINE
  5
558C
  8
0
 10
731.8216859271385601
 20
15.9630630273061005
 30
0.0
 11
731.8192324159385862
 21
15.9630626430061007
 31
0.0
  0
LINE
  5
558D
  8
0
 10
731.8192324159385862
 20
15.9630626430061007
 30
0.0
 11
731.8014181318385454
 21
15.9532198937061001
 31
0.0
  0
LINE
  5
558E
  8
0
 10
731.8014181318385454
 20
15.9532198937061001
 30
0.0
 11
731.7865888802384688
 21
15.9630630273061005
 31
0.0
  0
LINE
  5
558F
  8
0
 10
731.7865888802384688
 20
15.9630630273061005
 30
0.0
 11
731.7841046417385087
 21
15.9630626431061007
 31
0.0
  0
LINE
  5
5590
  8
0
 10
731.7841046417385087
 20
15.9630626431061007
 30
0.0
 11
731.7668817969384918
 21
15.9532198937061001
 31
0.0
  0
LINE
  5
5591
  8
0
 10
731.7668817969384918
 20
15.9532198937061001
 30
0.0
 11
731.751156083738465
 21
15.9630630272060898
 31
0.0
  0
LINE
  5
5592
  8
0
 10
731.751156083738465
 20
15.9630630272060898
 30
0.0
 11
731.7486564339385495
 21
15.9630626431061007
 31
0.0
  0
LINE
  5
5593
  8
0
 10
731.7486564339385495
 20
15.9630626431061007
 30
0.0
 11
731.7321312132386311
 21
15.9532201985060897
 31
0.0
  0
LINE
  5
5594
  8
0
 10
732.086912331638473
 20
16.3055820941061
 30
0.0
 11
732.0689251940384565
 21
16.3154249185060891
 31
0.0
  0
LINE
  5
5595
  8
0
 10
732.0689251940384565
 20
16.3154249185060891
 30
0.0
 11
732.0654478338385616
 21
16.3055817849060887
 31
0.0
  0
LINE
  5
5596
  8
0
 10
732.0654478338385616
 20
16.3055817849060887
 30
0.0
 11
732.0637497606385296
 21
16.3055821692061009
 31
0.0
  0
LINE
  5
5597
  8
0
 10
732.0637497606385296
 20
16.3055821692061009
 30
0.0
 11
732.0453182718384824
 21
16.3154246137060994
 31
0.0
  0
LINE
  5
5598
  8
0
 10
732.0453182718384824
 20
16.3154246137060994
 30
0.0
 11
732.0403795693385973
 21
16.3055817849060887
 31
0.0
  0
LINE
  5
5599
  8
0
 10
732.0403795693385973
 20
16.3055817849060887
 30
0.0
 11
732.0385426040386392
 21
16.3055821692061009
 31
0.0
  0
LINE
  5
559A
  8
0
 10
732.0385426040386392
 20
16.3055821692061009
 30
0.0
 11
732.0197804472386451
 21
16.3154246137060994
 31
0.0
  0
LINE
  5
559B
  8
0
 10
732.0197804472386451
 20
16.3154246137060994
 30
0.0
 11
732.0134108511385875
 21
16.3055817849060887
 31
0.0
  0
LINE
  5
559C
  8
0
 10
732.0134108511385875
 20
16.3055817849060887
 30
0.0
 11
732.0114463193385745
 21
16.3055817849060887
 31
0.0
  0
LINE
  5
559D
  8
0
 10
732.0114463193385745
 20
16.3055817849060887
 30
0.0
 11
731.9924691694385501
 21
16.3154246137060994
 31
0.0
  0
LINE
  5
559E
  8
0
 10
731.9924691694385501
 20
16.3154246137060994
 30
0.0
 11
731.9847079504386329
 21
16.3055817849060887
 31
0.0
  0
LINE
  5
559F
  8
0
 10
731.9847079504386329
 20
16.3055817849060887
 30
0.0
 11
731.9826279641386009
 21
16.3055821692061009
 31
0.0
  0
LINE
  5
55A0
  8
0
 10
731.9826279641386009
 20
16.3055821692061009
 30
0.0
 11
731.9635528216385865
 21
16.3154249185060891
 31
0.0
  0
LINE
  5
55A1
  8
0
 10
731.9635528216385865
 20
16.3154249185060891
 30
0.0
 11
731.9544478302384505
 21
16.3055817849060887
 31
0.0
  0
LINE
  5
55A2
  8
0
 10
731.9544478302384505
 20
16.3055817849060887
 30
0.0
 11
731.9522652131386167
 21
16.3055821692061009
 31
0.0
  0
LINE
  5
55A3
  8
0
 10
731.9522652131386167
 20
16.3055821692061009
 30
0.0
 11
731.9332096826385623
 21
16.3154249185060891
 31
0.0
  0
LINE
  5
55A4
  8
0
 10
731.9332096826385623
 20
16.3154249185060891
 30
0.0
 11
731.9228170541385907
 21
16.3055817849060887
 31
0.0
  0
LINE
  5
55A5
  8
0
 10
731.9228170541385907
 20
16.3055817849060887
 30
0.0
 11
731.9205452628384592
 21
16.3055821692061009
 31
0.0
  0
LINE
  5
55A6
  8
0
 10
731.9205452628384592
 20
16.3055821692061009
 30
0.0
 11
731.9016268279384576
 21
16.3154249185060891
 31
0.0
  0
LINE
  5
55A7
  8
0
 10
731.9016268279384576
 20
16.3154249185060891
 30
0.0
 11
731.8900106363386158
 21
16.3055817849060887
 31
0.0
  0
LINE
  5
55A8
  8
0
 10
731.8900106363386158
 20
16.3055817849060887
 30
0.0
 11
731.8876636772386064
 21
16.3055821692061009
 31
0.0
  0
LINE
  5
55A9
  8
0
 10
731.8876636772386064
 20
16.3055821692061009
 30
0.0
 11
731.8689989764385473
 21
16.3154249185060891
 31
0.0
  0
LINE
  5
55AA
  8
0
 10
731.8689989764385473
 20
16.3154249185060891
 30
0.0
 11
731.8562308395386253
 21
16.3055817849060887
 31
0.0
  0
LINE
  5
55AB
  8
0
 10
731.8562308395386253
 20
16.3055817849060887
 30
0.0
 11
731.8538231823386013
 21
16.3055821692061009
 31
0.0
  0
LINE
  5
55AC
  8
0
 10
731.8538231823386013
 20
16.3055821692061009
 30
0.0
 11
731.8355272897384793
 21
16.3154249185060891
 31
0.0
  0
LINE
  5
55AD
  8
0
 10
731.8355272897384793
 20
16.3154249185060891
 30
0.0
 11
731.8216859271385601
 21
16.3055817849060887
 31
0.0
  0
LINE
  5
55AE
  8
0
 10
731.8216859271385601
 20
16.3055817849060887
 30
0.0
 11
731.8192324159385862
 21
16.3055821692061009
 31
0.0
  0
LINE
  5
55AF
  8
0
 10
731.8192324159385862
 20
16.3055821692061009
 30
0.0
 11
731.8014181318385454
 21
16.3154249185060891
 31
0.0
  0
LINE
  5
55B0
  8
0
 10
731.8014181318385454
 20
16.3154249185060891
 30
0.0
 11
731.7865888802384688
 21
16.3055817849060887
 31
0.0
  0
LINE
  5
55B1
  8
0
 10
731.7865888802384688
 20
16.3055817849060887
 30
0.0
 11
731.7841046417385087
 21
16.3055821691060885
 31
0.0
  0
LINE
  5
55B2
  8
0
 10
731.7841046417385087
 20
16.3055821691060885
 30
0.0
 11
731.7668817969384918
 21
16.3154249185060891
 31
0.0
  0
LINE
  5
55B3
  8
0
 10
731.7668817969384918
 20
16.3154249185060891
 30
0.0
 11
731.751156083738465
 21
16.3055817850061011
 31
0.0
  0
LINE
  5
55B4
  8
0
 10
731.751156083738465
 20
16.3055817850061011
 30
0.0
 11
731.7486564339385495
 21
16.3055821691060885
 31
0.0
  0
LINE
  5
55B5
  8
0
 10
731.7486564339385495
 20
16.3055821691060885
 30
0.0
 11
731.7321312132386311
 21
16.3154246137060994
 31
0.0
  0
LINE
  5
55B6
  8
0
 10
731.7321312132386311
 20
16.3154246137060994
 30
0.0
 11
731.7321312132386311
 21
15.9532201985060897
 31
0.0
  0
LINE
  5
55B7
  8
0
 10
731.5155958739884454
 20
17.8823540566061006
 30
0.0
 11
731.9486665525886337
 21
17.8823540566061006
 31
0.0
  0
LINE
  5
55B8
  8
0
 10
731.4959108345885852
 20
17.9020390960060993
 30
0.0
 11
731.4959108345885852
 21
18.4020390960060993
 31
0.0
  0
LINE
  5
55B9
  8
0
 10
731.6337061101885411
 20
17.8823540566061006
 30
0.0
 11
731.6337061101885411
 21
17.6847740573354386
 31
0.0
  0
ARC
  5
55BA
  8
0
 10
731.5165373283142571
 20
18.4010976416803587
 30
0.0
 40
0.0206479679306473
 50
92.6133354808152944
 51
177.3866645191849898
  0
ARC
  5
55BB
  8
0
 10
731.5160428976528237
 20
17.9024861196702716
 30
0.0
 40
0.0201370254351584
 50
181.2720187245614909
 51
268.7279812754396744
  0
LINE
  5
55BC
  8
0
 10
731.968351591988494
 20
17.9020390960060993
 30
0.0
 11
731.968351591988494
 21
18.4020390960060993
 31
0.0
  0
LINE
  5
55BD
  8
0
 10
731.8305563163886518
 20
17.8823540566061006
 30
0.0
 11
731.8305563163886518
 21
17.6847740573354386
 31
0.0
  0
ARC
  5
55BE
  8
0
 10
731.9477250982629357
 20
18.4010976416803587
 30
0.0
 40
0.0206479679306473
 50
2.613335480815008
 51
87.3866645191847198
  0
ARC
  5
55BF
  8
0
 10
731.9482195289244828
 20
17.9024861196702716
 30
0.0
 40
0.0201370254351584
 50
271.2720187245603256
 51
358.7279812754380828
  0
LINE
  5
55C0
  8
0
 10
731.5155958739884454
 20
18.421724135406091
 30
0.0
 11
731.9486665525886337
 21
18.421724135406091
 31
0.0
  0
ARC
  5
55C1
  8
0
 10
731.7321312132886533
 20
18.226883574190019
 30
0.0
 40
0.5509720765924228
 50
259.293112045884186
 51
280.7068879541157003
  0
ARC
  5
55C2
  8
0
 10
729.8833882082917626
 20
16.6085649926819414
 30
0.0
 40
0.5310034813508934
 50
242.4352400865955133
 51
256.812578139023401
  0
LINE
  5
55C3
  8
0
 10
729.4522634291353143
 20
16.2919585073219899
 30
0.0
 11
729.4524250297666867
 21
16.2917336465279696
 31
0.0
  0
LINE
  5
55C4
  8
0
 10
729.4909965317640399
 20
16.2492300981572484
 30
0.0
 11
729.4919106530954878
 21
16.2481890063474808
 31
0.0
  0
LINE
  5
55C5
  8
0
 10
729.4693911730965965
 20
16.2661127748781205
 30
0.0
 11
729.4688084678731457
 21
16.2667348332651507
 31
0.0
  0
LINE
  5
55C6
  8
0
 10
729.4559631951399297
 20
16.2938769021873391
 30
0.0
 11
729.4556400666334639
 21
16.2942014765589889
 31
0.0
  0
LINE
  5
55C7
  8
0
 10
729.4724113919698993
 20
16.2687993619978286
 30
0.0
 11
729.4720299050967469
 21
16.2691650074199607
 31
0.0
  0
LINE
  5
55C8
  8
0
 10
729.4758917982185267
 20
16.2647514736009917
 30
0.0
 11
729.4761874645581656
 21
16.2644738715954489
 31
0.0
  0
LINE
  5
55C9
  8
0
 10
729.494140581517172
 20
16.2518623184088788
 30
0.0
 11
729.4939698464789899
 21
16.2520027664393005
 31
0.0
  0
LINE
  5
55CA
  8
0
 10
729.525946106279207
 20
16.2116745868314602
 30
0.0
 11
729.5472533527743053
 21
16.2421044883857206
 31
0.0
  0
LINE
  5
55CB
  8
0
 10
729.5042424691866927
 20
16.2355902908398591
 30
0.0
 11
729.5074227472596249
 21
16.2401321986588414
 31
0.0
  0
LINE
  5
55CC
  8
0
 10
729.5022440842631113
 20
16.2327363015264083
 30
0.0
 11
729.5032944782999493
 21
16.2342364195305997
 31
0.0
  0
LINE
  5
55CD
  8
0
 10
729.5093453106119341
 20
16.2428779036222402
 30
0.0
 11
729.5147469393151596
 21
16.2505922289899587
 31
0.0
  0
LINE
  5
55CE
  8
0
 10
729.5177011366291708
 20
16.2548112599800909
 30
0.0
 11
729.5214532883569518
 21
16.2601698879607888
 31
0.0
  0
LINE
  5
55CF
  8
0
 10
729.5035930805765929
 20
16.2361262884665187
 30
0.0
 11
729.5068544026239579
 21
16.2407839391032809
 31
0.0
  0
LINE
  5
55D0
  8
0
 10
729.5016209425327816
 20
16.2333097834972016
 30
0.0
 11
729.5026980987516936
 21
16.2348481219839016
 31
0.0
  0
LINE
  5
55D1
  8
0
 10
729.5086694706748176
 20
16.2433761248677406
 30
0.0
 11
729.5142088077998324
 21
16.25128711822029
 31
0.0
  0
LINE
  5
55D2
  8
0
 10
729.516997854180886
 20
16.2552702891634198
 30
0.0
 11
729.5207657056130301
 21
16.2606513386410008
 31
0.0
  0
LINE
  5
55D3
  8
0
 10
729.5094533045479466
 20
16.263309273919301
 30
0.0
 11
729.5060761071464412
 21
16.2584861362905215
 31
0.0
  0
LINE
  5
55D4
  8
0
 10
729.5009973465115536
 20
16.2512329143447793
 30
0.0
 11
729.4987998480138458
 21
16.248094561243331
 31
0.0
  0
LINE
  5
55D5
  8
0
 10
729.4958100035382813
 20
16.243824620896099
 30
0.0
 11
729.4947265413205741
 21
16.2422772765085313
 31
0.0
  0
LINE
  5
55D6
  8
0
 10
729.491852432834321
 20
16.2490807408139588
 30
0.0
 11
729.4934900663168946
 21
16.2514195238261401
 31
0.0
  0
LINE
  5
55D7
  8
0
 10
729.4893262830353251
 20
16.2454730250132116
 30
0.0
 11
729.4898671261742038
 21
16.2462454289160299
 31
0.0
  0
LINE
  5
55D8
  8
0
 10
729.4975169906998644
 20
16.2571705677679894
 30
0.0
 11
729.5002989120383745
 21
16.2611435631410188
 31
0.0
  0
LINE
  5
55D9
  8
0
 10
729.4820972327997879
 20
16.2539625895009117
 30
0.0
 11
729.4842764892750893
 21
16.2570748903181901
 31
0.0
  0
LINE
  5
55DA
  8
0
 10
729.4856377881056915
 20
16.2590190264968513
 30
0.0
 11
729.4900585721117068
 21
16.2653325604625714
 31
0.0
  0
LINE
  5
55DB
  8
0
 10
729.4923713748441969
 20
16.2686355850399096
 30
0.0
 11
729.4979614549897633
 21
16.2766190468079017
 31
0.0
  0
LINE
  5
55DC
  8
0
 10
729.485079722534806
 20
16.2770357445792584
 30
0.0
 11
729.4822766131364915
 21
16.2730324894780907
 31
0.0
  0
LINE
  5
55DD
  8
0
 10
729.4782196593198478
 20
16.2672385589898099
 30
0.0
 11
729.4765700249007523
 21
16.2648826369030211
 31
0.0
  0
LINE
  5
55DE
  8
0
 10
729.4745703294404393
 20
16.2620267757753396
 30
0.0
 11
729.4740255965454025
 21
16.2612488165718894
 31
0.0
  0
LINE
  5
55DF
  8
0
 10
729.4746860446600749
 20
16.2731001509465507
 30
0.0
 11
729.4769094824958984
 21
16.2762755492214097
 31
0.0
  0
LINE
  5
55E0
  8
0
 10
729.4705655768364068
 20
16.2672155130631992
 30
0.0
 11
729.4716614686460616
 21
16.2687806087563409
 31
0.0
  0
LINE
  5
55E1
  8
0
 10
729.4820495722947271
 20
16.2836163582223392
 30
0.0
 11
729.4839967604513049
 21
16.2863972311527583
 31
0.0
  0
LINE
  5
55E2
  8
0
 10
729.4641613331649523
 20
16.2768830235459312
 30
0.0
 11
729.4674848584693336
 21
16.2816295094729888
 31
0.0
  0
LINE
  5
55E3
  8
0
 10
729.4621521843556593
 20
16.2740136615824795
 30
0.0
 11
729.4632494997547383
 21
16.2755807903831986
 31
0.0
  0
LINE
  5
55E4
  8
0
 10
729.4693350963988223
 20
16.2842719230523016
 30
0.0
 11
729.4749842867311145
 21
16.2923398029296891
 31
0.0
  0
LINE
  5
55E5
  8
0
 10
729.46230260660775
 20
16.2930422052188888
 30
0.0
 11
729.4600579807463419
 21
16.2898365471219186
 31
0.0
  0
LINE
  5
55E6
  8
0
 10
729.4570050491263373
 20
16.285476508935929
 30
0.0
 11
729.4558990134673877
 21
16.2838969263771709
 31
0.0
  0
LINE
  5
55E7
  8
0
 10
729.4508438780394499
 20
16.2875855613416007
 30
0.0
 11
729.451396545396733
 21
16.2883748521716001
 31
0.0
  0
LINE
  5
55E8
  8
0
 10
729.4592180105649959
 20
16.2995450620938414
 30
0.0
 11
729.4611925099219434
 21
16.3023649393538683
 31
0.0
  0
LINE
  5
55E9
  8
0
 10
729.4534255987666711
 20
16.2912726406226511
 30
0.0
 11
729.4550997278917066
 21
16.2936635448750984
 31
0.0
  0
LINE
  5
55EA
  8
0
 10
729.4478855662332535
 20
16.3021743724788699
 30
0.0
 11
729.452352953743457
 21
16.3085544631417001
 31
0.0
  0
LINE
  5
55EB
  8
0
 10
729.4442592120194604
 20
16.2969954020584815
 30
0.0
 11
729.4464910528294013
 21
16.3001828010515695
 31
0.0
  0
LINE
  5
55EC
  8
0
 10
729.4411223649440217
 20
16.3113292383741815
 30
0.0
 11
729.4394288827703576
 21
16.3089106951556992
 31
0.0
  0
LINE
  5
55ED
  8
0
 10
729.4373766445309002
 20
16.3059797953534087
 30
0.0
 11
729.436817712918355
 21
16.3051815581921211
 31
0.0
  0
LINE
  5
55EE
  8
0
 10
729.4337583272578058
 20
16.3117204193494985
 30
0.0
 11
729.4348843921524121
 21
16.3133286065833012
 31
0.0
  0
LINE
  5
55EF
  8
0
 10
729.4280430853166308
 20
16.3223719261411411
 30
0.0
 11
729.4295487032143228
 21
16.3245221713428101
 31
0.0
  0
LINE
  5
55F0
  8
0
 10
729.4259742929816639
 20
16.3194173846356101
 30
0.0
 11
729.4271040886436595
 21
16.3210308999921594
 31
0.0
  0
ARC
  5
55F1
  8
0
 10
729.8559857229608951
 20
16.5379255490237007
 30
0.0
 40
0.4562999201000002
 50
216.6838210339793136
 51
218.1965678151771044
  0
ARC
  5
55F2
  8
0
 10
729.8567292429290774
 20
16.5361590275493704
 30
0.0
 40
0.4548274428000002
 50
217.8353235504768008
 51
218.3481137017784874
  0
ARC
  5
55F3
  8
0
 10
729.8544630262125565
 20
16.5367339899594583
 30
0.0
 40
0.4543664279000001
 50
218.1972156791798909
 51
218.928481913078997
  0
ARC
  5
55F4
  8
0
 10
729.856292019053285
 20
16.5358136699659717
 30
0.0
 40
0.4542702747000001
 50
218.3481668845782906
 51
218.6013890830764979
  0
ARC
  5
55F5
  8
0
 10
729.8552910011449057
 20
16.5350101890492915
 30
0.0
 40
0.4529866833000001
 50
218.6009601731784926
 51
219.835906769978493
  0
ARC
  5
55F6
  8
0
 10
729.8544800376041621
 20
16.5343384796495201
 30
0.0
 40
0.4519336678000001
 50
219.8363761395798122
 51
220.0769990164772878
  0
ARC
  5
55F7
  8
0
 10
729.8416880816073444
 20
16.5495561864410696
 30
0.0
 40
0.4602311989000002
 50
215.602376987178701
 51
217.0928313687799118
  0
ARC
  5
55F8
  8
0
 10
729.8423189676518632
 20
16.5477089134858595
 30
0.0
 40
0.4588724643000001
 50
216.7584277137760012
 51
217.2621844268767859
  0
ARC
  5
55F9
  8
0
 10
729.8417937650800695
 20
16.5473099755241009
 30
0.0
 40
0.4582129273000001
 50
217.2622453009797141
 51
217.5125951128769088
  0
ARC
  5
55FA
  8
0
 10
729.8400452105314571
 20
16.5483201713071111
 30
0.0
 40
0.4581752965000002
 50
217.0934453566788989
 51
217.8415938689772986
  0
ARC
  5
55FB
  8
0
 10
729.841473849364661
 20
16.547064453835759
 30
0.0
 40
0.4578096570000002
 50
217.5126020640761908
 51
217.7155512316772956
  0
ARC
  5
55FC
  8
0
 10
729.8404785602034508
 20
16.5462901338875596
 30
0.0
 40
0.4565486422000001
 50
217.7150904508779092
 51
218.9928525977784091
  0
ARC
  5
55FD
  8
0
 10
729.8319584815043299
 20
16.5480570976013617
 30
0.0
 40
0.4533799871000002
 50
219.926655389377288
 51
221.2320863265790933
  0
ARC
  5
55FE
  8
0
 10
729.8327649060008753
 20
16.5462352907251109
 30
0.0
 40
0.4522412419000001
 50
221.0768620495769028
 51
221.5778712707777061
  0
ARC
  5
55FF
  8
0
 10
729.8323914069364946
 20
16.5459044318925486
 30
0.0
 40
0.4517422739000001
 50
221.5779178788799868
 51
221.8268084880760114
  0
ARC
  5
5600
  8
0
 10
729.8306893976623542
 20
16.5469459961472687
 30
0.0
 40
0.4516932330000002
 50
221.4079306714774873
 51
222.150317213777214
  0
ARC
  5
5601
  8
0
 10
729.8321417706235934
 20
16.5456810251711808
 30
0.0
 40
0.4514072682000001
 50
221.8268088857776945
 51
222.0746335980772983
  0
ARC
  5
5602
  8
0
 10
729.8315552594312976
 20
16.5451494551333411
 30
0.0
 40
0.4506157130000001
 50
222.0744365352771013
 51
223.0549540539780082
  0
ARC
  5
5603
  8
0
 10
729.8310100245645344
 20
16.5446423744171298
 30
0.0
 40
0.4498711266000001
 50
223.0551715898795067
 51
223.297586950375802
  0
ARC
  5
5604
  8
0
 10
729.8534174039200479
 20
16.5517918669718185
 30
0.0
 40
0.4689588970000002
 50
211.2641305624777033
 51
212.7354134228789064
  0
ARC
  5
5605
  8
0
 10
729.8535617126884745
 20
16.549753684430101
 30
0.0
 40
0.4670238859000002
 50
212.3948724741781859
 51
213.1550004875784055
  0
ARC
  5
5606
  8
0
 10
729.8512967823845656
 20
16.550435374377269
 30
0.0
 40
0.4664415422000002
 50
212.7361133489783072
 51
213.4921682104792069
  0
ARC
  5
5607
  8
0
 10
729.8515334177301384
 20
16.5484230005399908
 30
0.0
 40
0.4645980506000002
 50
213.1544141703780895
 51
214.6497526453786975
  0
ARC
  5
5608
  8
0
 10
729.8673781791030706
 20
16.5401949479038208
 30
0.0
 40
0.4641175926000001
 50
212.1823448394414982
 51
213.8035484772796906
  0
ARC
  5
5609
  8
0
 10
729.8676378855477651
 20
16.5382211763497082
 30
0.0
 40
0.4620627238000001
 50
213.4368711957795881
 51
214.2062983828770939
  0
ARC
  5
560A
  8
0
 10
729.8653497466901854
 20
16.5388443180103017
 30
0.0
 40
0.4616806476000001
 50
213.8043187235795983
 51
214.5466611446773868
  0
ARC
  5
560B
  8
0
 10
729.865724117063678
 20
16.53691481622322
 30
0.0
 40
0.4597455993000001
 50
214.2057359601784015
 51
215.6998046872795953
  0
ARC
  5
560C
  8
0
 10
729.8800797132707885
 20
16.5279255637355895
 30
0.0
 40
0.4553962184000002
 50
214.622856560477004
 51
215.5257137269782106
  0
ARC
  5
560D
  8
0
 10
729.8806339531547565
 20
16.5261182399812014
 30
0.0
 40
0.4534201738000002
 50
215.1727712631773954
 51
216.433189456378102
  0
ARC
  5
560E
  8
0
 10
729.8795790953261076
 20
16.5253452954996085
 30
0.0
 40
0.4521124478000002
 50
216.4337713805768999
 51
216.6812307560790885
  0
ARC
  5
560F
  8
0
 10
729.8813988811590434
 20
16.5288369000291198
 30
0.0
 40
0.4569995703000001
 50
213.9616860758783048
 51
214.6229108716769929
  0
ARC
  5
5610
  8
0
 10
729.8822725796054556
 20
16.5272765870079184
 30
0.0
 40
0.4554268765000001
 50
214.2048555392721028
 51
215.1731403489793877
  0
ARC
  5
5611
  8
0
 10
729.7954179336627476
 20
16.5720929002601203
 30
0.0
 40
0.4471211159000001
 50
221.8100561218790858
 51
223.0740200314779997
  0
ARC
  5
5612
  8
0
 10
729.7944320403017855
 20
16.5711739830850995
 30
0.0
 40
0.4457733797000002
 50
223.1838391593767028
 51
223.5653786444767093
  0
ARC
  5
5613
  8
0
 10
729.7942503337186508
 20
16.571001178161481
 30
0.0
 40
0.4455226232000002
 50
223.5653807570768947
 51
224.0476357526773938
  0
ARC
  5
5614
  8
0
 10
729.7882507080822734
 20
16.5721749515381092
 30
0.0
 40
0.4415756535000001
 50
226.1064625597788904
 51
227.3591740063777138
  0
ARC
  5
5615
  8
0
 10
729.789273905202549
 20
16.5703850476513992
 30
0.0
 40
0.4412605934000001
 50
227.271453986077006
 51
228.0236909292773078
  0
ARC
  5
5616
  8
0
 10
729.7891273746081424
 20
16.5702219576031098
 30
0.0
 40
0.4410413456000002
 50
228.0236721687801094
 51
228.2724514193766083
  0
ARC
  5
5617
  8
0
 10
729.7876357094934292
 20
16.5715092823697603
 30
0.0
 40
0.4406693773000001
 50
227.3593660992789012
 51
227.8528133208797897
  0
ARC
  5
5618
  8
0
 10
729.7875557884231057
 20
16.5714213402979915
 30
0.0
 40
0.4405505449000002
 50
227.852844913479089
 51
228.3415038579757947
  0
ARC
  5
5619
  8
0
 10
729.7887713497657387
 20
16.5698243907186793
 30
0.0
 40
0.4405076679000002
 50
228.2725933926799087
 51
229.5023252568780947
  0
ARC
  5
561A
  8
0
 10
729.8178526724025232
 20
16.5602447058649602
 30
0.0
 40
0.4547273412000001
 50
218.7563657261773926
 51
220.0090115066784051
  0
ARC
  5
561B
  8
0
 10
729.818494985499683
 20
16.5582942436160501
 30
0.0
 40
0.4536316796000002
 50
219.9159481736791975
 51
220.420614365276208
  0
ARC
  5
561C
  8
0
 10
729.8169228215390376
 20
16.5594688486225685
 30
0.0
 40
0.4535163232000002
 50
220.0094594895795979
 51
220.255725235679904
  0
ARC
  5
561D
  8
0
 10
729.8180926924994765
 20
16.5579521312035283
 30
0.0
 40
0.4531035883000002
 50
220.4206639786794995
 51
220.6707991515762899
  0
ARC
  5
561E
  8
0
 10
729.8164061551019586
 20
16.5590302447433011
 30
0.0
 40
0.4528385940000001
 50
220.2556166212787048
 51
220.9856878414765049
  0
ARC
  5
561F
  8
0
 10
729.8178142820700032
 20
16.5577128991716798
 30
0.0
 40
0.4527365130000001
 50
220.6707983821783046
 51
220.9194850488775899
  0
ARC
  5
5620
  8
0
 10
729.8170344881912115
 20
16.5570335334940815
 30
0.0
 40
0.4517022937000001
 50
220.919156985478395
 51
222.1406493261766002
  0
ARC
  5
5621
  8
0
 10
729.8103899314255614
 20
16.5576943970888806
 30
0.0
 40
0.4478437803000002
 50
224.2000565723795091
 51
224.4584208943778094
  0
ARC
  5
5622
  8
0
 10
729.8102537162978933
 20
16.5575607358100001
 30
0.0
 40
0.4476529403000002
 50
224.4584211437797023
 51
224.7137562301780065
  0
ARC
  5
5623
  8
0
 10
729.8101155463494933
 20
16.557423942349331
 30
0.0
 40
0.4474585094000001
 50
224.7137564824759863
 51
224.9660680842767135
  0
ARC
  5
5624
  8
0
 10
729.809919918138803
 20
16.5572284684415898
 30
0.0
 40
0.4471819584000002
 50
224.9660610810769015
 51
225.2154020091772963
  0
ARC
  5
5625
  8
0
 10
729.8094083297605721
 20
16.5567115837501717
 30
0.0
 40
0.4464547092000001
 50
225.2152722563799898
 51
226.1829748513760023
  0
ARC
  5
5626
  8
0
 10
729.809162695998225
 20
16.5564573894643985
 30
0.0
 40
0.4461012278000001
 50
226.1831347377778911
 51
226.417444345078394
  0
ARC
  5
5627
  8
0
 10
729.8393271322318014
 20
16.5635304423471403
 30
0.0
 40
0.4713519389000001
 50
211.0665286414792945
 51
211.342415650577891
  0
ARC
  5
5628
  8
0
 10
729.8387922108402108
 20
16.5632047173343011
 30
0.0
 40
0.4707256500000002
 50
211.3424213698797018
 51
211.5942862295779037
  0
ARC
  5
5629
  8
0
 10
729.8400705366764214
 20
16.5618690964231483
 30
0.0
 40
0.4703733616000001
 50
211.0543898889083039
 51
212.0126459412769862
  0
ARC
  5
562A
  8
0
 10
729.8378038986162437
 20
16.5625948801645109
 30
0.0
 40
0.4695643320000002
 50
211.5940825894786883
 51
212.3509487428773923
  0
ARC
  5
562B
  8
0
 10
729.83908048689716
 20
16.5612521777048798
 30
0.0
 40
0.4692068351000002
 50
212.0128568495782133
 51
212.26353185867859
  0
ARC
  5
562C
  8
0
 10
729.8376689454656798
 20
16.5603555196020906
 30
0.0
 40
0.4675345842000002
 50
212.2629540684791039
 51
213.5193302014766061
  0
ARC
  5
562D
  8
0
 10
729.8281209577294248
 20
16.5618991027215507
 30
0.0
 40
0.4627491835000001
 50
214.4417692764768901
 51
215.6858791743783001
  0
ARC
  5
562E
  8
0
 10
729.8284397108488974
 20
16.55983814675632
 30
0.0
 40
0.4612624149000001
 50
215.6082588907771083
 51
216.1042560306798066
  0
ARC
  5
562F
  8
0
 10
729.8268757613294611
 20
16.5610101541095389
 30
0.0
 40
0.4612192407000001
 50
215.720818225276787
 51
215.9359134762800068
  0
ARC
  5
5630
  8
0
 10
729.827869917854855
 20
16.5594232108796113
 30
0.0
 40
0.4605575493000001
 50
216.1043192675784042
 51
216.3526029666793136
  0
ARC
  5
5631
  8
0
 10
729.8261479998679988
 20
16.5604809720469284
 30
0.0
 40
0.4603194248000002
 50
215.9357446619773953
 51
216.6854084722789082
  0
ARC
  5
5632
  8
0
 10
729.827491891183513
 20
16.5591449956095715
 30
0.0
 40
0.4600881795000002
 50
216.352603733277391
 51
216.6010875877788919
  0
ARC
  5
5633
  8
0
 10
729.8264132794181478
 20
16.5583393042231712
 30
0.0
 40
0.4587418778000002
 50
216.6006251722766933
 51
217.8458771552789131
  0
ARC
  5
5634
  8
0
 10
729.8149410329565399
 20
16.5746910263519283
 30
0.0
 40
0.4634230844000001
 50
213.1862138502793869
 51
214.4548353196792903
  0
ARC
  5
5635
  8
0
 10
729.8151032294834977
 20
16.5725386084486814
 30
0.0
 40
0.4620065608000001
 50
214.3699042281760967
 51
214.8804869443785037
  0
ARC
  5
5636
  8
0
 10
729.8135764353643253
 20
16.5737606024616611
 30
0.0
 40
0.4617714816000002
 50
214.4554343664790963
 51
214.7049704020766114
  0
ARC
  5
5637
  8
0
 10
729.8145080035087631
 20
16.5721243365213908
 30
0.0
 40
0.4612813609000002
 50
214.8805544239768892
 51
215.1336294663767887
  0
ARC
  5
5638
  8
0
 10
729.8128008464059349
 20
16.5732219667041392
 30
0.0
 40
0.4608272013000002
 50
214.7048178024774927
 51
215.444803240777901
  0
ARC
  5
5639
  8
0
 10
729.8140912441991759
 20
16.5718310504269013
 30
0.0
 40
0.4607717482000001
 50
215.1336277252781883
 51
215.3852481494764959
  0
ARC
  5
563A
  8
0
 10
729.8128992002150426
 20
16.5709797571034905
 30
0.0
 40
0.4593069427000002
 50
215.3847789378793038
 51
216.6208443820777916
  0
ARC
  5
563B
  8
0
 10
729.804868292302217
 20
16.5734797323862715
 30
0.0
 40
0.4551688048000001
 50
217.5083322654784013
 51
217.7661945945793036
  0
ARC
  5
563C
  8
0
 10
729.8040914899107747
 20
16.5728749629621817
 30
0.0
 40
0.4541843443000002
 50
217.7659000576774986
 51
218.7761432757781961
  0
ARC
  5
563D
  8
0
 10
729.8048740624032007
 20
16.5710481544867108
 30
0.0
 40
0.4535288450000002
 50
218.6833308449768083
 51
218.9411325344794932
  0
ARC
  5
563E
  8
0
 10
729.8046095584667228
 20
16.57083441589835
 30
0.0
 40
0.4531887766000001
 50
218.9411328220801067
 51
219.1966596542785908
  0
ARC
  5
563F
  8
0
 10
729.8031727624817222
 20
16.5721400623451203
 30
0.0
 40
0.4530078524000002
 50
218.7764534432793937
 51
219.0238186673774123
  0
ARC
  5
5640
  8
0
 10
729.8043433898429839
 20
16.5706173628681803
 30
0.0
 40
0.4528453268000002
 50
219.1966599454785865
 51
219.4499171490774927
  0
ARC
  5
5641
  8
0
 10
729.8040281608484747
 20
16.57035791604428
 30
0.0
 40
0.4524370597000001
 50
219.449911804679914
 51
219.7009422748799921
  0
ARC
  5
5642
  8
0
 10
729.8031191066322663
 20
16.5695997906345696
 30
0.0
 40
0.4512533677000002
 50
219.7006112347785063
 51
220.9221996147774121
  0
ARC
  5
5643
  8
0
 10
729.8241648417013039
 20
16.5727334147123706
 30
0.0
 40
0.4686078540000002
 50
211.4768803255794012
 51
212.2941824326786957
  0
ARC
  5
5644
  8
0
 10
729.7695964778608868
 20
16.5846469207208393
 30
0.0
 40
0.4327531034000002
 50
230.3554466880754887
 51
231.1792637012779039
  0
ARC
  5
5645
  8
0
 10
729.7683824236162309
 20
16.5862823431549984
 30
0.0
 40
0.4324879274000002
 50
229.1740741467804128
 51
230.6171762130753962
  0
ARC
  5
5646
  8
0
 10
729.7693459248475847
 20
16.5843348765789109
 30
0.0
 40
0.4323529182000002
 50
231.179209714078695
 51
232.618213159076987
  0
ARC
  5
5647
  8
0
 10
729.7680746257411784
 20
16.5859099688642004
 30
0.0
 40
0.4320048130000001
 50
230.6467133519788888
 51
230.9371147082750042
  0
ARC
  5
5648
  8
0
 10
729.7680101276029063
 20
16.5858304060786104
 30
0.0
 40
0.4319023912000001
 50
230.9371069695754954
 51
231.4415432369775942
  0
ARC
  5
5649
  8
0
 10
729.7911837459560047
 20
16.5863396074029303
 30
0.0
 40
0.452355410552238
 50
216.1621115716033046
 51
217.5361128477777868
  0
ARC
  5
564A
  8
0
 10
729.7897974214888563
 20
16.585280865076129
 30
0.0
 40
0.4506110468000001
 50
217.536759228377008
 51
217.9401161868765087
  0
ARC
  5
564B
  8
0
 10
729.7894537692610584
 20
16.5850132754638011
 30
0.0
 40
0.4501755000000001
 50
217.9401486176788012
 51
218.1877310073799947
  0
ARC
  5
564C
  8
0
 10
729.7892047672169156
 20
16.5848174185305908
 30
0.0
 40
0.4498587004000001
 50
218.1877312059775136
 51
218.4336696263769966
  0
ARC
  5
564D
  8
0
 10
729.7900312496794868
 20
16.5830055899475006
 30
0.0
 40
0.4495054657000001
 50
218.1872386198778884
 51
219.3791029307793963
  0
ARC
  5
564E
  8
0
 10
729.7892519136097462
 20
16.5823704666944103
 30
0.0
 40
0.4485001131000002
 50
219.3795526903795121
 51
219.6244971259760916
  0
ARC
  5
564F
  8
0
 10
729.7774018698967211
 20
16.5969244859014218
 30
0.0
 40
0.4458988745000002
 50
216.4203248840636888
 51
218.2238727712793889
  0
ARC
  5
5650
  8
0
 10
729.7819592733344507
 20
16.5853583522714914
 30
0.0
 40
0.4440658988000001
 50
220.494098614276993
 51
221.7639625439774989
  0
ARC
  5
5651
  8
0
 10
729.7825993444746473
 20
16.5833112341668105
 30
0.0
 40
0.4434893049000002
 50
221.685092221878989
 51
222.1951502920774999
  0
ARC
  5
5652
  8
0
 10
729.7809480562872295
 20
16.5844589754108185
 30
0.0
 40
0.4427125949000002
 50
221.7643111967794027
 51
222.2641599593762862
  0
ARC
  5
5653
  8
0
 10
729.7806200908861456
 20
16.5841611951928911
 30
0.0
 40
0.4422696115000001
 50
222.2641858997787949
 51
222.7590557600782972
  0
ARC
  5
5654
  8
0
 10
729.7816243825108131
 20
16.5824208829902808
 30
0.0
 40
0.4421689817000002
 50
222.1945301321777038
 51
223.9430518287798009
  0
ARC
  5
5655
  8
0
 10
729.7743459969068454
 20
16.5852006480490601
 30
0.0
 40
0.4373491548000001
 50
224.8270448818765033
 51
226.2710336726775893
  0
ARC
  5
5656
  8
0
 10
729.7753033098254036
 20
16.5833494240850001
 30
0.0
 40
0.4372092260000002
 50
226.0126068067785923
 51
226.778207400379813
  0
ARC
  5
5657
  8
0
 10
729.7736858022723254
 20
16.5845146174799112
 30
0.0
 40
0.4363970587000001
 50
226.3407816813773934
 51
226.59139600307671
  0
ARC
  5
5658
  8
0
 10
729.7746733437285229
 20
16.5826759263043009
 30
0.0
 40
0.4362870244000002
 50
226.8311838534789899
 51
228.2708867640762094
  0
ARC
  5
5659
  8
0
 10
729.7735695134817888
 20
16.5843915075328887
 30
0.0
 40
0.4362277096000002
 50
226.5913802079774086
 51
227.0910016043762027
  0
ARC
  5
565A
  8
0
 10
729.7678394898764509
 20
16.5982207722497606
 30
0.0
 40
0.4376686630000001
 50
220.6168512251784932
 51
220.8715017695793108
  0
ARC
  5
565B
  8
0
 10
729.7675488332198483
 20
16.5979688795285902
 30
0.0
 40
0.4372840448000001
 50
220.8714650157781136
 51
221.3785283395793897
  0
ARC
  5
565C
  8
0
 10
729.768311093385023
 20
16.5960140205369804
 30
0.0
 40
0.4371318438000002
 50
221.0656958862780925
 51
222.590595169475904
  0
ARC
  5
565D
  8
0
 10
729.7610309644919653
 20
16.5989422240924895
 30
0.0
 40
0.4314292506000001
 50
223.4618486840778928
 51
224.9389506963775034
  0
ARC
  5
565E
  8
0
 10
729.7618435940742074
 20
16.59695569746399
 30
0.0
 40
0.4313675107000002
 50
224.6758117488786866
 51
225.5019837904785902
  0
ARC
  5
565F
  8
0
 10
729.7602977984264498
 20
16.5982153257987903
 30
0.0
 40
0.4303968249000002
 50
225.0003596182775141
 51
225.2559893017790102
  0
ARC
  5
5660
  8
0
 10
729.7611123723919491
 20
16.5962091473379907
 30
0.0
 40
0.4303225133000001
 50
225.5017596303777054
 51
226.9730016765770131
  0
ARC
  5
5661
  8
0
 10
729.7601110284698507
 20
16.5980266031426495
 30
0.0
 40
0.4301313080000001
 50
225.255963401079299
 51
225.7664508218763899
  0
ARC
  5
5662
  8
0
 10
729.7558299676444449
 20
16.598048533040739
 30
0.0
 40
0.4258338763000002
 50
229.0804753635771931
 51
229.9141355330772001
  0
ARC
  5
5663
  8
0
 10
729.7547335892072624
 20
16.5998166512030494
 30
0.0
 40
0.4254653631000002
 50
227.8718276369766045
 51
229.3475318055762102
  0
ARC
  5
5664
  8
0
 10
729.7554832065432038
 20
16.5976355496108816
 30
0.0
 40
0.4252946192000002
 50
229.9140500683776054
 51
231.3841392770767982
  0
ARC
  5
5665
  8
0
 10
729.7543557930516727
 20
16.5993799013700389
 30
0.0
 40
0.4248878893000001
 50
229.3478143680765982
 51
229.6679562961755892
  0
ARC
  5
5666
  8
0
 10
729.7542460362135444
 20
16.5992504922986086
 30
0.0
 40
0.4247182035000002
 50
229.667944521377791
 51
230.1818799632808918
  0
ARC
  5
5667
  8
0
 10
729.7512191682710636
 20
16.6005101794203114
 30
0.0
 40
0.4220552988000002
 50
233.521588574976704
 51
234.369389683880712
  0
ARC
  5
5668
  8
0
 10
729.7511981893745769
 20
16.6004815443064615
 30
0.0
 40
0.4220198030000001
 50
234.3694399018795025
 51
235.8362587633783107
  0
ARC
  5
5669
  8
0
 10
729.7498779391838752
 20
16.6020162809945298
 30
0.0
 40
0.4212508980000001
 50
232.3171454002780933
 51
233.7894442713781018
  0
ARC
  5
566A
  8
0
 10
729.7497668546078557
 20
16.6018656245357299
 30
0.0
 40
0.4210637165000001
 50
233.7895518326766933
 51
234.637307486676093
  0
ARC
  5
566B
  8
0
 10
729.7461650946447662
 20
16.6056110146383986
 30
0.0
 40
0.4186361762000001
 50
236.8102275415753013
 51
236.9251691348761995
  0
ARC
  5
566C
  8
0
 10
729.7689172106081514
 20
16.5991379883477492
 30
0.0
 40
0.4390838445000002
 50
219.0741949276763023
 51
220.6161526896779037
  0
ARC
  5
566D
  8
0
 10
729.7695707370559148
 20
16.597114013753739
 30
0.0
 40
0.4388041782000001
 50
220.2950950697780002
 51
220.8098369652790041
  0
ARC
  5
566E
  8
0
 10
729.7692575376831883
 20
16.5968439862057089
 30
0.0
 40
0.4383906463000002
 50
220.8098777979778049
 51
221.0662208164766867
  0
ARC
  5
566F
  8
0
 10
729.9053229499355666
 20
16.6642493408732015
 30
0.0
 40
0.5905511811000002
 50
226.9512767800792119
 51
230.0281284250777105
  0
LINE
  5
5670
  8
0
 10
729.5142088077998324
 20
16.25128711822029
 30
0.0
 11
729.5147469393151596
 21
16.2505922289899587
 31
0.0
  0
LINE
  5
5671
  8
0
 10
729.5068544026239579
 20
16.2407839391032809
 30
0.0
 11
729.5074227472596249
 21
16.2401321986588414
 31
0.0
  0
LINE
  5
5672
  8
0
 10
729.5026980987516936
 20
16.2348481219839016
 30
0.0
 11
729.5032944782999493
 21
16.2342364195305997
 31
0.0
  0
LINE
  5
5673
  8
0
 10
729.5093453106119341
 20
16.2428779036222402
 30
0.0
 11
729.5086694706748176
 21
16.2433761248677406
 31
0.0
  0
LINE
  5
5674
  8
0
 10
729.5042424691866927
 20
16.2355902908398591
 30
0.0
 11
729.5035930805765929
 21
16.2361262884665187
 31
0.0
  0
LINE
  5
5675
  8
0
 10
729.5022440842631113
 20
16.2327363015264083
 30
0.0
 11
729.5017506549477275
 21
16.2331690961720483
 31
0.0
  0
LINE
  5
5676
  8
0
 10
729.5017506549477275
 20
16.2331690961720483
 30
0.0
 11
729.5016209425327816
 21
16.2333097834972016
 31
0.0
  0
ARC
  5
5677
  8
0
 10
729.8604989022760492
 20
16.6245922573005096
 30
0.0
 40
0.5310034813508935
 50
213.1874218542571953
 51
227.5647599066805071
  0
ARC
  5
5678
  8
0
 10
736.7418838931555456
 20
9.6189247882493945
 30
0.0
 40
8.9737761216594674
 50
125.8951225090588935
 51
129.0984818889691894
  0
ARC
  5
5679
  8
0
 10
731.9453290843686091
 20
16.2701465893975197
 30
0.0
 40
0.7735675671258752
 50
112.0371334219100987
 51
126.9310344203892953
  0
ARC
  5
567A
  8
0
 10
731.7556194524041757
 20
16.6589733274327507
 30
0.0
 40
0.3432775125730291
 50
93.9234416448254592
 51
107.0303766564279044
  0
LINE
  5
567B
  8
0
 10
732.3817375125886429
 20
16.5831414583060912
 30
0.0
 11
732.7823929022927132
 21
16.5831414583060912
 31
0.0
  0
LINE
  5
567C
  8
0
 10
732.139611528288583
 20
16.4847162614060991
 30
0.0
 11
732.1536341173886058
 21
16.5022444977060907
 31
0.0
  0
ARC
  5
567D
  8
0
 10
732.3817375125886429
 20
16.4650312221060986
 30
0.0
 40
0.1181102362
 50
89.999999990398706
 51
160.528779365499787
  0
ARC
  5
567E
  8
0
 10
732.1474855440884539
 20
16.5071633564060889
 30
0.0
 40
0.0078740157
 50
321.3401917461000039
 51
339.4649041181612006
  0
LINE
  5
567F
  8
0
 10
732.1396114814384646
 20
16.4847162614060991
 30
0.0
 11
732.1396114814384646
 21
16.3941650804061005
 31
0.0
  0
ARC
  5
5680
  8
0
 10
726.7223785335214643
 20
9.6189247882493945
 30
0.0
 40
8.9737761216594674
 50
50.9015181110308106
 51
54.1048774909410568
  0
ARC
  5
5681
  8
0
 10
731.5189333423086282
 20
16.2701465893975197
 30
0.0
 40
0.7735675671258752
 50
53.0689655796106834
 51
67.9628665780898586
  0
ARC
  5
5682
  8
0
 10
731.7086429742728342
 20
16.6589733274327507
 30
0.0
 40
0.3432775125730291
 50
72.9696233435720956
 51
86.076558355174555
  0
LINE
  5
5683
  8
0
 10
734.7466587723886278
 20
19.7288107496060903
 30
0.0
 11
734.7466587723886278
 21
19.0418605219060915
 31
0.0
  0
LINE
  5
5684
  8
0
 10
734.7466587723886278
 20
19.5299918520060984
 30
0.0
 11
734.7424027251421421
 21
19.5299918520060984
 31
0.0
  0
LINE
  5
5685
  8
0
 10
734.7466587723886278
 20
19.2740863402060896
 30
0.0
 11
734.742402746523112
 21
19.2740863402060896
 31
0.0
  0
LINE
  5
5686
  8
0
 10
734.7730721367886417
 20
19.2576821876757194
 30
0.0
 11
734.7730721367886417
 21
19.5463960044561311
 31
0.0
  0
LINE
  5
5687
  8
0
 10
734.7545129036885783
 20
19.5595193640561291
 30
0.0
 11
734.7466587723886278
 21
19.5595193640561291
 31
0.0
  0
LINE
  5
5688
  8
0
 10
734.7404524730562798
 20
19.5175115638561216
 30
0.0
 11
734.7466587723886278
 21
19.5175115638561216
 31
0.0
  0
LINE
  5
5689
  8
0
 10
734.7393959208310434
 20
19.5101356422561203
 30
0.0
 11
734.7466587723886278
 21
19.5101356422561203
 31
0.0
  0
LINE
  5
568A
  8
0
 10
734.7466587723886278
 20
19.4925157969561198
 30
0.0
 11
734.7371588982675803
 21
19.4925157969561305
 31
0.0
  0
ARC
  5
568B
  8
0
 10
734.3647690085886097
 20
19.4020390491561194
 30
0.0
 40
0.4330708661
 50
0.0000062115392245
 51
19.471220634500181
  0
ARC
  5
568C
  8
0
 10
734.7535978603674494
 20
19.5385402579212801
 30
0.0
 40
0.0209990523237846
 50
21.9687016796619687
 51
87.5025193664608452
  0
LINE
  5
568D
  8
0
 10
734.7545129036885783
 20
19.2445588281561193
 30
0.0
 11
734.7466587723886278
 21
19.2445588281561193
 31
0.0
  0
LINE
  5
568E
  8
0
 10
734.7404524923034614
 20
19.2865666283561197
 30
0.0
 11
734.7466587723886278
 21
19.2865666283561197
 31
0.0
  0
LINE
  5
568F
  8
0
 10
734.7393959388246003
 20
19.2939425499561317
 30
0.0
 11
734.7466587723886278
 21
19.2939425499561317
 31
0.0
  0
LINE
  5
5690
  8
0
 10
734.7466587723886278
 20
19.3115623952561215
 30
0.0
 11
734.7371589132851568
 21
19.3115623952561215
 31
0.0
  0
ARC
  5
5691
  8
0
 10
734.3647690085886097
 20
19.4020391430561183
 30
0.0
 40
0.4330708661
 50
340.5287793654998154
 51
359.9999937884600172
  0
ARC
  5
5692
  8
0
 10
734.7535978603674494
 20
19.2655379342909789
 30
0.0
 40
0.0209990523237846
 50
272.4974806335392259
 51
338.0312983203380099
  0
ARC
  5
5693
  8
0
 10
735.5203051949781639
 20
19.402039161099971
 30
0.0
 40
0.7883553410025858
 50
168.9147737896589092
 51
191.0852262103410908
  0
ARC
  5
5694
  8
0
 10
729.0868063986061998
 20
22.4630176761110896
 30
0.0
 40
5.8333894678434266
 50
0.6409117599903968
 51
18.1256918346457709
  0
ARC
  5
5695
  8
0
 10
732.3181489473490728
 20
22.5180582880177305
 30
0.0
 40
2.601702001125227
 50
328.0060676316634272
 51
0.2248592190611264
  0
ARC
  5
5696
  8
0
 10
740.6627880913107447
 20
17.1676993818012491
 30
0.0
 40
7.3111263955595431
 50
147.0936201591298129
 51
168.0969185650394877
  0
ARC
  5
5697
  8
0
 10
742.7509546801253464
 20
16.8748728454506889
 30
0.0
 40
9.4158942309273161
 50
168.9742187159635876
 51
182.3219412704769979
  0
ARC
  5
5698
  8
0
 10
697.0463084983654198
 20
15.2139313065393793
 30
0.0
 40
36.3190265471087983
 50
357.8269770234138036
 51
2.018857582706695
  0
ARC
  5
5699
  8
0
 10
730.0175208941883511
 20
14.02932939455774
 30
0.0
 40
3.3272706935767751
 50
332.6475290144967971
 51
356.6829767691887128
  0
ARC
  5
569A
  8
0
 10
732.2444988816939713
 20
12.9069464346333795
 30
0.0
 40
0.8339976216681591
 50
294.4669402665060147
 51
330.8392236576643199
  0
ARC
  5
569B
  8
0
 10
732.3758100890897822
 20
12.6580063012807909
 30
0.0
 40
0.5532709015977482
 50
240.2413933530554004
 51
292.7666320075309727
  0
ARC
  5
569C
  8
0
 10
733.3050932395864265
 20
13.6191411326018201
 30
0.0
 40
1.878064486764685
 50
188.6592857200830053
 51
230.1312624095909882
  0
ARC
  5
569D
  8
0
 10
738.5583730910009308
 20
14.2821514406378398
 30
0.0
 40
7.1725640799475103
 50
173.064444404501586
 51
187.5770420549164896
  0
ARC
  5
569E
  8
0
 10
723.2226250129086793
 20
15.6964486894984407
 30
0.0
 40
8.2339371551013674
 50
356.1826048474167123
 51
359.8690477458667942
  0
ARC
  5
569F
  8
0
 10
720.9653952976686924
 20
15.7539734134953093
 30
0.0
 40
11.0425903741136402
 50
354.6920980665440197
 51
359.6038782302783261
  0
ARC
  5
56A0
  8
0
 10
735.9751840233800522
 20
14.1903616244264708
 30
0.0
 40
4.0509830823156356
 50
172.3098614687029055
 51
193.153751314110707
  0
ARC
  5
56A1
  8
0
 10
733.1224224343692413
 20
13.4854956816377101
 30
0.0
 40
1.11328803317272
 50
191.2397164709566937
 51
228.1167239470678112
  0
ARC
  5
56A2
  8
0
 10
731.0395454009407104
 20
13.7399933918265909
 30
0.0
 40
1.722860474879427
 50
321.0377929909848831
 51
355.0605099514079939
  0
ARC
  5
56A3
  8
0
 10
715.9753604816805819
 20
15.0094399808890806
 30
0.0
 40
16.8404348460645892
 50
355.1705691017090203
 51
1.7418907106353729
  0
ARC
  5
56A4
  8
0
 10
749.9624354830667698
 20
16.4664733032126804
 30
0.0
 40
17.1804387177866502
 50
174.8303984041936019
 51
183.1535593189259998
  0
ARC
  5
56A5
  8
0
 10
740.4124040007228587
 20
17.2573619220051384
 30
0.0
 40
7.5983401058556712
 50
154.6711849383042079
 51
174.281237930705089
  0
ARC
  5
56A6
  8
0
 10
406.6871061546240753
 20
198.0069062411778873
 30
0.0
 40
371.9430272261383266
 50
331.4959673287709165
 51
331.7135122451740017
  0
ARC
  5
56A7
  8
0
 10
731.4211731252811433
 20
22.6811603408249383
 30
0.0
 40
2.9458467671873421
 50
341.5801827410097076
 51
11.8081552585013707
  0
ARC
  5
56A8
  8
0
 10
727.4029702869721632
 20
22.0581576993938206
 30
0.0
 40
7.0097259929415978
 50
10.07139454932436
 51
17.0773636702575082
  0
ENDSEC
  0
EOF
