  0
SECTION
  2
HEADER
  9
$ACADVER
  1
AC1009
  9
$INSBASE
 10
2924.3899364325229726
 20
667.1091380896179999
 30
0.0
  9
$EXTMIN
 10
2898.4901927552009511
 20
653.6248861210181076
 30
0.0
  9
$EXTMAX
 10
2930.5093264993538469
 20
697.5284213741732628
 30
0.0
  9
$LIMMIN
 10
0.0
 20
0.0
  9
$LIMMAX
 10
11.6929133858000007
 20
8.2677165353999982
  9
$ORTHOMODE
 70
     0
  9
$REGENMODE
 70
     1
  9
$FILLMODE
 70
     1
  9
$QTEXTMODE
 70
     0
  9
$MIRRTEXT
 70
     0
  9
$DRAGMODE
 70
     2
  9
$LTSCALE
 40
0.6431102362
  9
$OSMODE
 70
  4095
  9
$ATTMODE
 70
     1
  9
$TEXTSIZE
 40
0.2
  9
$TRACEWID
 40
0.05
  9
$TEXTSTYLE
  7
STANDARD
  9
$CLAYER
  8
0
  9
$CELTYPE
  6
BYLAYER
  9
$CECOLOR
 62
   256
  9
$DIMSCALE
 40
1.0
  9
$DIMASZ
 40
0.1875
  9
$DIMEXO
 40
0.0625
  9
$DIMDLI
 40
0.4443307087
  9
$DIMRND
 40
0.0
  9
$DIMDLE
 40
0.0
  9
$DIMEXE
 40
0.125
  9
$DIMTP
 40
0.01
  9
$DIMTM
 40
0.01
  9
$DIMTXT
 40
2.0
  9
$DIMCEN
 40
0.1052362205
  9
$DIMTSZ
 40
0.0
  9
$DIMTOL
 70
     1
  9
$DIMLIM
 70
     0
  9
$DIMTIH
 70
     1
  9
$DIMTOH
 70
     1
  9
$DIMSE1
 70
     0
  9
$DIMSE2
 70
     0
  9
$DIMTAD
 70
     0
  9
$DIMZIN
 70
     0
  9
$DIMBLK
  1

  9
$DIMASO
 70
     1
  9
$DIMSHO
 70
     1
  9
$DIMPOST
  1
\X
  9
$DIMAPOST
  1

  9
$DIMALT
 70
     1
  9
$DIMALTD
 70
     2
  9
$DIMALTF
 40
25.3999999999999986
  9
$DIMLFAC
 40
1.0
  9
$DIMTOFL
 70
     0
  9
$DIMTVP
 40
0.0
  9
$DIMTIX
 70
     0
  9
$DIMSOXD
 70
     0
  9
$DIMSAH
 70
     0
  9
$DIMBLK1
  1

  9
$DIMBLK2
  1

  9
$DIMSTYLE
  2
STANDARD
  9
$DIMCLRD
 70
     0
  9
$DIMCLRE
 70
     0
  9
$DIMCLRT
 70
     0
  9
$DIMTFAC
 40
1.0
  9
$DIMGAP
 40
0.09
  9
$LUNITS
 70
     2
  9
$LUPREC
 70
     4
  9
$SKETCHINC
 40
0.1
  9
$FILLETRAD
 40
0.0
  9
$AUNITS
 70
     0
  9
$AUPREC
 70
     0
  9
$MENU
  1
.
  9
$ELEVATION
 40
0.0
  9
$PELEVATION
 40
0.0
  9
$THICKNESS
 40
0.0
  9
$LIMCHECK
 70
     0
  9
$BLIPMODE
 70
     0
  9
$CHAMFERA
 40
0.0
  9
$CHAMFERB
 40
0.0
  9
$SKPOLY
 70
     0
  9
$TDCREATE
 40
2458060.468368056230247
  9
$TDUPDATE
 40
2459943.6295138890855014
  9
$TDINDWG
 40
0.2850890046
  9
$TDUSRTIMER
 40
0.2850890046
  9
$USRTIMER
 70
     1
  9
$ANGBASE
 50
0.0
  9
$ANGDIR
 70
     0
  9
$PDMODE
 70
     0
  9
$PDSIZE
 40
0.3125
  9
$PLINEWID
 40
0.0
  9
$COORDS
 70
     1
  9
$SPLFRAME
 70
     0
  9
$SPLINETYPE
 70
     6
  9
$SPLINESEGS
 70
     8
  9
$ATTDIA
 70
     1
  9
$ATTREQ
 70
     1
  9
$HANDLING
 70
     1
  9
$HANDSEED
  5
7FE3
  9
$SURFTAB1
 70
     6
  9
$SURFTAB2
 70
     6
  9
$SURFTYPE
 70
     6
  9
$SURFU
 70
     6
  9
$SURFV
 70
     6
  9
$UCSNAME
  2

  9
$UCSORG
 10
0.0
 20
0.0
 30
0.0
  9
$UCSXDIR
 10
1.0
 20
0.0
 30
0.0
  9
$UCSYDIR
 10
0.0
 20
1.0
 30
0.0
  9
$PUCSNAME
  2

  9
$PUCSORG
 10
0.0
 20
0.0
 30
0.0
  9
$PUCSXDIR
 10
1.0
 20
0.0
 30
0.0
  9
$PUCSYDIR
 10
0.0
 20
1.0
 30
0.0
  9
$USERI1
 70
     0
  9
$USERI2
 70
     0
  9
$USERI3
 70
     0
  9
$USERI4
 70
     0
  9
$USERI5
 70
     0
  9
$USERR1
 40
0.0
  9
$USERR2
 40
0.0
  9
$USERR3
 40
0.0
  9
$USERR4
 40
0.0
  9
$USERR5
 40
0.0
  9
$WORLDVIEW
 70
     1
  9
$SHADEDGE
 70
     3
  9
$SHADEDIF
 70
    70
  9
$TILEMODE
 70
     1
  9
$MAXACTVP
 70
    64
  9
$PLIMCHECK
 70
     0
  9
$PEXTMIN
 10
1.0000000000000000E+20
 20
1.0000000000000000E+20
 30
1.0000000000000000E+20
  9
$PEXTMAX
 10
-1.0000000000000000E+20
 20
-1.0000000000000000E+20
 30
-1.0000000000000000E+20
  9
$PLIMMIN
 10
0.0
 20
0.0
  9
$PLIMMAX
 10
12.0
 20
9.0
  9
$UNITMODE
 70
     0
  9
$VISRETAIN
 70
     1
  9
$PLINEGEN
 70
     0
  9
$PSLTSCALE
 70
     1
  0
ENDSEC
  0
SECTION
  2
TABLES
  0
TABLE
  2
VPORT
 70
     1
  0
VPORT
  2
*ACTIVE
 70
     0
 10
0.0
 20
0.0
 11
1.0
 21
1.0
 12
1531.7403973956049867
 22
568.0719244670048056
 13
0.0
 23
0.0
 14
1.0
 24
1.0
 15
0.0
 25
0.0
 16
0.0
 26
0.0
 36
177.9257463805905104
 17
1398.7899243639449196
 27
98.2223339400318736
 37
0.0
 40
41.9743878041150822
 41
2.498684210526315
 42
50.0
 43
0.0
 44
0.0
 50
0.0
 51
0.0
 71
     0
 72
   100
 73
     1
 74
     1
 75
     0
 76
     0
 77
     0
 78
     0
  0
ENDTAB
  0
TABLE
  2
LTYPE
 70
     2
  0
LTYPE
  2
CONTINUOUS
 70
     0
  3
Solid line
 72
    65
 73
     0
 40
0.0
  0
LTYPE
  2
PHANTOM2
 70
     0
  3
___ _ _ ___ _ _ ___ _ _ ___ _ _
 72
    65
 73
     6
 40
1.25
 49
0.625
 49
-0.125
 49
0.125
 49
-0.125
 49
0.125
 49
-0.125
  0
ENDTAB
  0
TABLE
  2
LAYER
 70
     2
  0
LAYER
  2
0
 70
     0
 62
   255
  6
CONTINUOUS
  0
LAYER
  2
DEFPOINTS
 70
     0
 62
     7
  6
CONTINUOUS
  0
ENDTAB
  0
TABLE
  2
STYLE
 70
     1
  0
STYLE
  2
STANDARD
 70
     0
 40
0.0
 41
0.8
 50
0.0
 71
     0
 42
0.2
  3
txt
  4

  0
ENDTAB
  0
TABLE
  2
VIEW
 70
     0
  0
ENDTAB
  0
TABLE
  2
UCS
 70
     0
  0
ENDTAB
  0
TABLE
  2
APPID
 70
     9
  0
APPID
  2
ACAD
 70
     0
  0
APPID
  2
ACAD_MLEADERVER
 70
     0
  0
APPID
  2
ACAD_EXEMPT_FROM_CAD_STANDARDS
 70
     0
  0
APPID
  2
ACAD_NAV_VCDISPLAY
 70
     0
  0
APPID
  2
ACAECLAYERSTANDARD
 70
     0
  0
APPID
  2
ACCMTRANSPARENCY
 70
     0
  0
APPID
  2
ACAD_DSTYLE_DIMJAG
 70
     0
  0
APPID
  2
ACAD_DSTYLE_DIMTALN
 70
     0
  0
APPID
  2
ACDBATTR
 70
     0
  0
ENDTAB
  0
TABLE
  2
DIMSTYLE
 70
     1
  0
DIMSTYLE
  2
STANDARD
 70
     0
  3

  4

  5

  6

  7

 40
1.0
 41
0.1875
 42
0.0625
 43
0.38
 44
0.125
 45
0.0
 46
0.0
 47
0.01
 48
0.01
140
0.15625
141
0.09
142
0.0
143
25.3999999999999986
144
1.0
145
0.0
146
1.0
147
0.09
 71
     1
 72
     0
 73
     1
 74
     1
 75
     0
 76
     0
 77
     0
 78
     4
170
     0
171
     2
172
     0
173
     0
174
     0
175
     0
176
     0
177
     0
178
     0
  0
ENDTAB
  0
ENDSEC
  0
SECTION
  2
BLOCKS
  0
BLOCK
  8
0
  2
$MODEL_SPACE
 70
     0
 10
0.0
 20
0.0
 30
0.0
  3
$MODEL_SPACE
  1

  0
ENDBLK
  5
21
  8
0
  0
BLOCK
 67
     1
  8
0
  2
$PAPER_SPACE
 70
     0
 10
0.0
 20
0.0
 30
0.0
  3
$PAPER_SPACE
  1

  0
ENDBLK
  5
1D
 67
     1
  8
0
  0
BLOCK
  8
0
  2
_FILLED
 70
     0
 10
0.0
 20
0.0
 30
0.0
  3
_FILLED
  1

  0
SOLID
  5
5A1E
  8
0
  6
BYBLOCK
 62
     0
 10
0.0
 20
0.0
 30
0.0
 11
-1.0
 21
0.1666666667
 31
0.0
 12
-1.0
 22
-0.1666666667
 32
0.0
 13
-1.0
 23
-0.1666666667
 33
0.0
  0
ENDBLK
  5
5A1F
  8
0
  6
BYBLOCK
 62
     0
  0
ENDSEC
  0
SECTION
  2
ENTITIES
  0
LINE
  5
6EB0
  8
0
 10
2921.9371805270229743
 20
656.4083506880181176
 30
0.0
 11
2921.9420321729230636
 21
656.4083506880181176
 31
0.0
  0
LINE
  5
6EB1
  8
0
 10
2921.9371805270229743
 20
656.1327601368180922
 30
0.0
 11
2921.9420321729230636
 21
656.1327601368180922
 31
0.0
  0
LINE
  5
6EB2
  8
0
 10
2921.9371805270229743
 20
654.8729176171181052
 30
0.0
 11
2921.9420321601228352
 21
654.8729176171181052
 31
0.0
  0
LINE
  5
6EB3
  8
0
 10
2921.9371805270229743
 20
655.1485081683181306
 30
0.0
 11
2921.9420321601228352
 21
655.1485081683181306
 31
0.0
  0
LINE
  5
6EB4
  8
0
 10
2922.0474167474230853
 20
653.7233113179181601
 30
0.0
 11
2922.7954482435229693
 21
653.7233113179181601
 31
0.0
  0
LINE
  5
6EB5
  8
0
 10
2922.071016747423073
 20
653.6423891631179686
 30
0.0
 11
2922.7718482435229816
 21
653.6423891631179686
 31
0.0
  0
LINE
  5
6EB6
  8
0
 10
2923.2838662456201746
 20
667.9052295028122899
 30
0.0
 11
2924.1798556265930529
 21
667.9052285867180672
 31
0.0
  0
LINE
  5
6EB7
  8
0
 10
2923.4318232741820793
 20
667.6639959432179694
 30
0.0
 11
2924.0302484710850877
 21
667.6639959432179694
 31
0.0
  0
LINE
  5
7A24
  8
0
 10
2923.2822178314218036
 20
668.4564096892679572
 30
0.0
 11
2924.1798556102748989
 21
668.4564096892679572
 31
0.0
  0
LINE
  5
7A8A
  8
0
 10
2920.1533353982849803
 20
657.3967698986626829
 30
0.0
 11
2920.2327342608041363
 21
657.3967698986626829
 31
0.0
  0
ARC
  5
7B62
  8
0
 10
2920.1488128592968678
 20
657.7769387617546499
 30
0.0
 40
0.3893214174631243
 50
282.4482743374214238
 51
331.5383461702462
  0
ARC
  5
7B63
  8
0
 10
2915.6963036848342199
 20
660.9230801973401412
 30
0.0
 40
5.8386616341843594
 50
325.20624842630491
 51
333.509806240300918
  0
ARC
  5
7B64
  8
0
 10
2890.7607164952901257
 20
674.065170172638318
 30
0.0
 40
34.0242565152600278
 50
332.4321267243652755
 51
336.8590772143575123
  0
LINE
  5
7B65
  8
0
 10
2922.0474167474230853
 20
662.9018360049278726
 30
0.0
 11
2922.0474167474230853
 21
662.0108800711451522
 31
0.0
  0
LINE
  5
7B66
  8
0
 10
2922.0474167474230853
 20
660.6938419383368455
 30
0.0
 11
2922.0474167474230853
 21
656.5256425713259887
 31
0.0
  0
LINE
  5
7B67
  8
0
 10
2922.0474167474230853
 20
653.7135113179181189
 30
0.0
 11
2922.0474167474230853
 21
653.6658951680179825
 31
0.0
  0
LINE
  5
7B68
  8
0
 10
2922.0474167474230853
 20
665.3441429595743557
 30
0.0
 11
2922.0474167474230853
 21
666.4031824242679249
 31
0.0
  0
LINE
  5
7B69
  8
0
 10
2922.0474167474230853
 20
675.3460590836348274
 30
0.0
 11
2922.0474167474230853
 21
677.6926336078100803
 31
0.0
  0
LINE
  5
7B6A
  8
0
 10
2922.7954482435229693
 20
677.6780357273180471
 30
0.0
 11
2922.7954482435229693
 21
671.037422548323093
 31
0.0
  0
LINE
  5
7B6B
  8
0
 10
2922.7954482435229693
 20
666.3977457054370461
 30
0.0
 11
2922.7954482435229693
 21
664.1157927786159689
 31
0.0
  0
LINE
  5
7B6C
  8
0
 10
2922.7954482435229693
 20
662.5662983641619803
 30
0.0
 11
2922.7954482435229693
 21
656.5402404518181356
 31
0.0
  0
LINE
  5
7B6D
  8
0
 10
2922.7954482435229693
 20
653.7135113179181189
 30
0.0
 11
2922.7954482435229693
 21
653.6659891631179562
 31
0.0
  0
LINE
  5
7B6E
  8
0
 10
2923.4812363343380639
 20
668.5268644922912245
 30
0.0
 11
2923.4789916390232065
 21
668.45641088381808
 31
0.0
  0
ARC
  5
7B6F
  8
0
 10
2923.6445096490028845
 20
668.2294431515297219
 30
0.0
 40
0.4275151344428203
 50
147.9339128426838101
 51
177.9646149552380905
  0
LINE
  5
7B70
  8
0
 10
2923.217264241122848
 20
668.2446270780180839
 30
0.0
 11
2923.217264241122848
 21
668.1170087687238492
 31
0.0
  0
LINE
  5
7B71
  8
0
 10
2924.2448092168228868
 20
668.2446269439590196
 30
0.0
 11
2924.2448090861230412
 21
668.1170111981181208
 31
0.0
  0
ARC
  5
7B72
  8
0
 10
2923.6368081396758498
 20
668.1301278983112297
 30
0.0
 40
0.419748965900452
 50
181.7910542972512928
 51
205.9511878719384015
  0
ARC
  5
7B73
  8
0
 10
2923.4708758743508952
 20
668.0441986515254484
 30
0.0
 40
0.2329914715630523
 50
204.8071403245801037
 51
216.6164929681521869
  0
ARC
  5
7B74
  8
0
 10
2924.3062562140848968
 20
679.8958890642785491
 30
0.0
 40
11.3929843015421106
 50
266.283484255654173
 51
268.363328871522981
  0
LINE
  5
7B75
  8
0
 10
2923.9808564573231706
 20
668.5075526496181055
 30
0.0
 11
2923.9791842498229926
 21
668.4564098644179921
 31
0.0
  0
ARC
  5
7B76
  8
0
 10
2923.3290332769861379
 20
667.9842683535946435
 30
0.0
 40
0.0793401071093886
 50
201.0779720285204917
 51
241.9981547093933045
  0
ARC
  5
7B77
  8
0
 10
2923.3044425526641135
 20
667.9461267817173393
 30
0.0
 40
0.0343297902393099
 50
248.3608320441863953
 51
322.5267379173791937
  0
ARC
  5
7B78
  8
0
 10
2923.068134168969209
 20
668.1107811187948755
 30
0.0
 40
0.3223131910610333
 50
324.854685493270722
 51
1.1079632396254531
  0
LINE
  5
7B79
  8
0
 10
2923.3903870985232061
 20
668.1170134960181031
 30
0.0
 11
2923.3903873599228973
 21
668.2446276249180528
 31
0.0
  0
ARC
  5
7B7A
  8
0
 10
2923.3321933856068426
 20
668.3749338303413197
 30
0.0
 40
0.0830090087130824
 50
119.2405756557205052
 51
156.8905766477109012
  0
ARC
  5
7B7B
  8
0
 10
2923.3040312470830031
 20
668.4183728796333526
 30
0.0
 40
0.0315275211287463
 50
54.0093812534271791
 51
113.1325960877690022
  0
ARC
  5
7B7C
  8
0
 10
2923.2104626356199333
 20
668.320199473025923
 30
0.0
 40
0.1669218358635697
 50
5.3902316074505521
 51
47.8134296067032523
  0
ARC
  5
7B7D
  8
0
 10
2922.7540499722281311
 20
668.1954668729764535
 30
0.0
 40
0.6382335391610134
 50
4.4176561808739789
 51
12.7091822006980504
  0
ARC
  5
7B7E
  8
0
 10
2923.6511356748110302
 20
668.1828268019777397
 30
0.0
 40
0.2679720609191762
 50
110.3472382529623985
 51
166.6661804405252099
  0
ARC
  5
7B7F
  8
0
 10
2923.6472685741341593
 20
668.1897660257538973
 30
0.0
 40
0.2601240300136615
 50
75.4197539577789371
 51
110.0800635119311011
  0
ARC
  5
7B80
  8
0
 10
2923.6447185229972092
 20
668.1838882195874021
 30
0.0
 40
0.2664563190870822
 50
13.1763681184775603
 51
75.2072457521087614
  0
ARC
  5
7B81
  8
0
 10
2923.8186441241068678
 20
668.2297744183435952
 30
0.0
 40
0.4264238311428864
 50
1.9960403909142319
 51
32.1054330539436208
  0
ARC
  5
7B82
  8
0
 10
2923.6500880466619492
 20
668.1783383039003184
 30
0.0
 40
0.2668432396108717
 50
193.2862307455604878
 51
263.8676461742124957
  0
ARC
  5
7B83
  8
0
 10
2923.6471942520070115
 20
668.1743224238057337
 30
0.0
 40
0.2625526229399457
 50
264.4019226506244991
 51
334.3060329838265829
  0
ARC
  5
7B84
  8
0
 10
2923.6389634608540291
 20
668.1806657200744439
 30
0.0
 40
0.2727282567814168
 50
333.8548709699223878
 51
346.5030350076468721
  0
LINE
  5
7B85
  8
0
 10
2923.9041595863232033
 20
668.1170126205181532
 30
0.0
 11
2923.9041598477228945
 21
668.2446267494181029
 31
0.0
  0
ARC
  5
7B86
  8
0
 10
2924.1126316168270023
 20
668.2464352279723698
 30
0.0
 40
0.2084796131712348
 50
103.0297377874969982
 51
180.4970245603252863
  0
ARC
  5
7B87
  8
0
 10
2924.0719787583279867
 20
668.3151573433540307
 30
0.0
 40
0.1345397605654029
 50
38.0058350112932715
 51
92.7053657471734454
  0
ARC
  5
7B88
  8
0
 10
2923.9420325350711209
 20
668.2036680515687976
 30
0.0
 40
0.3056796561543191
 50
7.9744676450636529
 51
39.4744658650575175
  0
ARC
  5
7B89
  8
0
 10
2924.1832288441942183
 20
668.1515172984893525
 30
0.0
 40
0.2811942806858325
 50
187.0483923134268878
 51
231.0656515226052079
  0
ARC
  5
7B8A
  8
0
 10
2924.0745642051419964
 20
668.0329748447425118
 30
0.0
 40
0.121112126978284
 50
235.8165700997273007
 51
305.7929613405609075
  0
ARC
  5
7B8B
  8
0
 10
2923.978244886317043
 20
668.1441470716451931
 30
0.0
 40
0.2679418374393636
 50
308.5970651766419905
 51
354.1873908887982907
  0
ARC
  5
7B8C
  8
0
 10
2923.8052004177447998
 20
668.1359867497494633
 30
0.0
 40
0.4400180142592788
 50
328.3704601036898225
 51
357.5283823458833012
  0
LINE
  5
7B8D
  8
0
 10
2923.4318232741820793
 20
667.9052293515352403
 30
0.0
 11
2923.4318232741820793
 21
667.6639959432179694
 31
0.0
  0
LINE
  5
7B8E
  8
0
 10
2924.0302484710850877
 20
667.9052287396822294
 30
0.0
 11
2924.0302484710850877
 21
667.6639953305176505
 31
0.0
  0
ARC
  5
7B8F
  8
0
 10
2924.002551002277869
 20
667.0224029097707898
 30
0.0
 40
1.5142684845432191
 50
99.4445852784175344
 51
108.7378644686073983
  0
LINE
  5
7B90
  8
0
 10
2923.754069199523201
 20
668.5161451355180589
 30
0.0
 11
2923.7585737537228852
 21
668.4564104515180816
 31
0.0
  0
ARC
  5
7B91
  8
0
 10
2914.6939724961089269
 20
667.8885180673826198
 30
0.0
 40
9.2897820880619992
 50
348.2914148748375851
 51
358.6150996100906809
  0
ARC
  5
7B92
  8
0
 10
2898.0424979405138401
 20
671.5947709789164719
 30
0.0
 40
26.3480903759381597
 50
336.8220211691556187
 51
347.7477986967834909
  0
ARC
  5
7B93
  8
0
 10
2922.6084403695231231
 20
740.0984255737081412
 30
0.0
 40
83.5583943886488498
 50
269.871769067152627
 51
270.8887273912280875
  0
LINE
  5
7B94
  8
0
 10
2921.9371805270229743
 20
654.8729176171181052
 30
0.0
 11
2921.9371805270229743
 21
654.7667207664801481
 31
0.0
  0
LINE
  5
7B95
  8
0
 10
2921.9371805270229743
 20
656.4083506880181176
 30
0.0
 11
2921.9371821555228053
 21
656.5147521513415541
 31
0.0
  0
LINE
  5
7B96
  8
0
 10
2921.9420321729230636
 20
656.1327601368180922
 30
0.0
 11
2921.9420321729230636
 21
656.4083506880181176
 31
0.0
  0
LINE
  5
7B97
  8
0
 10
2922.4214282286179696
 20
656.5295447755626128
 30
0.0
 11
2921.9469219890070235
 21
656.5245940713554091
 31
0.0
  0
ARC
  5
7B98
  8
0
 10
2921.9470246742230302
 20
656.5147520883177776
 30
0.0
 40
0.0098425187001882
 50
90.5977675856085654
 51
179.999633122855812
  0
LINE
  5
7B99
  8
0
 10
2922.4214324297140593
 20
656.5402404512967678
 30
0.0
 11
2922.4214324297140593
 21
656.529544819394232
 31
0.0
  0
ARC
  5
7B9A
  8
0
 10
2910.327274578901779
 20
665.8912875831513247
 30
0.0
 40
12.8208881783258697
 50
336.0845006325486111
 51
339.2129085384514724
  0
ARC
  5
7B9B
  8
0
 10
2920.193174577094851
 20
657.6560315497038118
 30
0.0
 40
0.2623047156817511
 50
194.889951900898609
 51
261.2640341165226232
  0
ARC
  5
7B9C
  8
0
 10
2920.4633880984879397
 20
657.6904527637545925
 30
0.0
 40
0.5335172316156366
 50
166.9422645794984135
 51
174.7179131807208989
  0
ARC
  5
7B9D
  8
0
 10
2920.4633880984879397
 20
657.6904527637545925
 30
0.0
 40
0.5335172316156366
 50
185.2820868192791011
 51
191.0026274196891904
  0
ARC
  5
7B9E
  8
0
 10
2644.0227158612037783
 20
747.0804029038962426
 30
0.0
 40
290.0024112454865985
 50
342.0719170011427082
 51
343.0726908364840142
  0
ARC
  5
7B9F
  8
0
 10
2901.6209066233450358
 20
668.3680855812895061
 30
0.0
 40
20.6491293963816709
 50
343.9058919298039996
 51
353.3787816608668209
  0
ARC
  5
7BA0
  8
0
 10
2913.2169310698041045
 20
666.8516385164073199
 30
0.0
 40
8.9571941565575415
 50
354.4614918817121065
 51
1.3294613114736109
  0
ARC
  5
7BA1
  8
0
 10
2887.0212233202801144
 20
675.7209346253787317
 30
0.0
 40
37.6138248769743271
 50
335.362283116063395
 51
339.2841920630253867
  0
ARC
  5
7BA2
  8
0
 10
2903.4389111897698967
 20
669.9058185256910747
 30
0.0
 40
20.2039581484687396
 50
338.2396032493799112
 51
352.0764252885496717
  0
ARC
  5
7BA3
  8
0
 10
2943.7804671594949468
 20
665.8241648805153545
 30
0.0
 40
20.371785990156809
 50
174.818400709473508
 51
176.3511310089614881
  0
ARC
  5
7BA4
  8
0
 10
2949.0305311248498583
 20
652.3442492812846467
 30
0.0
 40
28.8647246467050209
 50
161.8674834210299025
 51
164.5360438104395087
  0
ARC
  5
7BA5
  8
0
 10
2892.8612281974378675
 20
670.276528890903478
 30
0.0
 40
30.0991795516134104
 50
342.7031244997662043
 51
350.9391108179518142
  0
ARC
  5
7BA6
  8
0
 10
2910.6292991115437871
 20
667.0698195108004711
 30
0.0
 40
12.0534558609855207
 50
352.6910744865127185
 51
359.9210586581166922
  0
ARC
  5
7BA7
  8
0
 10
2922.4214324955228221
 20
667.1091380895179554
 30
0.0
 40
0.8080086993999984
 50
123.3973222855872933
 51
242.4265201614014131
  0
ARC
  5
7BA8
  8
0
 10
2922.4214324955228221
 20
667.1091380895179554
 30
0.0
 40
0.8080086993999984
 50
297.5734798306040148
 51
56.6141098413502988
  0
ARC
  5
7BA9
  8
0
 10
2921.3852120230230867
 20
667.1091380895179554
 30
0.0
 40
0.0785336904999952
 50
180.0
 51
270.0
  0
LINE
  5
7BAA
  8
0
 10
2921.3852120230230867
 20
667.0306043990181024
 30
0.0
 11
2921.5487161945229673
 21
667.0306043990181024
 31
0.0
  0
ARC
  5
7BAB
  8
0
 10
2921.5487161945229673
 20
666.9516577746179564
 30
0.0
 40
0.0789466243999977
 50
13.5358867697642395
 51
90.0
  0
ARC
  5
7BAC
  8
0
 10
2921.3852120230230867
 20
667.1091380895140901
 30
0.0
 40
0.0785336904999952
 50
89.9999999971599891
 51
179.9999999971664977
  0
LINE
  5
7BAD
  8
0
 10
2921.3852120230271794
 20
667.1876717800141705
 30
0.0
 11
2921.54871619452706
 21
667.1876717800060987
 31
0.0
  0
ARC
  5
7BAE
  8
0
 10
2921.5487161945311527
 20
667.266618404406131
 30
0.0
 40
0.0789466243999977
 50
269.9999999971599891
 51
346.4641132274044821
  0
ARC
  5
7BAF
  8
0
 10
2922.4215489151902148
 20
667.109080068582216
 30
0.0
 40
0.7910750489939832
 50
123.5674448039098934
 51
243.3530464452072124
  0
ARC
  5
7BB0
  8
0
 10
2922.4200782824500493
 20
667.1084631796145459
 30
0.0
 40
0.7922737616273307
 50
296.7101306166550216
 51
56.3826647296158683
  0
LINE
  5
7BB1
  8
0
 10
2922.0376418742230271
 20
667.7314343334179512
 30
0.0
 11
2922.066758328322976
 21
666.4020274732181406
 31
0.0
  0
ARC
  5
7BB2
  8
0
 10
2921.9984660408917989
 20
667.731764384585631
 30
0.0
 40
0.0391772236244394
 50
359.5173021242750906
 51
111.4346504196656014
  0
ARC
  5
7BB3
  8
0
 10
2922.8443513987231199
 20
667.7315807582181151
 30
0.0
 40
0.0393656195999988
 50
68.5991784188741462
 51
177.5602398724230113
  0
LINE
  5
7BB4
  8
0
 10
2922.8050214628710819
 20
667.7332565124921757
 30
0.0
 11
2922.7761870771228132
 21
666.4007314227179677
 31
0.0
  0
LINE
  5
7BB5
  8
0
 10
2922.8817720533379543
 20
668.2323837294194391
 30
0.0
 11
2922.8653574870832017
 21
667.7637677983104822
 31
0.0
  0
LINE
  5
7BB6
  8
0
 10
2921.9610880192790319
 20
668.2323860648732534
 30
0.0
 11
2921.9773669010210142
 21
667.7636807647542128
 31
0.0
  0
LINE
  5
7BB7
  8
0
 10
2922.0401161942668296
 20
667.6184611661127519
 30
0.0
 11
2922.8025277719721089
 21
667.6180154347422331
 31
0.0
  0
LINE
  5
7BB8
  8
0
 10
2922.0402875136628609
 20
667.610639019217956
 30
0.0
 11
2922.80236815440594
 21
667.610639019217956
 31
0.0
  0
LINE
  5
7BB9
  8
0
 10
2922.0421905418870665
 20
667.5237500468181224
 30
0.0
 11
2922.8004879720610916
 21
667.5237500468181224
 31
0.0
  0
LINE
  5
7BBA
  8
0
 10
2922.0420120678609237
 20
667.5318988617179912
 30
0.0
 11
2922.8006643035050729
 21
667.5318988617179912
 31
0.0
  0
LINE
  5
7BBB
  8
0
 10
2922.052359393045208
 20
667.0594579169179497
 30
0.0
 11
2922.7904411981007797
 21
667.0594579169179497
 31
0.0
  0
LINE
  5
7BBC
  8
0
 10
2922.2701307670758979
 20
667.08795497901815
 30
0.0
 11
2922.7910578433620685
 21
667.08795497901815
 31
0.0
  0
ARC
  5
7BBD
  8
0
 10
2922.2249984017271345
 20
667.119498737467552
 30
0.0
 40
0.060154708404616
 50
273.526225379901291
 51
309.2891424155610025
  0
ARC
  5
7BBE
  8
0
 10
2922.2472624921269926
 20
667.0895212730908952
 30
0.0
 40
0.0229219546072919
 50
313.6708059741823718
 51
356.0818339482715942
  0
LINE
  5
7BBF
  8
0
 10
2922.8876405538039762
 20
668.2405602791179717
 30
0.0
 11
2921.9541762595231376
 21
668.2405602791179717
 31
0.0
  0
ARC
  5
7BC0
  8
0
 10
2922.8738768953121507
 20
668.2326602791181358
 30
0.0
 40
0.0079
 50
357.9938773982893849
 51
89.9999999999739515
  0
ARC
  5
7BC1
  8
0
 10
2921.9689832587660021
 20
668.2326602791181358
 30
0.0
 40
0.0079
 50
89.9999999999478888
 51
181.9891741182686928
  0
ARC
  5
7BC2
  8
0
 10
2921.7604559406140652
 20
672.7094734864560905
 30
0.0
 40
0.0398516016626653
 50
6.4618227577735023
 51
75.8652284881944752
  0
ARC
  5
7BC3
  8
0
 10
2779.2847010190162109
 20
666.1832497087748379
 30
0.0
 40
142.6649084270603112
 50
0.8340175160199077
 51
2.6237205577225651
  0
ARC
  5
7BC4
  8
0
 10
2921.954188979977971
 20
668.2602580730485897
 30
0.0
 40
0.0196977980377843
 50
181.1668403146420019
 51
269.9629994984750851
  0
ARC
  5
7BC5
  8
0
 10
2908.2726425917730921
 20
670.7878159647541452
 30
0.0
 40
14.5093757057283792
 50
8.2828185582349381
 51
18.3100182400775608
  0
ARC
  5
7BC6
  8
0
 10
2899.6042385321061374
 20
669.8889525722953522
 30
0.0
 40
23.2196294364125606
 50
2.8350728944713248
 51
7.3962432953469364
  0
ARC
  5
7BC7
  8
0
 10
2764.0451909557441468
 20
663.2531216490078805
 30
0.0
 40
158.9409938606899004
 50
1.8051059854794971
 51
2.8072435736264318
  0
ARC
  5
7BC8
  8
0
 10
2922.88763301994004
 20
668.2602453353616738
 30
0.0
 40
0.0196850576853795
 50
270.0219282379259766
 51
358.517736920804623
  0
ARC
  5
7BC9
  8
0
 10
2921.1035965157739156
 20
673.2747855160178005
 30
0.0
 40
0.2792688465893988
 50
349.9751504105718141
 51
10.7767577681783102
  0
ARC
  5
7BCA
  8
0
 10
2920.4096787282669538
 20
673.4572309916131871
 30
0.0
 40
0.9960923089779583
 50
330.023728629281095
 51
346.5871699252211897
  0
ARC
  5
7BCB
  8
0
 10
2921.6757052624611788
 20
672.7399291360064808
 30
0.0
 40
0.4591113788146928
 50
151.422722792247896
 51
189.2085351784587033
  0
ARC
  5
7BCC
  8
0
 10
2921.50304241533604
 20
672.7336783348281415
 30
0.0
 40
0.288472812590411
 50
193.4749471226747062
 51
243.5702973454498874
  0
ARC
  5
7BCD
  8
0
 10
2921.4756747892329258
 20
672.6103873582696906
 30
0.0
 40
0.1686437804168386
 50
233.1958146272586134
 51
268.6467456333701875
  0
ARC
  5
7BCE
  8
0
 10
2921.4463639488189983
 20
672.6138621615973534
 30
0.0
 40
0.1788543154464462
 50
285.8297311857633076
 51
13.5868888038766205
  0
ARC
  5
7BCF
  8
0
 10
2919.9455482774951633
 20
672.3863797042894248
 30
0.0
 40
1.696210931838199
 50
9.1420598425215882
 51
16.8624730807414416
  0
LINE
  5
7BD0
  8
0
 10
2921.5688285501551036
 20
672.8784088514729547
 30
0.0
 11
2921.6423628359229951
 21
672.8990785199774791
 31
0.0
  0
LINE
  5
7BD1
  8
0
 10
2921.6401066919229379
 20
672.8984390761181658
 30
0.0
 11
2921.64943879208613
 21
672.8695836322608557
 31
0.0
  0
ARC
  5
7BD2
  8
0
 10
2921.6671819771408991
 20
672.8763225164781261
 30
0.0
 40
0.0189798097029398
 50
200.7968406963173038
 51
217.6873029558537098
  0
ARC
  5
7BD3
  8
0
 10
2925.9170311516681977
 20
676.2477998038741589
 30
0.0
 40
5.443743405601861
 50
218.4229891562625028
 51
219.651180586855503
  0
ARC
  5
7BD4
  8
0
 10
2921.7864640774328109
 20
672.827207131739101
 30
0.0
 40
0.0807460278696381
 50
221.1423331794001115
 51
258.3710304463194234
  0
ARC
  5
7BD5
  8
0
 10
2920.4422994434657994
 20
677.1432098009481706
 30
0.0
 40
0.017615266178294
 50
171.9563806000676038
 51
188.0104439360351023
  0
ARC
  5
7BD6
  8
0
 10
2926.163470401106224
 20
676.496841573604911
 30
0.0
 40
5.7751764154355341
 50
172.4609983425310986
 51
173.5492792217899876
  0
ARC
  5
7BD7
  8
0
 10
2920.5175941528459589
 20
677.2440741656205319
 30
0.0
 40
0.0800666624341616
 50
120.1750653084009031
 51
172.4813804363348027
  0
ARC
  5
7BD8
  8
0
 10
2920.9254047845352034
 20
676.5489039352456757
 30
0.0
 40
0.8860258903550505
 50
106.1664430408278008
 51
120.3772574031893043
  0
ARC
  5
7BD9
  8
0
 10
2920.9233419477168354
 20
676.5332082925516488
 30
0.0
 40
0.9005489239225622
 50
92.0935408666736492
 51
105.762344602181102
  0
ARC
  5
7BDA
  8
0
 10
2920.8968285398059379
 20
677.351749237570516
 30
0.0
 40
0.0817566631567815
 50
39.7601099869692831
 51
84.6981059649056363
  0
ARC
  5
7BDB
  8
0
 10
2916.522312676427191
 20
673.7422311783639088
 30
0.0
 40
5.7531764222096848
 50
16.1869628421099101
 51
39.5301733197152316
  0
LINE
  5
7BDC
  8
0
 10
2921.9371805270229743
 20
656.1327601368180922
 30
0.0
 11
2921.9371805270229743
 21
655.1485081683181306
 31
0.0
  0
LINE
  5
7BDD
  8
0
 10
2921.9420321601228352
 20
655.1485081683181306
 30
0.0
 11
2921.9420321601228352
 21
654.8729176171181052
 31
0.0
  0
ARC
  5
7BDE
  8
0
 10
2921.946980527022788
 20
654.7667207664801481
 30
0.0
 40
0.0098
 50
179.9999999999739089
 51
270.000824712096005
  0
ARC
  5
7BDF
  8
0
 10
2918.5122336902450115
 20
234.3791492409912109
 30
0.0
 40
420.391803297279921
 50
89.2119088226936157
 51
89.5318683819153449
  0
LINE
  5
7BE0
  8
0
 10
2924.3899364325229726
 20
654.7311853337181446
 30
0.0
 11
2924.3899364325229726
 21
656.5500829714180782
 31
0.0
  0
ARC
  5
7BE1
  8
0
 10
2922.0572167474228991
 20
653.7135113179181189
 30
0.0
 40
0.0098
 50
89.9999999999478888
 51
180.0000000000194973
  0
ARC
  5
7BE2
  8
0
 10
2922.7856482435231555
 20
653.7135113179181189
 30
0.0
 40
0.0098
 50
359.9999999999805027
 51
89.9999999999478888
  0
ARC
  5
7BE3
  8
0
 10
2922.071016747423073
 20
653.6659891631179562
 30
0.0
 40
0.0236
 50
180.0000000000065086
 51
270.0
  0
ARC
  5
7BE4
  8
0
 10
2922.7718482435229816
 20
653.6659891631179562
 30
0.0
 40
0.0236
 50
270.0
 51
359.9999999999935199
  0
ARC
  5
7BE5
  8
0
 10
2922.4761561931818505
 20
657.7662139268815054
 30
0.0
 40
4.1436781550620951
 50
264.3890612604341186
 51
268.0701153653483857
  0
ARC
  5
7BE6
  8
0
 10
2922.3819131981258579
 20
657.5644039615851852
 30
0.0
 40
3.9413512174156939
 50
271.7476633125847911
 51
275.6778092843943
  0
LINE
  5
7BE7
  8
0
 10
2922.0474167474230853
 20
653.7233113179181601
 30
0.0
 11
2922.0474167474230853
 21
654.7560881426049946
 31
0.0
  0
LINE
  5
7BE8
  8
0
 10
2922.7954482435229693
 20
653.7233113179181601
 30
0.0
 11
2922.7954482435229693
 21
654.7491319379356582
 31
0.0
  0
LINE
  5
7BE9
  8
0
 10
2922.3623773774229448
 20
653.699689270618137
 30
0.0
 11
2922.4804876136231542
 21
653.699689270618137
 31
0.0
  0
LINE
  5
7BEA
  8
0
 10
2922.4804876136231542
 20
653.699689270618137
 30
0.0
 11
2922.4804876136231542
 21
653.7233113179181601
 31
0.0
  0
LINE
  5
7BEB
  8
0
 10
2922.3623773774229448
 20
653.699689270618137
 30
0.0
 11
2922.3623773774229448
 21
653.7233113179181601
 31
0.0
  0
ARC
  5
7BEC
  8
0
 10
2922.4267047112011824
 20
667.1258617800682487
 30
0.0
 40
0.8161646958587475
 50
286.673948798604215
 51
250.9499937252145116
  0
LINE
  5
7BED
  8
0
 10
2921.9371805270229743
 20
677.8099254911180651
 30
0.0
 11
2921.9420321729230636
 21
677.8099254911180651
 31
0.0
  0
LINE
  5
7BEE
  8
0
 10
2921.9371805270229743
 20
678.0855160423180905
 30
0.0
 11
2921.9420321729230636
 21
678.0855160423180905
 31
0.0
  0
LINE
  5
7BEF
  8
0
 10
2921.9371805270229743
 20
679.3453585620180775
 30
0.0
 11
2921.9420321601228352
 21
679.3453585620180775
 31
0.0
  0
LINE
  5
7BF0
  8
0
 10
2921.9371805270229743
 20
679.0697680108180521
 30
0.0
 11
2921.9420321601228352
 21
679.0697680108180521
 31
0.0
  0
LINE
  5
7BF1
  8
0
 10
2924.2944505939772171
 20
679.4870908455179688
 30
0.0
 11
2924.3899364325229726
 21
679.4870908455179688
 31
0.0
  0
LINE
  5
7BF2
  8
0
 10
2922.0474167474230853
 20
680.4949648612181363
 30
0.0
 11
2922.7954482435229693
 21
680.4949648612181363
 31
0.0
  0
LINE
  5
7BF3
  8
0
 10
2922.071016747423073
 20
680.5758870160181004
 30
0.0
 11
2922.7718482435229816
 21
680.5758870160181004
 31
0.0
  0
LINE
  5
7BF4
  8
0
 10
2922.0474167474230853
 20
680.5047648612179501
 30
0.0
 11
2922.0474167474230853
 21
680.5523810111179728
 31
0.0
  0
LINE
  5
7BF5
  8
0
 10
2922.7954482435229693
 20
680.5047648612179501
 30
0.0
 11
2922.7954482435229693
 21
680.5522870160181128
 31
0.0
  0
ARC
  5
7BF6
  8
0
 10
2922.6084403695231231
 20
594.1198506054280415
 30
0.0
 40
83.5583943886488498
 50
89.1112726087718983
 51
90.1282309328474156
  0
LINE
  5
7BF7
  8
0
 10
2921.9371805270229743
 20
679.3453585620180775
 30
0.0
 11
2921.9371805270229743
 21
679.4515554126559209
 31
0.0
  0
LINE
  5
7BF8
  8
0
 10
2921.9371805270229743
 20
677.8099254911180651
 30
0.0
 11
2921.9371821555228053
 21
677.703524027794515
 31
0.0
  0
LINE
  5
7BF9
  8
0
 10
2921.9420321729230636
 20
678.0855160423180905
 30
0.0
 11
2921.9420321729230636
 21
677.8099254911180651
 31
0.0
  0
LINE
  5
7BFA
  8
0
 10
2922.4214324955228221
 20
677.6887313590552822
 30
0.0
 11
2921.9469219890070235
 21
677.6936821077806599
 31
0.0
  0
ARC
  5
7BFB
  8
0
 10
2921.9470246742230302
 20
677.7035240908181777
 30
0.0
 40
0.0098425187001882
 50
180.0003668771441028
 51
269.4022324143915057
  0
LINE
  5
7BFC
  8
0
 10
2921.9371805270229743
 20
678.0855160423180905
 30
0.0
 11
2921.9371805270229743
 21
679.0697680108180521
 31
0.0
  0
LINE
  5
7BFD
  8
0
 10
2921.9420321601228352
 20
679.0697680108180521
 30
0.0
 11
2921.9420321601228352
 21
679.3453585620180775
 31
0.0
  0
ARC
  5
7BFE
  8
0
 10
2921.946980527022788
 20
679.4515554126559209
 30
0.0
 40
0.0098
 50
89.9991752879040092
 51
180.0000000000260059
  0
ARC
  5
7BFF
  8
0
 10
2918.5122336903368705
 20
1099.8391269291500976
 30
0.0
 40
420.3918032882843931
 50
270.4681316180585782
 51
270.7880911782964972
  0
LINE
  5
7C00
  8
0
 10
2924.3899364325229726
 20
679.4870908455179688
 30
0.0
 11
2924.3899364325229726
 21
677.6681932077181045
 31
0.0
  0
ARC
  5
7C01
  8
0
 10
2922.0572167474228991
 20
680.5047648612179501
 30
0.0
 40
0.0098
 50
179.999999999980389
 51
270.0000000000521254
  0
ARC
  5
7C02
  8
0
 10
2922.7856482435231555
 20
680.5047648612179501
 30
0.0
 40
0.0098
 50
270.0000000000521254
 51
0.0000000000195413
  0
ARC
  5
7C03
  8
0
 10
2922.071016747423073
 20
680.5522870160181128
 30
0.0
 40
0.0236
 50
90.0
 51
179.9999999999934914
  0
ARC
  5
7C04
  8
0
 10
2922.7718482435229816
 20
680.5522870160181128
 30
0.0
 40
0.0236
 50
0.0000000000065138
 51
90.0
  0
ARC
  5
7C05
  8
0
 10
2922.4584989251129628
 20
676.6672588031026407
 30
0.0
 40
3.9277877927436928
 50
91.6641005063244734
 51
95.6615234411038671
  0
ARC
  5
7C06
  8
0
 10
2922.3891482525391439
 20
676.7419625436236856
 30
0.0
 40
3.8529775684688392
 50
84.2996529441051337
 51
88.3747231057980258
  0
LINE
  5
7C07
  8
0
 10
2922.0474167474230853
 20
680.4949648612181363
 30
0.0
 11
2922.0474167474230853
 21
679.4621880365311881
 31
0.0
  0
LINE
  5
7C08
  8
0
 10
2922.7954482435229693
 20
680.4949648612181363
 30
0.0
 11
2922.7954482435229693
 21
679.4691442412004108
 31
0.0
  0
LINE
  5
7C09
  8
0
 10
2922.4214324955228221
 20
677.6780357273181608
 30
0.0
 11
2922.4214324955228221
 21
677.6887313590552822
 31
0.0
  0
ARC
  5
7C0A
  8
0
 10
2921.2147818836660917
 20
677.3195627594318466
 30
0.0
 40
0.8099104961009507
 50
192.7545361988055959
 51
194.9906927808198134
  0
LINE
  5
7C0B
  8
0
 10
2920.4335686318231637
 20
677.1104012704221304
 30
0.0
 11
2920.4279105041227922
 21
677.1087467523179839
 31
0.0
  0
ARC
  5
7C0C
  8
0
 10
2920.431200618677849
 20
677.0974498102132202
 30
0.0
 40
0.011766297408468
 50
106.2376404182551966
 51
179.9999999998956923
  0
ARC
  5
7C0D
  8
0
 10
2523.2795566730069368
 20
560.7771551293445782
 30
0.0
 40
413.8864825397354821
 50
15.7000492826397693
 51
16.3451993268645204
  0
LINE
  5
7C0E
  8
0
 10
2920.4194343212689091
 20
677.0974498102132202
 30
0.0
 11
2920.4273929465280162
 21
676.7882035973051416
 31
0.0
  0
LINE
  5
7C0F
  8
0
 10
2920.4194343212689091
 20
677.0974498102132202
 30
0.0
 11
2921.6220392581230954
 21
672.9044234419179702
 31
0.0
  0
ARC
  5
7C10
  8
0
 10
2921.6320968110098875
 20
672.9105965891498045
 30
0.0
 40
0.0118009372143905
 50
211.540864550860789
 51
285.6972909318478742
  0
LINE
  5
7C11
  8
0
 10
2920.4248560550117872
 20
677.1407550500912294
 30
0.0
 11
2921.6522607118231463
 21
672.8645952722786205
 31
0.0
  0
LINE
  5
7C12
  8
0
 10
2921.635289612723227
 20
672.8992357733179688
 30
0.0
 11
2921.6418167390088456
 21
672.9009761467283397
 31
0.0
  0
ARC
  5
7C13
  8
0
 10
2921.3051748207822129
 20
673.5448005921117556
 30
0.0
 40
3.4541231842339029
 50
104.7913448461196992
 51
105.6386144858499989
  0
ARC
  5
7C14
  8
0
 10
2920.3822927124278976
 20
676.8489202989773048
 30
0.0
 40
0.0236203039875079
 50
110.4223668421262943
 51
191.0038166032848039
  0
ARC
  5
7C15
  8
0
 10
2813.573204432509101
 20
656.0644774981930141
 30
0.0
 40
108.7889451550471023
 50
10.9685899209357594
 51
11.0118172129771192
  0
ARC
  5
7C16
  8
0
 10
2920.3979913420571393
 20
676.7684780672060469
 30
0.0
 40
0.0236957343882314
 50
191.2867768494128882
 51
243.3852175255377972
  0
LINE
  5
7C17
  8
0
 10
2924.2944505867080807
 20
654.7311853337181446
 30
0.0
 11
2924.3899364325229726
 21
654.7311853337181446
 31
0.0
  0
ARC
  5
7C1A
  8
0
 10
2920.4114570547289986
 20
676.7569468549155545
 30
0.0
 40
0.0259440932899317
 50
107.5682879999569934
 51
201.844935430931514
  0
ARC
  5
7C1B
  8
0
 10
-5139.3862966366996261
 20
30044.4011161918388098
 30
0.0
 40
30453.5266413396202552
 50
285.3466720326749737
 51
285.3467629813799817
  0
ARC
  5
7C1C
  8
0
 10
2920.4503513562422086
 20
676.7940494552755126
 30
0.0
 40
0.0004388332281112
 50
55.6167071388921528
 51
104.3242761720183012
  0
ARC
  5
7C1D
  8
0
 10
2920.4495956315331568
 20
676.7930300007410551
 30
0.0
 40
0.0017076184377543
 50
25.3176740595455598
 51
54.0069471045310792
  0
ARC
  5
7C1E
  8
0
 10
2920.2904996573538483
 20
676.749343021165032
 30
0.0
 40
0.1666672227336356
 50
1.6897911027859751
 51
15.4562465898689503
  0
ARC
  5
7C1F
  8
0
 10
2920.1361587868768765
 20
676.7058281166248435
 30
0.0
 40
0.3245690928375372
 50
351.6328899695391215
 51
8.5812650087360431
  0
ARC
  5
7C20
  8
0
 10
2913.0703287378792083
 20
735.5932299224303961
 30
0.0
 40
59.395772076327809
 50
277.1160867670237735
 51
277.1442707897205082
  0
ARC
  5
7C21
  8
0
 10
2920.42608472505799
 20
676.6792287410891049
 30
0.0
 40
0.024356200854485
 50
188.6532772341946895
 51
275.1761404282752892
  0
ARC
  5
7C22
  8
0
 10
2921.3215115258039987
 20
676.9004636370236767
 30
0.0
 40
0.9466100409149957
 50
189.3119402017939024
 51
193.743989869744496
  0
LINE
  5
7C23
  8
0
 10
2920.4337778140529736
 20
676.6556582194351677
 30
0.0
 11
2920.4392782996778806
 21
676.5715355221991558
 31
0.0
  0
LINE
  5
7C24
  8
0
 10
2920.3974965720231012
 20
676.5586214622180705
 30
0.0
 11
2920.4440653615229166
 21
676.5730151260180492
 31
0.0
  0
ARC
  5
7C25
  8
0
 10
2920.4412578683468382
 20
676.5710637929006452
 30
0.0
 40
0.0034190230868384
 50
10.7506717507167906
 51
34.8010255750743767
  0
ARC
  5
7C26
  8
0
 10
2919.3354465182019339
 20
676.4169568882996373
 30
0.0
 40
1.119912857705468
 50
1.1133914480047631
 51
7.942292024985675
  0
ARC
  5
7C27
  8
0
 10
2920.4052447177678005
 20
676.5353597318521679
 30
0.0
 40
0.0245181945113029
 50
108.4221695014955031
 51
186.0346908522280103
  0
ARC
  5
7C28
  8
0
 10
2918.7717263704657853
 20
676.1096594457410447
 30
0.0
 40
1.663836390695534
 50
11.7235046321525296
 51
14.7324341228730802
  0
ARC
  5
7C29
  8
0
 10
2920.422945700136097
 20
676.4562045739911582
 30
0.0
 40
0.0236600946843616
 50
200.9815226532400061
 51
278.8958745183347787
  0
ARC
  5
7C2A
  8
0
 10
2920.5496926282621644
 20
675.7412597758119546
 30
0.0
 40
0.7024377580221733
 50
97.7581744506566253
 51
100.0920413445452937
  0
ARC
  5
7C2B
  8
0
 10
2920.4513537889820327
 20
676.4386960613335305
 30
0.0
 40
0.0037942087563836
 50
337.8883595792303254
 51
0.3321026715187529
  0
LINE
  5
7C2C
  8
0
 10
2920.4499437707081597
 20
676.4365791048342089
 30
0.0
 11
2920.452008542853946
 21
676.4134065699811345
 31
0.0
  0
LINE
  5
7C2D
  8
0
 10
2921.6081846944612153
 20
672.8894714251814548
 30
0.0
 11
2921.4469863992139835
 21
673.1621310376847305
 31
0.0
  0
ARC
  5
7C2E
  8
0
 10
2921.4062988664468321
 20
673.2597108829835406
 30
0.0
 40
0.0239115342284927
 50
115.0424926766194034
 51
172.0453099350887101
  0
ARC
  5
7C2F
  8
0
 10
1930.0295900439730303
 20
2812.9050108850660763
 30
0.0
 40
2358.1342233643881627
 50
294.8600301064215046
 51
294.8607270568741114
  0
ARC
  5
7C30
  8
0
 10
2921.4215259650918597
 20
673.2895482113434582
 30
0.0
 40
0.0039442863417886
 50
30.959056696270121
 51
80.1040827578070775
  0
ARC
  5
7C31
  8
0
 10
2920.9674176745420482
 20
672.9639373230452293
 30
0.0
 40
0.5627127352760553
 50
22.1562593057769917
 51
35.6090067776412766
  0
ARC
  5
7C32
  8
0
 10
2921.4351586789580324
 20
673.1832322932658599
 30
0.0
 40
0.0236002146511714
 50
200.700946782899905
 51
286.7091179658095257
  0
ARC
  5
7C33
  8
0
 10
2920.7897118802779914
 20
675.3828312483849459
 30
0.0
 40
2.315942918725546
 50
286.3573359989525784
 51
287.5635198761083871
  0
ARC
  5
7C34
  8
0
 10
2921.589338274839065
 20
673.2992639751031447
 30
0.0
 40
0.2107260844050832
 50
190.9314501560853046
 51
205.1080600696357124
  0
ARC
  5
7C35
  8
0
 10
2921.7426342369149097
 20
673.3326442474767646
 30
0.0
 40
0.3653642534933108
 50
199.6391215361676927
 51
205.5801286631026983
  0
ARC
  5
7C36
  8
0
 10
2920.7640086231749592
 20
672.9728322086895105
 30
0.0
 40
0.6798072274074648
 50
17.2775711429002001
 51
24.1905707018294507
  0
LINE
  5
7C37
  8
0
 10
2921.3608736931710155
 20
673.3581220339480069
 30
0.0
 11
2921.4015894756112175
 21
673.2838822397900458
 31
0.0
  0
ARC
  5
7C38
  8
0
 10
2921.2833622748430571
 20
673.4447308874866849
 30
0.0
 40
0.0239115342284927
 50
115.0424926766194034
 51
172.0453099350887101
  0
ARC
  5
7C39
  8
0
 10
1929.9066534523678911
 20
2813.0900308895688795
 30
0.0
 40
2358.1342233643881627
 50
294.8600301064215046
 51
294.8607270568741114
  0
ARC
  5
7C3A
  8
0
 10
2921.2985893734880847
 20
673.4745682158467162
 30
0.0
 40
0.0039442863417886
 50
30.959056696270121
 51
80.1040827578070775
  0
ARC
  5
7C3B
  8
0
 10
2920.8937378700388763
 20
673.1800310217214474
 30
0.0
 40
0.5045853966391107
 50
20.8356425996785788
 51
35.9969656497047481
  0
ARC
  5
7C3C
  8
0
 10
2921.3122220873538026
 20
673.3682522977690041
 30
0.0
 40
0.0236002146511714
 50
200.7009467828937943
 51
286.7091179658095257
  0
ARC
  5
7C3D
  8
0
 10
6906.7171652845563585
 20
-12647.4908282474898442
 30
0.0
 40
13904.2469381948794762
 50
106.6562095765545024
 51
106.6564088011649005
  0
ARC
  5
7C3E
  8
0
 10
2921.4313208120088348
 20
673.4704200364305962
 30
0.0
 40
0.1730929003050575
 50
187.428850456264513
 51
205.8799455698056136
  0
ARC
  5
7C3F
  8
0
 10
2921.6196976453102252
 20
673.5176642519800225
 30
0.0
 40
0.3653642534933108
 50
199.6391215361676927
 51
205.5801286631026983
  0
ARC
  5
7C40
  8
0
 10
2920.6105242694948174
 20
673.147331046043405
 30
0.0
 40
0.7121020509210499
 50
17.3559153705626414
 51
23.843396530224009
  0
ARC
  5
7C41
  8
0
 10
2921.4855875544749324
 20
673.175506197950881
 30
0.0
 40
0.0030610745565609
 50
347.6341087515241952
 51
12.2433615217011695
  0
ARC
  5
7C42
  8
0
 10
2921.3346982156299418
 20
673.523752120944323
 30
0.0
 40
0.0239115342284927
 50
115.0424926766194034
 51
172.0453099350887101
  0
ARC
  5
7C43
  8
0
 10
1929.9579893931559127
 20
2813.1690521230270861
 30
0.0
 40
2358.1342233643881627
 50
294.8600301064215046
 51
294.8607270568741114
  0
ARC
  5
7C44
  8
0
 10
2921.3499253142758789
 20
673.5535894493042406
 30
0.0
 40
0.0039442863417886
 50
30.959056696270121
 51
80.1040827578070775
  0
ARC
  5
7C45
  8
0
 10
2920.9450738108271253
 20
673.2590522551790855
 30
0.0
 40
0.5045853966391107
 50
20.8356425996785788
 51
35.9969656497047481
  0
ARC
  5
7C46
  8
0
 10
2921.3635580281420516
 20
673.4472735312265286
 30
0.0
 40
0.0236002146511714
 50
200.7009467828937943
 51
286.7091179658095257
  0
ARC
  5
7C47
  8
0
 10
6906.7685012253450623
 20
-12647.4118070140302734
 30
0.0
 40
13904.2469381948794762
 50
106.6562095765545024
 51
106.6564088011649005
  0
ARC
  5
7C48
  8
0
 10
2921.4826567527961743
 20
673.5494412698882343
 30
0.0
 40
0.1730929003050575
 50
187.428850456264513
 51
205.8799455698056136
  0
ARC
  5
7C49
  8
0
 10
2921.6710335860980194
 20
673.596685485437547
 30
0.0
 40
0.3653642534933108
 50
199.6391215361676927
 51
205.5801286631026983
  0
ARC
  5
7C4A
  8
0
 10
2920.6618602102821569
 20
673.2263522795010431
 30
0.0
 40
0.7121020509210499
 50
17.3559153705626414
 51
23.843396530224009
  0
ARC
  5
7C4B
  8
0
 10
2921.2436728669222248
 20
673.5993323292647119
 30
0.0
 40
0.0239115342284927
 50
115.0424926766194034
 51
172.0453099350887101
  0
ARC
  5
7C4C
  8
0
 10
1929.8669640444470588
 20
2813.2446323313470202
 30
0.0
 40
2358.1342233643881627
 50
294.8600301064215046
 51
294.8607270568741114
  0
ARC
  5
7C4D
  8
0
 10
2921.2588999655667976
 20
673.6291696576247432
 30
0.0
 40
0.0039442863417886
 50
30.959056696270121
 51
80.1040827578070775
  0
ARC
  5
7C4E
  8
0
 10
2920.854048462118044
 20
673.3346324634993607
 30
0.0
 40
0.5045853966391107
 50
23.8037471563894485
 51
35.9969656497047481
  0
ARC
  5
7C4F
  8
0
 10
2921.2725326794329703
 20
673.5228537395470312
 30
0.0
 40
0.0236002146511714
 50
200.7009467828937943
 51
286.7091179658095257
  0
ARC
  5
7C50
  8
0
 10
6906.677475876635981
 20
-12647.3362268057098845
 30
0.0
 40
13904.2469381948794762
 50
106.6562597393943008
 51
106.6564088011649005
  0
ARC
  5
7C51
  8
0
 10
2921.3916314040880025
 20
673.6250214782086232
 30
0.0
 40
0.1730929003050575
 50
187.428850456264513
 51
205.8799455698056136
  0
ARC
  5
7C52
  8
0
 10
2921.5800082373898476
 20
673.6722656937580496
 30
0.0
 40
0.3653642534933108
 50
199.6391215361676927
 51
205.5801286631026983
  0
ARC
  5
7C53
  8
0
 10
2920.5708348615739851
 20
673.301932487821432
 30
0.0
 40
0.7121020509210499
 50
17.3559153705626414
 51
23.9505583765600889
  0
LINE
  5
7C54
  8
0
 10
2921.2290809459282173
 20
673.618275330897859
 30
0.0
 11
2921.2099257059421689
 21
673.6584628843277187
 31
0.0
  0
ARC
  5
7C55
  8
0
 10
2921.1427631769911386
 20
673.7481157247307237
 30
0.0
 40
0.0239115342284927
 50
115.0424926766194034
 51
172.0453099350887101
  0
ARC
  5
7C56
  8
0
 10
1929.7660543545171095
 20
2813.3934157268131457
 30
0.0
 40
2358.1342233643881627
 50
294.8600301064215046
 51
294.8607270568741114
  0
ARC
  5
7C57
  8
0
 10
2921.1579902756361662
 20
673.7779530530906413
 30
0.0
 40
0.0039442863417886
 50
30.959056696270121
 51
80.1040827578070775
  0
ARC
  5
7C58
  8
0
 10
2920.7531387721878673
 20
673.4834158589654862
 30
0.0
 40
0.5045853966391107
 50
20.8356425996785788
 51
35.9969656497047481
  0
ARC
  5
7C59
  8
0
 10
2921.1716229895018841
 20
673.6716371350129293
 30
0.0
 40
0.0236002146511714
 50
200.7009467828937943
 51
286.7091179658095257
  0
ARC
  5
7C5A
  8
0
 10
6906.57656618670444
 20
-12647.1874434102392115
 30
0.0
 40
13904.2469381948794762
 50
106.6562095765545024
 51
106.6564088011649005
  0
ARC
  5
7C5B
  8
0
 10
2921.2907217141569163
 20
673.773804873674635
 30
0.0
 40
0.1730929003050575
 50
187.428850456264513
 51
205.8799455698056136
  0
ARC
  5
7C5C
  8
0
 10
2921.4790985474592162
 20
673.8210490892240614
 30
0.0
 40
0.3653642534933108
 50
199.6391215361676927
 51
205.5801286631026983
  0
ARC
  5
7C5D
  8
0
 10
2920.4699251716428989
 20
673.4507158832873301
 30
0.0
 40
0.7121020509210499
 50
17.3559153705626414
 51
23.843396530224009
  0
ARC
  5
7C5E
  8
0
 10
2926.4602540437631433
 20
650.546584418953671
 30
0.0
 40
23.6364475721946086
 50
102.8061842688669998
 51
102.8839755037033967
  0
ARC
  5
7C5F
  8
0
 10
2921.1851236969309866
 20
673.6110789761630713
 30
0.0
 40
0.0236074352835653
 50
196.4571572704934113
 51
281.5696721164155747
  0
ARC
  5
7C60
  8
0
 10
2921.9842755759641477
 20
673.88645315713336
 30
0.0
 40
0.8688506199624562
 50
193.0145215649014006
 51
198.9436587177875992
  0
ARC
  5
7C61
  8
0
 10
2921.5663992457798486
 20
674.001421555392767
 30
0.0
 40
0.3790005665231213
 50
191.5789449157009017
 51
204.3323134894926909
  0
ARC
  5
7C62
  8
0
 10
2921.250003498514161
 20
673.8566645914929722
 30
0.0
 40
0.0311038237496018
 50
201.5047654840942926
 51
237.5211510525134031
  0
ARC
  5
7C63
  8
0
 10
2921.245529739137055
 20
673.8510466733140447
 30
0.0
 40
0.0239742121211945
 50
239.3312255113121978
 51
284.7742188587064902
  0
ARC
  5
7C64
  8
0
 10
-12.0033667562470292
 20
11747.0085028484390932
 30
0.0
 40
11455.0999293383702025
 50
284.8367256406044135
 51
284.836947741804579
  0
ARC
  5
7C65
  8
0
 10
2921.2933357064671327
 20
673.8427096426836442
 30
0.0
 40
0.0036859059171604
 50
289.5223951957038935
 51
353.3414302317208922
  0
ARC
  5
7C66
  8
0
 10
2921.2560541119660229
 20
673.8479143842040457
 30
0.0
 40
0.0413282048988322
 50
352.167463829398514
 51
16.0073777528393109
  0
ARC
  5
7C67
  8
0
 10
2921.0247455313151477
 20
673.7902688355908367
 30
0.0
 40
0.2796899067266229
 50
14.2913601174555005
 51
36.3220120326717293
  0
ARC
  5
7C68
  8
0
 10
2921.2356163938038662
 20
673.9458736352294181
 30
0.0
 40
0.017629018296662
 50
34.8030775347643768
 51
74.233227007377522
  0
ARC
  5
7C69
  8
0
 10
2921.2407331635517949
 20
673.9582813635836374
 30
0.0
 40
0.0045696953337952
 50
94.0981488290253054
 51
121.0267847747464032
  0
ARC
  5
7C6A
  8
0
 10
3312.6553022126181531
 20
-245.5166318167310919
 30
0.0
 40
999.3240344638531951
 50
113.0591794667092955
 51
113.060965787299196
  0
ARC
  5
7C6B
  8
0
 10
2921.2193279273010376
 20
673.9276499157543867
 30
0.0
 40
0.0243252691767993
 50
113.287110740168103
 51
185.426878479862097
  0
ARC
  5
7C6C
  8
0
 10
2921.199313525098205
 20
673.9195532050058546
 30
0.0
 40
0.0029222378109126
 50
162.1108731674671901
 51
184.9164340196718967
  0
ARC
  5
7C6D
  8
0
 10
2921.1968447668700719
 20
673.9203064781418107
 30
0.0
 40
0.0003439612759713
 50
120.1766097361933987
 51
155.1829356794393107
  0
ARC
  5
7C6E
  8
0
 10
2921.1967794772858724
 20
673.9203855545016495
 30
0.0
 40
0.0002433555811392
 50
75.8521900667360285
 51
116.2434384681243955
  0
ARC
  5
7C6F
  8
0
 10
2921.1966757521718137
 20
673.9199910175003652
 30
0.0
 40
0.0006512917602909
 50
49.0028575056124183
 51
75.4875798777239027
  0
ARC
  5
7C70
  8
0
 10
2921.1939603072778482
 20
673.9169944228726763
 30
0.0
 40
0.0046950833037276
 50
30.8748468894570713
 51
47.9822251224660619
  0
ARC
  5
7C71
  8
0
 10
2921.1488067473628689
 20
673.8898692543361904
 30
0.0
 40
0.0573697237842073
 50
22.3461584184043005
 51
30.9847689568878799
  0
ARC
  5
7C72
  8
0
 10
2920.8406891093231934
 20
673.7570251968135153
 30
0.0
 40
0.3928980277847817
 50
17.923867200164711
 51
23.1805034838177697
  0
ARC
  5
7C73
  8
0
 10
2920.945049077387921
 20
673.785021090883788
 30
0.0
 40
0.2850398975429522
 50
12.4261731287277009
 51
19.02545659740559
  0
ARC
  5
7C74
  8
0
 10
2921.1124891324461714
 20
673.7857926890825411
 30
0.0
 40
0.1241726187938707
 50
28.1234140676322397
 51
30.4981411417343509
  0
ARC
  5
7C75
  8
0
 10
2921.2251273206061342
 20
673.8460047234772219
 30
0.0
 40
0.0035491611274428
 50
208.2611901248835125
 51
235.9885409334997917
  0
ARC
  5
7C76
  8
0
 10
2921.2232457397840335
 20
673.8433161493984471
 30
0.0
 40
0.0002738033278747
 50
247.7504375081055912
 51
346.4187287248021221
  0
ARC
  5
7C77
  8
0
 10
2921.2200589672079332
 20
673.844206012234622
 30
0.0
 40
0.0035823279310785
 50
344.5527234354112807
 51
7.4457624991828864
  0
ARC
  5
7C78
  8
0
 10
2921.2037932021949018
 20
673.8431810905307202
 30
0.0
 40
0.019873756336043
 50
4.2972189429922931
 51
9.1937520667306654
  0
ARC
  5
7C79
  8
0
 10
2921.3992600816300182
 20
674.3535803982373409
 30
0.0
 40
0.3790005665231213
 50
191.5789449157009017
 51
204.3323134894926909
  0
ARC
  5
7C7A
  8
0
 10
2921.0828643343629665
 20
674.2088234343375461
 30
0.0
 40
0.0311038237496018
 50
201.5047654840942926
 51
237.5211510525134031
  0
ARC
  5
7C7B
  8
0
 10
2921.0783905749872247
 20
674.2032055161585049
 30
0.0
 40
0.0239742121211945
 50
239.3312255113121978
 51
284.7742188587064902
  0
ARC
  5
7C7C
  8
0
 10
-12.1705059203973196
 20
11747.3606616912893514
 30
0.0
 40
11455.0999293383702025
 50
284.8367256406044135
 51
284.836947741804579
  0
ARC
  5
7C7D
  8
0
 10
2921.1261965423159381
 20
674.1948684855279907
 30
0.0
 40
0.0036859059171604
 50
289.5223951957038935
 51
353.3414302317208922
  0
ARC
  5
7C7E
  8
0
 10
2921.0889149478148283
 20
674.2000732270485059
 30
0.0
 40
0.0413282048988322
 50
352.167463829398514
 51
16.0073777528393109
  0
ARC
  5
7C7F
  8
0
 10
2920.8576063671639531
 20
674.1424276784352969
 30
0.0
 40
0.2796899067266229
 50
14.2913601174555005
 51
36.3220120326717293
  0
ARC
  5
7C80
  8
0
 10
2921.0684772296531264
 20
674.2980324780737647
 30
0.0
 40
0.017629018296662
 50
34.8030775347643768
 51
74.233227007377522
  0
ARC
  5
7C81
  8
0
 10
2921.0735939994019645
 20
674.3104402064280976
 30
0.0
 40
0.0045696953337952
 50
94.0981488290253054
 51
121.0267847747464032
  0
ARC
  5
7C82
  8
0
 10
3312.4881630484669586
 20
-245.1644729738866033
 30
0.0
 40
999.3240344638531951
 50
113.0591794667092955
 51
113.060965787299196
  0
ARC
  5
7C83
  8
0
 10
2921.052188763149843
 20
674.2798087585988469
 30
0.0
 40
0.0243252691767993
 50
113.287110740168103
 51
185.426878479862097
  0
ARC
  5
7C84
  8
0
 10
2921.0321743609479199
 20
674.2717120478504285
 30
0.0
 40
0.0029222378109126
 50
162.1108731674671901
 51
184.9164340196718967
  0
ARC
  5
7C85
  8
0
 10
2921.0297056027188773
 20
674.2724653209862709
 30
0.0
 40
0.0003439612759713
 50
120.1766097361933987
 51
155.1829356794393107
  0
ARC
  5
7C86
  8
0
 10
2921.0296403131360421
 20
674.2725443973461097
 30
0.0
 40
0.0002433555811392
 50
75.8521900667360285
 51
116.2434384681243955
  0
ARC
  5
7C87
  8
0
 10
2921.0295365880210738
 20
674.272149860344939
 30
0.0
 40
0.0006512917602909
 50
49.0028575056124183
 51
75.4875798777239027
  0
ARC
  5
7C88
  8
0
 10
2921.0268211431271084
 20
674.2691532657172502
 30
0.0
 40
0.0046950833037276
 50
30.8748468894570713
 51
47.9822251224660619
  0
ARC
  5
7C89
  8
0
 10
2920.9816675832121291
 20
674.2420280971806505
 30
0.0
 40
0.0573697237842073
 50
22.3461584184043005
 51
30.9847689568878799
  0
ARC
  5
7C8A
  8
0
 10
2920.6735499451719988
 20
674.1091840396578618
 30
0.0
 40
0.3928980277847817
 50
17.923867200164711
 51
23.1805034838177697
  0
ARC
  5
7C8B
  8
0
 10
2920.7779099132380907
 20
674.1371799337282482
 30
0.0
 40
0.2850398975429522
 50
12.4261731287277009
 51
19.02545659740559
  0
ARC
  5
7C8C
  8
0
 10
2920.9453499682958864
 20
674.1379515319270013
 30
0.0
 40
0.1241726187938707
 50
28.1234140676322397
 51
30.4981411417343509
  0
ARC
  5
7C8D
  8
0
 10
2921.0579881564549396
 20
674.1981635663216821
 30
0.0
 40
0.0035491611274428
 50
208.2611901248835125
 51
235.9885409334997917
  0
ARC
  5
7C8E
  8
0
 10
2921.0561065756342032
 20
674.1954749922427936
 30
0.0
 40
0.0002738033278747
 50
247.7504375081055912
 51
346.4187287248021221
  0
ARC
  5
7C8F
  8
0
 10
2921.0529198030571933
 20
674.1963648550789685
 30
0.0
 40
0.0035823279310785
 50
344.5527234354112807
 51
7.4457624991828864
  0
ARC
  5
7C90
  8
0
 10
2921.036654038044162
 20
674.195339933374953
 30
0.0
 40
0.019873756336043
 50
4.2972189429922931
 51
9.1937520667306654
  0
ARC
  5
7C91
  8
0
 10
2921.3610166887237938
 20
674.2930840805812522
 30
0.0
 40
0.3790005665231213
 50
191.5789449157009017
 51
204.3323134894926909
  0
ARC
  5
7C92
  8
0
 10
2921.0446209414571967
 20
674.1483271166814575
 30
0.0
 40
0.0311038237496018
 50
201.5047654840942926
 51
237.5211510525134031
  0
ARC
  5
7C93
  8
0
 10
2921.0401471820810002
 20
674.1427091985025299
 30
0.0
 40
0.0239742121211945
 50
239.3312255113121978
 51
284.7742188587064902
  0
ARC
  5
7C94
  8
0
 10
-12.2087493133030893
 20
11747.3001653736300796
 30
0.0
 40
11455.0999293383702025
 50
284.8367256406044135
 51
284.836947741804579
  0
ARC
  5
7C95
  8
0
 10
2921.0879531494101684
 20
674.1343721678721295
 30
0.0
 40
0.0036859059171604
 50
289.5223951957038935
 51
353.3414302317208922
  0
ARC
  5
7C96
  8
0
 10
2921.0506715549099681
 20
674.139576909392531
 30
0.0
 40
0.0413282048988322
 50
352.167463829398514
 51
16.0073777528393109
  0
ARC
  5
7C97
  8
0
 10
2920.8193629742590929
 20
674.0819313607793219
 30
0.0
 40
0.2796899067266229
 50
14.2913601174555005
 51
20.4024670599105704
  0
ARC
  5
7C98
  8
0
 10
2921.0353506064961948
 20
674.2499438887721226
 30
0.0
 40
0.0045696953337952
 50
113.3717663253976013
 51
121.0267847747464032
  0
ARC
  5
7C99
  8
0
 10
3312.4499196555620983
 20
-245.2249692915426067
 30
0.0
 40
999.3240344638531951
 50
113.0591794667092955
 51
113.060965787299196
  0
ARC
  5
7C9A
  8
0
 10
2921.0139453702440733
 20
674.2193124409427583
 30
0.0
 40
0.0243252691767993
 50
113.287110740168103
 51
185.426878479862097
  0
ARC
  5
7C9B
  8
0
 10
2920.9939309680421502
 20
674.2112157301944535
 30
0.0
 40
0.0029222378109126
 50
162.1108731674671901
 51
184.9164340196718967
  0
ARC
  5
7C9C
  8
0
 10
2920.9914622098131076
 20
674.2119690033302959
 30
0.0
 40
0.0003439612759713
 50
120.1766097361933987
 51
155.1829356794393107
  0
ARC
  5
7C9D
  8
0
 10
2920.9913969202298176
 20
674.2120480796901347
 30
0.0
 40
0.0002433555811392
 50
75.8521900667360285
 51
116.2434384681243955
  0
ARC
  5
7C9E
  8
0
 10
2920.9912931951148494
 20
674.2116535426888504
 30
0.0
 40
0.0006512917602909
 50
49.0028575056124183
 51
75.4875798777239027
  0
ARC
  5
7C9F
  8
0
 10
2920.9885777502217934
 20
674.2086569480611615
 30
0.0
 40
0.0046950833037276
 50
30.8748468894570713
 51
47.9822251224660619
  0
ARC
  5
7CA0
  8
0
 10
2920.9434241903059046
 20
674.1815317795245619
 30
0.0
 40
0.0573697237842073
 50
22.3461584184043005
 51
30.9847689568878799
  0
ARC
  5
7CA1
  8
0
 10
2920.6353065522657744
 20
674.0486877220018869
 30
0.0
 40
0.3928980277847817
 50
17.923867200164711
 51
23.1805034838177697
  0
ARC
  5
7CA2
  8
0
 10
2920.7396665203318662
 20
674.0766836160722733
 30
0.0
 40
0.2850398975429522
 50
12.4261731287277009
 51
19.02545659740559
  0
ARC
  5
7CA3
  8
0
 10
2920.9071065753901166
 20
674.0774552142710263
 30
0.0
 40
0.1241726187938707
 50
28.1234140676322397
 51
30.4981411417343509
  0
ARC
  5
7CA4
  8
0
 10
2921.0197447635500794
 20
674.1376672486657071
 30
0.0
 40
0.0035491611274428
 50
208.2611901248835125
 51
235.9885409334997917
  0
ARC
  5
7CA5
  8
0
 10
2921.0178631827279787
 20
674.1349786745869324
 30
0.0
 40
0.0002738033278747
 50
247.7504375081055912
 51
346.4187287248021221
  0
ARC
  5
7CA6
  8
0
 10
2921.0146764101518784
 20
674.1358685374229935
 30
0.0
 40
0.0035823279310785
 50
344.5527234354112807
 51
7.4457624991828864
  0
ARC
  5
7CA7
  8
0
 10
2920.9984106451379375
 20
674.1348436157189781
 30
0.0
 40
0.019873756336043
 50
4.2972189429922931
 51
9.1937520667306654
  0
ARC
  5
7CA8
  8
0
 10
2921.510643737422015
 20
673.9600122900291126
 30
0.0
 40
0.3790005665231213
 50
191.5789449157009017
 51
204.3323134894926909
  0
ARC
  5
7CA9
  8
0
 10
2921.1942479901558727
 20
673.8152553261293178
 30
0.0
 40
0.0311038237496018
 50
201.5047654840942926
 51
237.5211510525134031
  0
ARC
  5
7CAA
  8
0
 10
2921.1897742307792214
 20
673.8096374079502766
 30
0.0
 40
0.0239742121211945
 50
239.3312255113121978
 51
284.7742188587064902
  0
ARC
  5
7CAB
  8
0
 10
-12.0591222646048593
 20
11746.9670935830799863
 30
0.0
 40
11455.0999293383702025
 50
284.8367256406044135
 51
284.836947741804579
  0
ARC
  5
7CAC
  8
0
 10
2921.2375801981088443
 20
673.8013003773198761
 30
0.0
 40
0.0036859059171604
 50
289.5223951957038935
 51
353.3414302317208922
  0
ARC
  5
7CAD
  8
0
 10
2921.2002986036081893
 20
673.806505118840164
 30
0.0
 40
0.0413282048988322
 50
352.167463829398514
 51
16.0073777528393109
  0
ARC
  5
7CAE
  8
0
 10
2920.9689900229582236
 20
673.7488595702269549
 30
0.0
 40
0.2796899067266229
 50
14.2913601174555005
 51
16.5685463346505095
  0
ARC
  5
7CAF
  8
0
 10
2921.1798608854460326
 20
673.90446436986565
 30
0.0
 40
0.017629018296662
 50
34.8030775347643768
 51
74.233227007377522
  0
ARC
  5
7CB0
  8
0
 10
2921.1849776551939613
 20
673.9168720982197556
 30
0.0
 40
0.0045696953337952
 50
94.0981488290253054
 51
121.0267847747464032
  0
ARC
  5
7CB1
  8
0
 10
3312.5995467042607743
 20
-245.5580410820948885
 30
0.0
 40
999.3240344638531951
 50
113.0591794667092955
 51
113.060965787299196
  0
ARC
  5
7CB2
  8
0
 10
2921.163572418943204
 20
673.8862406503906186
 30
0.0
 40
0.0243252691767993
 50
113.287110740168103
 51
185.426878479862097
  0
ARC
  5
7CB3
  8
0
 10
2921.1435580167408261
 20
673.8781439396420865
 30
0.0
 40
0.0029222378109126
 50
162.1108731674671901
 51
184.9164340196718967
  0
ARC
  5
7CB4
  8
0
 10
2921.1410892585117836
 20
673.8788972127780426
 30
0.0
 40
0.0003439612759713
 50
120.1766097361933987
 51
155.1829356794393107
  0
ARC
  5
7CB5
  8
0
 10
2921.1410239689280388
 20
673.8789762891378814
 30
0.0
 40
0.0002433555811392
 50
75.8521900667360285
 51
116.2434384681243955
  0
ARC
  5
7CB6
  8
0
 10
2921.1409202438139801
 20
673.8785817521367107
 30
0.0
 40
0.0006512917602909
 50
49.0028575056124183
 51
75.4875798777239027
  0
ARC
  5
7CB7
  8
0
 10
2921.1382047989200146
 20
673.8755851575090219
 30
0.0
 40
0.0046950833037276
 50
30.8748468894570713
 51
47.9822251224660619
  0
ARC
  5
7CB8
  8
0
 10
2921.0930512390050353
 20
673.8484599889724223
 30
0.0
 40
0.0573697237842073
 50
22.3461584184043005
 51
30.9847689568878799
  0
ARC
  5
7CB9
  8
0
 10
2920.7849336009649051
 20
673.7156159314497472
 30
0.0
 40
0.3928980277847817
 50
17.923867200164711
 51
23.1805034838177697
  0
ARC
  5
7CBA
  8
0
 10
2920.8892935690309969
 20
673.7436118255201336
 30
0.0
 40
0.2850398975429522
 50
12.4261731287277009
 51
19.02545659740559
  0
ARC
  5
7CBB
  8
0
 10
2921.0567336240887926
 20
673.7443834237186593
 30
0.0
 40
0.1241726187938707
 50
28.1234140676322397
 51
30.4981411417343509
  0
ARC
  5
7CBC
  8
0
 10
2921.1693718122478458
 20
673.8045954581134538
 30
0.0
 40
0.0035491611274428
 50
208.2611901248835125
 51
235.9885409334997917
  0
ARC
  5
7CBD
  8
0
 10
2921.1674902314271094
 20
673.801906884034679
 30
0.0
 40
0.0002738033278747
 50
247.7504375081055912
 51
346.4187287248021221
  0
ARC
  5
7CBE
  8
0
 10
2921.1643034588500996
 20
673.8027967468707402
 30
0.0
 40
0.0035823279310785
 50
344.5527234354112807
 51
7.4457624991828864
  0
ARC
  5
7CBF
  8
0
 10
2921.1480376938370682
 20
673.8017718251668384
 30
0.0
 40
0.019873756336043
 50
4.2972189429922931
 51
9.1937520667306654
  0
ARC
  5
7CC0
  8
0
 10
2921.1671272478320134
 20
673.8936298622694494
 30
0.0
 40
0.0343073997255598
 50
17.4704799122457786
 51
37.5239667488714801
  0
LINE
  5
7CC1
  8
0
 10
2921.2859963610771956
 20
673.5022480541457526
 30
0.0
 11
2921.2984624610189712
 21
673.4780809245936553
 31
0.0
  0
LINE
  5
7CC2
  8
0
 10
2921.1268862387469198
 20
673.8362181743989368
 30
0.0
 11
2921.1532468280588546
 21
673.7793266907093539
 31
0.0
  0
ARC
  5
7CC3
  8
0
 10
2921.0861565667651121
 20
673.933779296881653
 30
0.0
 40
0.0239115342284927
 50
115.0424926766194034
 51
172.0453099350887101
  0
ARC
  5
7CC4
  8
0
 10
1929.7094477442910829
 20
2813.5790792989641886
 30
0.0
 40
2358.1342233643881627
 50
294.8600301064215046
 51
294.8607270568741114
  0
ARC
  5
7CC5
  8
0
 10
2921.1013836654110492
 20
673.9636166252415705
 30
0.0
 40
0.0039442863417886
 50
30.959056696270121
 51
80.1040827578070775
  0
ARC
  5
7CC6
  8
0
 10
2920.6965321619618408
 20
673.6690794311164154
 30
0.0
 40
0.5045853966391107
 50
27.4048854650880109
 51
35.9969656497047481
  0
ARC
  5
7CC7
  8
0
 10
2921.1150163792772219
 20
673.8573007071637448
 30
0.0
 40
0.0236002146511714
 50
200.7009467828937943
 51
286.7091179658095257
  0
ARC
  5
7CC8
  8
0
 10
6906.5199595764788683
 20
-12647.0017798380904424
 30
0.0
 40
13904.2469381948794762
 50
106.656287062400807
 51
106.6564088011649005
  0
ARC
  5
7CC9
  8
0
 10
2921.2341151039317992
 20
673.9594684458254505
 30
0.0
 40
0.1730929003050575
 50
187.428850456264513
 51
205.8799455698056136
  0
ARC
  5
7CCA
  8
0
 10
2921.4224919372331897
 20
674.0067126613749906
 30
0.0
 40
0.3653642534933108
 50
199.6391215361676927
 51
205.5801286631026983
  0
ARC
  5
7CCB
  8
0
 10
2920.4133185614177819
 20
673.6363794554382594
 30
0.0
 40
0.7121020509210499
 50
17.3559153705626414
 51
23.843396530224009
  0
ARC
  5
7CCC
  8
0
 10
2921.4229214910001247
 20
674.5143750802201339
 30
0.0
 40
0.3790005665231213
 50
191.5789449157009017
 51
204.3323134894926909
  0
ARC
  5
7CCD
  8
0
 10
2921.1065257437330729
 20
674.3696181163203391
 30
0.0
 40
0.0311038237496018
 50
201.5047654840942926
 51
237.5211510525134031
  0
ARC
  5
7CCE
  8
0
 10
2921.1020519843568763
 20
674.3640001981412979
 30
0.0
 40
0.0239742121211945
 50
239.3312255113121978
 51
284.7742188587064902
  0
ARC
  5
7CCF
  8
0
 10
-12.1468445110276697
 20
11747.521456373269757
 30
0.0
 40
11455.0999293383702025
 50
284.8367256406044135
 51
284.836947741804579
  0
ARC
  5
7CD0
  8
0
 10
2921.1498579516860445
 20
674.3556631675108974
 30
0.0
 40
0.0036859059171604
 50
289.5223951957038935
 51
353.3414302317208922
  0
ARC
  5
7CD1
  8
0
 10
2921.1125763571849347
 20
674.3608679090311853
 30
0.0
 40
0.0413282048988322
 50
352.167463829398514
 51
16.0073777528393109
  0
ARC
  5
7CD2
  8
0
 10
2920.881267776534969
 20
674.3032223604179762
 30
0.0
 40
0.2796899067266229
 50
14.2913601174555005
 51
36.3220120326717293
  0
ARC
  5
7CD3
  8
0
 10
2921.0921386390227781
 20
674.4588271600566713
 30
0.0
 40
0.017629018296662
 50
34.8030775347643768
 51
74.233227007377522
  0
ARC
  5
7CD4
  8
0
 10
2921.097255408772071
 20
674.4712348884107769
 30
0.0
 40
0.0045696953337952
 50
94.0981488290253054
 51
121.0267847747464032
  0
ARC
  5
7CD5
  8
0
 10
3312.5118244578379745
 20
-245.0036782919038103
 30
0.0
 40
999.3240344638531951
 50
113.0591794667092955
 51
113.060965787299196
  0
ARC
  5
7CD6
  8
0
 10
2921.0758501725199494
 20
674.4406034405816399
 30
0.0
 40
0.0243252691767993
 50
113.287110740168103
 51
185.426878479862097
  0
ARC
  5
7CD7
  8
0
 10
2921.0558357703180263
 20
674.4325067298332215
 30
0.0
 40
0.0029222378109126
 50
162.1108731674671901
 51
184.9164340196718967
  0
ARC
  5
7CD8
  8
0
 10
2921.0533670120889838
 20
674.4332600029689502
 30
0.0
 40
0.0003439612759713
 50
120.1766097361933987
 51
155.1829356794393107
  0
ARC
  5
7CD9
  8
0
 10
2921.0533017225061485
 20
674.4333390793286753
 30
0.0
 40
0.0002433555811392
 50
75.8521900667360285
 51
116.2434384681243955
  0
ARC
  5
7CDA
  8
0
 10
2921.0531979973911803
 20
674.4329445423277321
 30
0.0
 40
0.0006512917602909
 50
49.0028575056124183
 51
75.4875798777239027
  0
ARC
  5
7CDB
  8
0
 10
2921.0504825524972148
 20
674.4299479477000432
 30
0.0
 40
0.0046950833037276
 50
30.8748468894570713
 51
47.9822251224660619
  0
ARC
  5
7CDC
  8
0
 10
2921.0053289925817808
 20
674.4028227791634436
 30
0.0
 40
0.0573697237842073
 50
22.3461584184043005
 51
30.9847689568878799
  0
ARC
  5
7CDD
  8
0
 10
2920.6972113545421053
 20
674.2699787216406548
 30
0.0
 40
0.3928980277847817
 50
17.923867200164711
 51
23.1805034838177697
  0
ARC
  5
7CDE
  8
0
 10
2920.8015713226081971
 20
674.2979746157111549
 30
0.0
 40
0.2850398975429522
 50
12.4261731287277009
 51
19.02545659740559
  0
ARC
  5
7CDF
  8
0
 10
2920.9690113776659928
 20
674.2987462139096806
 30
0.0
 40
0.1241726187938707
 50
28.1234140676322397
 51
30.4981411417343509
  0
ARC
  5
7CE0
  8
0
 10
2921.0816495658259555
 20
674.3589582483043614
 30
0.0
 40
0.0035491611274428
 50
208.2611901248835125
 51
235.9885409334997917
  0
ARC
  5
7CE1
  8
0
 10
2921.0797679850038548
 20
674.3562696742257003
 30
0.0
 40
0.0002738033278747
 50
247.7504375081055912
 51
346.4187287248021221
  0
ARC
  5
7CE2
  8
0
 10
2921.076581212426845
 20
674.3571595370616478
 30
0.0
 40
0.0035823279310785
 50
344.5527234354112807
 51
7.4457624991828864
  0
ARC
  5
7CE3
  8
0
 10
2921.0603154474138137
 20
674.356134615357746
 30
0.0
 40
0.019873756336043
 50
4.2972189429922931
 51
9.1937520667306654
  0
ARC
  5
7CE4
  8
0
 10
2921.2550822145390157
 20
674.650764745769834
 30
0.0
 40
0.3790005665231213
 50
191.5789449157009017
 51
204.3323134894926909
  0
ARC
  5
7CE5
  8
0
 10
2920.9386864672719639
 20
674.5060077818700393
 30
0.0
 40
0.0311038237496018
 50
201.5047654840942926
 51
237.5211510525134031
  0
ARC
  5
7CE6
  8
0
 10
2920.9342127078962221
 20
674.500389863690998
 30
0.0
 40
0.0239742121211945
 50
239.3312255113121978
 51
284.7742188587064902
  0
ARC
  5
7CE7
  8
0
 10
-12.3146837874883204
 20
11747.6578460388191161
 30
0.0
 40
11455.0999293383702025
 50
284.8367256406044135
 51
284.836947741804579
  0
ARC
  5
7CE8
  8
0
 10
2920.9820186752249356
 20
674.4920528330605975
 30
0.0
 40
0.0036859059171604
 50
289.5223951957038935
 51
353.3414302317208922
  0
ARC
  5
7CE9
  8
0
 10
2920.94473708072519
 20
674.4972575745808854
 30
0.0
 40
0.0413282048988322
 50
352.167463829398514
 51
16.0073777528393109
  0
ARC
  5
7CEA
  8
0
 10
2920.7134285000738601
 20
674.4396120259676763
 30
0.0
 40
0.2796899067266229
 50
14.2913601174555005
 51
36.3220120326717293
  0
ARC
  5
7CEB
  8
0
 10
2920.9242993625621239
 20
674.5952168256063715
 30
0.0
 40
0.017629018296662
 50
34.8030775347643768
 51
74.233227007377522
  0
ARC
  5
7CEC
  8
0
 10
2920.9294161323100525
 20
674.607624553960477
 30
0.0
 40
0.0045696953337952
 50
94.0981488290253054
 51
121.0267847747464032
  0
ARC
  5
7CED
  8
0
 10
3312.3439851813768655
 20
-244.8672886263541102
 30
0.0
 40
999.3240344638531951
 50
113.0591794667092955
 51
113.060965787299196
  0
ARC
  5
7CEE
  8
0
 10
2920.9080108960588404
 20
674.57699310613134
 30
0.0
 40
0.0243252691767993
 50
113.287110740168103
 51
185.426878479862097
  0
ARC
  5
7CEF
  8
0
 10
2920.8879964938569174
 20
674.5688963953828079
 30
0.0
 40
0.0029222378109126
 50
162.1108731674671901
 51
184.9164340196718967
  0
ARC
  5
7CF0
  8
0
 10
2920.8855277356278748
 20
674.5696496685186503
 30
0.0
 40
0.0003439612759713
 50
120.1766097361933987
 51
155.1829356794393107
  0
ARC
  5
7CF1
  8
0
 10
2920.8854624460450395
 20
674.5697287448783754
 30
0.0
 40
0.0002433555811392
 50
75.8521900667360285
 51
116.2434384681243955
  0
ARC
  5
7CF2
  8
0
 10
2920.8853587209300713
 20
674.5693342078774322
 30
0.0
 40
0.0006512917602909
 50
49.0028575056124183
 51
75.4875798777239027
  0
ARC
  5
7CF3
  8
0
 10
2920.8826432760361058
 20
674.5663376132497433
 30
0.0
 40
0.0046950833037276
 50
30.8748468894570713
 51
47.9822251224660619
  0
ARC
  5
7CF4
  8
0
 10
2920.8374897161211265
 20
674.5392124447131437
 30
0.0
 40
0.0573697237842073
 50
22.3461584184043005
 51
30.9847689568878799
  0
ARC
  5
7CF5
  8
0
 10
2920.5293720780809963
 20
674.406368387190355
 30
0.0
 40
0.3928980277847817
 50
17.923867200164711
 51
23.1805034838177697
  0
ARC
  5
7CF6
  8
0
 10
2920.6337320461470881
 20
674.434364281260855
 30
0.0
 40
0.2850398975429522
 50
12.4261731287277009
 51
19.02545659740559
  0
ARC
  5
7CF7
  8
0
 10
2920.8011721012048838
 20
674.4351358794593807
 30
0.0
 40
0.1241726187938707
 50
28.1234140676322397
 51
30.4981411417343509
  0
ARC
  5
7CF8
  8
0
 10
2920.9138102893648465
 20
674.4953479138540615
 30
0.0
 40
0.0035491611274428
 50
208.2611901248835125
 51
235.9885409334997917
  0
ARC
  5
7CF9
  8
0
 10
2920.9119287085432006
 20
674.4926593397751731
 30
0.0
 40
0.0002738033278747
 50
247.7504375081055912
 51
346.4187287248021221
  0
ARC
  5
7CFA
  8
0
 10
2920.9087419359661908
 20
674.4935492026113479
 30
0.0
 40
0.0035823279310785
 50
344.5527234354112807
 51
7.4457624991828864
  0
ARC
  5
7CFB
  8
0
 10
2920.8924761709531595
 20
674.4925242809074462
 30
0.0
 40
0.019873756336043
 50
4.2972189429922931
 51
9.1937520667306654
  0
ARC
  5
7CFC
  8
0
 10
2921.2667664371620049
 20
674.8183617607706992
 30
0.0
 40
0.3790005665231213
 50
191.5789449157009017
 51
204.3323134894926909
  0
ARC
  5
7CFD
  8
0
 10
2920.9503706898949531
 20
674.6736047968707908
 30
0.0
 40
0.0311038237496018
 50
201.5047654840942926
 51
237.5211510525134031
  0
ARC
  5
7CFE
  8
0
 10
2920.9458969305192113
 20
674.6679868786917496
 30
0.0
 40
0.0239742121211945
 50
239.3312255113121978
 51
284.7742188587064902
  0
ARC
  5
7CFF
  8
0
 10
-12.3029995648653294
 20
11747.8254430538199813
 30
0.0
 40
11455.0999293383702025
 50
284.8367256406044135
 51
284.836947741804579
  0
ARC
  5
7D00
  8
0
 10
2920.9937028978488343
 20
674.6596498480613491
 30
0.0
 40
0.0036859059171604
 50
289.5223951957038935
 51
353.3414302317208922
  0
ARC
  5
7D01
  8
0
 10
2920.9564213033481792
 20
674.6648545895817506
 30
0.0
 40
0.0413282048988322
 50
352.167463829398514
 51
16.0073777528393109
  0
ARC
  5
7D02
  8
0
 10
2920.7251127226968492
 20
674.6072090409685416
 30
0.0
 40
0.2796899067266229
 50
14.2913601174555005
 51
36.3220120326717293
  0
ARC
  5
7D03
  8
0
 10
2920.935983585185113
 20
674.762813840607123
 30
0.0
 40
0.017629018296662
 50
34.8030775347643768
 51
74.233227007377522
  0
ARC
  5
7D04
  8
0
 10
2920.9411003549339512
 20
674.7752215689613422
 30
0.0
 40
0.0045696953337952
 50
94.0981488290253054
 51
121.0267847747464032
  0
ARC
  5
7D05
  8
0
 10
3312.3556694039998547
 20
-244.6996916113533871
 30
0.0
 40
999.3240344638531951
 50
113.0591794667092955
 51
113.060965787299196
  0
ARC
  5
7D06
  8
0
 10
2920.9196951186818296
 20
674.7445901211322052
 30
0.0
 40
0.0243252691767993
 50
113.287110740168103
 51
185.426878479862097
  0
ARC
  5
7D07
  8
0
 10
2920.8996807164799066
 20
674.7364934103836731
 30
0.0
 40
0.0029222378109126
 50
162.1108731674671901
 51
184.9164340196718967
  0
ARC
  5
7D08
  8
0
 10
2920.897211958250864
 20
674.7372466835194018
 30
0.0
 40
0.0003439612759713
 50
120.1766097361933987
 51
155.1829356794393107
  0
ARC
  5
7D09
  8
0
 10
2920.8971466686680287
 20
674.7373257598793543
 30
0.0
 40
0.0002433555811392
 50
75.8521900667360285
 51
116.2434384681243955
  0
ARC
  5
7D0A
  8
0
 10
2920.89704294355397
 20
674.7369312228781837
 30
0.0
 40
0.0006512917602909
 50
49.0028575056124183
 51
75.4875798777239027
  0
ARC
  5
7D0B
  8
0
 10
2920.8943274986600045
 20
674.7339346282504948
 30
0.0
 40
0.0046950833037276
 50
30.8748468894570713
 51
47.9822251224660619
  0
ARC
  5
7D0C
  8
0
 10
2920.8491739387441157
 20
674.7068094597140089
 30
0.0
 40
0.0573697237842073
 50
22.3461584184043005
 51
30.9847689568878799
  0
ARC
  5
7D0D
  8
0
 10
2920.5410563007039855
 20
674.5739654021912202
 30
0.0
 40
0.3928980277847817
 50
17.923867200164711
 51
23.1805034838177697
  0
ARC
  5
7D0E
  8
0
 10
2920.6454162687700773
 20
674.6019612962616065
 30
0.0
 40
0.2850398975429522
 50
12.4261731287277009
 51
19.02545659740559
  0
ARC
  5
7D0F
  8
0
 10
2920.812856323827873
 20
674.6027328944602459
 30
0.0
 40
0.1241726187938707
 50
28.1234140676322397
 51
30.4981411417343509
  0
ARC
  5
7D10
  8
0
 10
2920.9254945119878357
 20
674.6629449288549267
 30
0.0
 40
0.0035491611274428
 50
208.2611901248835125
 51
235.9885409334997917
  0
ARC
  5
7D11
  8
0
 10
2920.9236129311661898
 20
674.660256354776152
 30
0.0
 40
0.0002738033278747
 50
247.7504375081055912
 51
346.4187287248021221
  0
ARC
  5
7D12
  8
0
 10
2920.9204261585900895
 20
674.6611462176123268
 30
0.0
 40
0.0035823279310785
 50
344.5527234354112807
 51
7.4457624991828864
  0
ARC
  5
7D13
  8
0
 10
2920.9041603935770581
 20
674.6601212959084251
 30
0.0
 40
0.019873756336043
 50
4.2972189429922931
 51
9.1937520667306654
  0
ARC
  5
7D14
  8
0
 10
2921.2616459365140145
 20
675.0822505763908339
 30
0.0
 40
0.3790005665231213
 50
191.5789449157009017
 51
204.3323134894926909
  0
ARC
  5
7D15
  8
0
 10
2920.9452501892469627
 20
674.9374936124909254
 30
0.0
 40
0.0311038237496018
 50
201.5047654840942926
 51
237.5211510525134031
  0
ARC
  5
7D16
  8
0
 10
2920.9407764298712209
 20
674.9318756943117705
 30
0.0
 40
0.0239742121211945
 50
239.3312255113121978
 51
284.7742188587064902
  0
ARC
  5
7D17
  8
0
 10
-12.3081200655137692
 20
11748.0893318694397749
 30
0.0
 40
11455.0999293383702025
 50
284.8367256406044135
 51
284.836947741804579
  0
ARC
  5
7D18
  8
0
 10
2920.9885823971999343
 20
674.9235386636815974
 30
0.0
 40
0.0036859059171604
 50
289.5223951957038935
 51
353.3414302317208922
  0
ARC
  5
7D19
  8
0
 10
2920.9513008026988246
 20
674.9287434052018853
 30
0.0
 40
0.0413282048988322
 50
352.167463829398514
 51
16.0073777528393109
  0
ARC
  5
7D1A
  8
0
 10
2920.7199922220479493
 20
674.8710978565885625
 30
0.0
 40
0.2796899067266229
 50
14.2913601174555005
 51
36.3220120326717293
  0
ARC
  5
7D1B
  8
0
 10
2920.9308630845371226
 20
675.0267026562273713
 30
0.0
 40
0.017629018296662
 50
34.8030775347643768
 51
74.233227007377522
  0
ARC
  5
7D1C
  8
0
 10
2920.9359798542859608
 20
675.0391103845814769
 30
0.0
 40
0.0045696953337952
 50
94.0981488290253054
 51
121.0267847747464032
  0
ARC
  5
7D1D
  8
0
 10
3312.3505489033518643
 20
-244.4358027957333093
 30
0.0
 40
999.3240344638531951
 50
113.0591794667092955
 51
113.060965787299196
  0
ARC
  5
7D1E
  8
0
 10
2920.9145746180338392
 20
675.0084789367523399
 30
0.0
 40
0.0243252691767993
 50
113.287110740168103
 51
185.426878479862097
  0
ARC
  5
7D1F
  8
0
 10
2920.8945602158310066
 20
675.0003822260038078
 30
0.0
 40
0.0029222378109126
 50
162.1108731674671901
 51
184.9164340196718967
  0
ARC
  5
7D20
  8
0
 10
2920.8920914576028736
 20
675.0011354991396502
 30
0.0
 40
0.0003439612759713
 50
120.1766097361933987
 51
155.1829356794393107
  0
ARC
  5
7D21
  8
0
 10
2920.8920261680200383
 20
675.0012145754993753
 30
0.0
 40
0.0002433555811392
 50
75.8521900667360285
 51
116.2434384681243955
  0
ARC
  5
7D22
  8
0
 10
2920.8919224429050701
 20
675.0008200384983184
 30
0.0
 40
0.0006512917602909
 50
49.0028575056124183
 51
75.4875798777239027
  0
ARC
  5
7D23
  8
0
 10
2920.8892069980101951
 20
674.9978234438707432
 30
0.0
 40
0.0046950833037276
 50
30.8748468894570713
 51
47.9822251224660619
  0
ARC
  5
7D24
  8
0
 10
2920.8440534380961253
 20
674.9706982753341435
 30
0.0
 40
0.0573697237842073
 50
22.3461584184043005
 51
30.9847689568878799
  0
ARC
  5
7D25
  8
0
 10
2920.5359358000559951
 20
674.8378542178113548
 30
0.0
 40
0.3928980277847817
 50
17.923867200164711
 51
23.1805034838177697
  0
ARC
  5
7D26
  8
0
 10
2920.6402957681220869
 20
674.8658501118818549
 30
0.0
 40
0.2850398975429522
 50
12.4261731287277009
 51
19.02545659740559
  0
ARC
  5
7D27
  8
0
 10
2920.8077358231789731
 20
674.8666217100803806
 30
0.0
 40
0.1241726187938707
 50
28.1234140676322397
 51
30.4981411417343509
  0
ARC
  5
7D28
  8
0
 10
2920.9203740113398453
 20
674.9268337444750614
 30
0.0
 40
0.0035491611274428
 50
208.2611901248835125
 51
235.9885409334997917
  0
ARC
  5
7D29
  8
0
 10
2920.9184924305181994
 20
674.9241451703961729
 30
0.0
 40
0.0002738033278747
 50
247.7504375081055912
 51
346.4187287248021221
  0
ARC
  5
7D2A
  8
0
 10
2920.9153056579420991
 20
674.9250350332323478
 30
0.0
 40
0.0035823279310785
 50
344.5527234354112807
 51
7.4457624991828864
  0
ARC
  5
7D2B
  8
0
 10
2920.8990398929281582
 20
674.924010111528446
 30
0.0
 40
0.019873756336043
 50
4.2972189429922931
 51
9.1937520667306654
  0
ARC
  5
7D2C
  8
0
 10
2921.1257711589969404
 20
675.3113758536669593
 30
0.0
 40
0.3790005665231213
 50
191.5789449157009017
 51
204.3323134894926909
  0
ARC
  5
7D2D
  8
0
 10
2920.8093754117298886
 20
675.1666188897671645
 30
0.0
 40
0.0311038237496018
 50
201.5047654840942926
 51
237.5211510525134031
  0
ARC
  5
7D2E
  8
0
 10
2920.8049016523541468
 20
675.161000971588237
 30
0.0
 40
0.0239742121211945
 50
239.3312255113121978
 51
284.7742188587064902
  0
ARC
  5
7D2F
  8
0
 10
-12.4439948430303904
 20
11748.3184571467209025
 30
0.0
 40
11455.0999293383702025
 50
284.8367256406044135
 51
284.836947741804579
  0
ARC
  5
7D30
  8
0
 10
2920.8527076196842245
 20
675.1526639409578365
 30
0.0
 40
0.0036859059171604
 50
289.5223951957038935
 51
353.3414302317208922
  0
ARC
  5
7D31
  8
0
 10
2920.8154260251831147
 20
675.1578686824781244
 30
0.0
 40
0.0413282048988322
 50
352.167463829398514
 51
16.0073777528393109
  0
ARC
  5
7D32
  8
0
 10
2920.5841174445317847
 20
675.100223133865029
 30
0.0
 40
0.2796899067266229
 50
14.2913601174555005
 51
36.3220120326717293
  0
ARC
  5
7D33
  8
0
 10
2920.7949883070200485
 20
675.2558279335036104
 30
0.0
 40
0.017629018296662
 50
34.8030775347643768
 51
74.233227007377522
  0
ARC
  5
7D34
  8
0
 10
2920.8001050767688866
 20
675.268235661857716
 30
0.0
 40
0.0045696953337952
 50
94.0981488290253054
 51
121.0267847747464032
  0
ARC
  5
7D35
  8
0
 10
3312.2146741258347902
 20
-244.2066775184570133
 30
0.0
 40
999.3240344638531951
 50
113.0591794667092955
 51
113.060965787299196
  0
ARC
  5
7D36
  8
0
 10
2920.7786998405172199
 20
675.2376042140284653
 30
0.0
 40
0.0243252691767993
 50
113.287110740168103
 51
185.426878479862097
  0
ARC
  5
7D37
  8
0
 10
2920.758685438314842
 20
675.2295075032800469
 30
0.0
 40
0.0029222378109126
 50
162.1108731674671901
 51
184.9164340196718967
  0
ARC
  5
7D38
  8
0
 10
2920.7562166800857995
 20
675.2302607764158893
 30
0.0
 40
0.0003439612759713
 50
120.1766097361933987
 51
155.1829356794393107
  0
ARC
  5
7D39
  8
0
 10
2920.7561513905029642
 20
675.2303398527757281
 30
0.0
 40
0.0002433555811392
 50
75.8521900667360285
 51
116.2434384681243955
  0
ARC
  5
7D3A
  8
0
 10
2920.7560476653889054
 20
675.2299453157745575
 30
0.0
 40
0.0006512917602909
 50
49.0028575056124183
 51
75.4875798777239027
  0
ARC
  5
7D3B
  8
0
 10
2920.75333222049494
 20
675.2269487211469823
 30
0.0
 40
0.0046950833037276
 50
30.8748468894570713
 51
47.9822251224660619
  0
ARC
  5
7D3C
  8
0
 10
2920.7081786605790512
 20
675.199823552610269
 30
0.0
 40
0.0573697237842073
 50
22.3461584184043005
 51
30.9847689568878799
  0
ARC
  5
7D3D
  8
0
 10
2920.400061022538921
 20
675.0669794950875939
 30
0.0
 40
0.3928980277847817
 50
17.923867200164711
 51
23.1805034838177697
  0
ARC
  5
7D3E
  8
0
 10
2920.5044209906050128
 20
675.094975389158094
 30
0.0
 40
0.2850398975429522
 50
12.4261731287277009
 51
19.02545659740559
  0
ARC
  5
7D3F
  8
0
 10
2920.6718610456628085
 20
675.0957469873567334
 30
0.0
 40
0.1241726187938707
 50
28.1234140676322397
 51
30.4981411417343509
  0
ARC
  5
7D40
  8
0
 10
2920.7844992338232259
 20
675.1559590217514142
 30
0.0
 40
0.0035491611274428
 50
208.2611901248835125
 51
235.9885409334997917
  0
ARC
  5
7D41
  8
0
 10
2920.7826176530011253
 20
675.1532704476725257
 30
0.0
 40
0.0002738033278747
 50
247.7504375081055912
 51
346.4187287248021221
  0
ARC
  5
7D42
  8
0
 10
2920.779430880425025
 20
675.1541603105087006
 30
0.0
 40
0.0035823279310785
 50
344.5527234354112807
 51
7.4457624991828864
  0
ARC
  5
7D43
  8
0
 10
2920.7631651154119936
 20
675.1531353888046851
 30
0.0
 40
0.019873756336043
 50
4.2972189429922931
 51
9.1937520667306654
  0
ARC
  5
7D44
  8
0
 10
2921.0972673807450519
 20
675.654036360599207
 30
0.0
 40
0.3790005665231213
 50
191.5789449157009017
 51
204.3323134894926909
  0
ARC
  5
7D45
  8
0
 10
2920.7808716334770907
 20
675.5092793966994122
 30
0.0
 40
0.0311038237496018
 50
201.5047654840942926
 51
237.5211510525134031
  0
ARC
  5
7D46
  8
0
 10
2920.7763978741008941
 20
675.5036614785202573
 30
0.0
 40
0.0239742121211945
 50
239.3312255113121978
 51
284.7742188587064902
  0
ARC
  5
7D47
  8
0
 10
-12.4724986212831901
 20
11748.6611176536498533
 30
0.0
 40
11455.0999293383702025
 50
284.8367256406044135
 51
284.836947741804579
  0
ARC
  5
7D48
  8
0
 10
2920.8242038414300623
 20
675.4953244478898569
 30
0.0
 40
0.0036859059171604
 50
289.5223951957038935
 51
353.3414302317208922
  0
ARC
  5
7D49
  8
0
 10
2920.786922246929862
 20
675.5005291894103721
 30
0.0
 40
0.0413282048988322
 50
352.167463829398514
 51
16.0073777528393109
  0
ARC
  5
7D4A
  8
0
 10
2920.5556136662789868
 20
675.442883640797163
 30
0.0
 40
0.2796899067266229
 50
14.2913601174555005
 51
36.3220120326717293
  0
ARC
  5
7D4B
  8
0
 10
2920.7664845287681601
 20
675.5984884404357445
 30
0.0
 40
0.017629018296662
 50
34.8030775347643768
 51
74.233227007377522
  0
ARC
  5
7D4C
  8
0
 10
2920.7716012985160887
 20
675.6108961687899637
 30
0.0
 40
0.0045696953337952
 50
94.0981488290253054
 51
121.0267847747464032
  0
ARC
  5
7D4D
  8
0
 10
3312.1861703475819922
 20
-243.864017011524794
 30
0.0
 40
999.3240344638531951
 50
113.0591794667092955
 51
113.060965787299196
  0
ARC
  5
7D4E
  8
0
 10
2920.7501960622648767
 20
675.5802647209605993
 30
0.0
 40
0.0243252691767993
 50
113.287110740168103
 51
185.426878479862097
  0
ARC
  5
7D4F
  8
0
 10
2920.7301816600620441
 20
675.5721680102122946
 30
0.0
 40
0.0029222378109126
 50
162.1108731674671901
 51
184.9164340196718967
  0
ARC
  5
7D50
  8
0
 10
2920.7277129018330015
 20
675.572921283348137
 30
0.0
 40
0.0003439612759713
 50
120.1766097361933987
 51
155.1829356794393107
  0
ARC
  5
7D51
  8
0
 10
2920.7276476122501663
 20
675.5730003597078621
 30
0.0
 40
0.0002433555811392
 50
75.8521900667360285
 51
116.2434384681243955
  0
ARC
  5
7D52
  8
0
 10
2920.727543887135198
 20
675.5726058227068052
 30
0.0
 40
0.0006512917602909
 50
49.0028575056124183
 51
75.4875798777239027
  0
ARC
  5
7D53
  8
0
 10
2920.7248284422407778
 20
675.5696092280791163
 30
0.0
 40
0.0046950833037276
 50
30.8748468894570713
 51
47.9822251224660619
  0
ARC
  5
7D54
  8
0
 10
2920.6796748823257985
 20
675.542484059542403
 30
0.0
 40
0.0573697237842073
 50
22.3461584184043005
 51
30.9847689568878799
  0
ARC
  5
7D55
  8
0
 10
2920.371557244286123
 20
675.4096400020198416
 30
0.0
 40
0.3928980277847817
 50
17.923867200164711
 51
23.1805034838177697
  0
ARC
  5
7D56
  8
0
 10
2920.4759172123522148
 20
675.437635896090228
 30
0.0
 40
0.2850398975429522
 50
12.4261731287277009
 51
19.02545659740559
  0
ARC
  5
7D57
  8
0
 10
2920.6433572674100105
 20
675.4384074942888674
 30
0.0
 40
0.1241726187938707
 50
28.1234140676322397
 51
30.4981411417343509
  0
ARC
  5
7D58
  8
0
 10
2920.7559954555699733
 20
675.4986195286835482
 30
0.0
 40
0.0035491611274428
 50
208.2611901248835125
 51
235.9885409334997917
  0
ARC
  5
7D59
  8
0
 10
2920.7541138747478726
 20
675.4959309546046597
 30
0.0
 40
0.0002738033278747
 50
247.7504375081055912
 51
346.4187287248021221
  0
ARC
  5
7D5A
  8
0
 10
2920.750927102172227
 20
675.4968208174409483
 30
0.0
 40
0.0035823279310785
 50
344.5527234354112807
 51
7.4457624991828864
  0
ARC
  5
7D5B
  8
0
 10
2920.7346613371591957
 20
675.4957958957370465
 30
0.0
 40
0.019873756336043
 50
4.2972189429922931
 51
9.1937520667306654
  0
ARC
  5
7D5C
  8
0
 10
2920.9914839065390879
 20
675.7750514155503652
 30
0.0
 40
0.3790005665231213
 50
191.5789449157009017
 51
204.3323134894926909
  0
ARC
  5
7D5D
  8
0
 10
2920.6750881592720361
 20
675.6302944516504567
 30
0.0
 40
0.0311038237496018
 50
201.5047654840942926
 51
237.5211510525134031
  0
ARC
  5
7D5E
  8
0
 10
2920.6706143998949301
 20
675.6246765334715292
 30
0.0
 40
0.0239742121211945
 50
239.3312255113121978
 51
284.7742188587064902
  0
ARC
  5
7D5F
  8
0
 10
-12.5782820954886994
 20
11748.7821327086003294
 30
0.0
 40
11455.0999293383702025
 50
284.8367256406044135
 51
284.836947741804579
  0
ARC
  5
7D60
  8
0
 10
2920.7184203672240983
 20
675.6163395028412424
 30
0.0
 40
0.0036859059171604
 50
289.5223951957038935
 51
353.3414302317208922
  0
ARC
  5
7D61
  8
0
 10
2920.681138772723898
 20
675.6215442443615302
 30
0.0
 40
0.0413282048988322
 50
352.167463829398514
 51
16.0073777528393109
  0
ARC
  5
7D62
  8
0
 10
2920.4498301920730228
 20
675.5638986957483212
 30
0.0
 40
0.2796899067266229
 50
14.2913601174555005
 51
36.3220120326717293
  0
ARC
  5
7D63
  8
0
 10
2920.6607010545621961
 20
675.7195034953870163
 30
0.0
 40
0.017629018296662
 50
34.8030775347643768
 51
74.233227007377522
  0
ARC
  5
7D64
  8
0
 10
2920.6658178243110342
 20
675.7319112237411218
 30
0.0
 40
0.0045696953337952
 50
94.0981488290253054
 51
121.0267847747464032
  0
ARC
  5
7D65
  8
0
 10
3312.0803868733760282
 20
-243.7430019565736075
 30
0.0
 40
999.3240344638531951
 50
113.0591794667092955
 51
113.060965787299196
  0
ARC
  5
7D66
  8
0
 10
2920.6444125880589127
 20
675.7012797759118712
 30
0.0
 40
0.0243252691767993
 50
113.287110740168103
 51
185.426878479862097
  0
ARC
  5
7D67
  8
0
 10
2920.6243981858569896
 20
675.6931830651634527
 30
0.0
 40
0.0029222378109126
 50
162.1108731674671901
 51
184.9164340196718967
  0
ARC
  5
7D68
  8
0
 10
2920.621929427627947
 20
675.6939363382992951
 30
0.0
 40
0.0003439612759713
 50
120.1766097361933987
 51
155.1829356794393107
  0
ARC
  5
7D69
  8
0
 10
2920.6218641380442023
 20
675.694015414659134
 30
0.0
 40
0.0002433555811392
 50
75.8521900667360285
 51
116.2434384681243955
  0
ARC
  5
7D6A
  8
0
 10
2920.6217604129301435
 20
675.6936208776578496
 30
0.0
 40
0.0006512917602909
 50
49.0028575056124183
 51
75.4875798777239027
  0
ARC
  5
7D6B
  8
0
 10
2920.619044968036178
 20
675.6906242830303881
 30
0.0
 40
0.0046950833037276
 50
30.8748468894570713
 51
47.9822251224660619
  0
ARC
  5
7D6C
  8
0
 10
2920.5738914081198345
 20
675.6634991144936748
 30
0.0
 40
0.0573697237842073
 50
22.3461584184043005
 51
30.9847689568878799
  0
ARC
  5
7D6D
  8
0
 10
2920.2657737700810685
 20
675.5306550569708861
 30
0.0
 40
0.3928980277847817
 50
17.923867200164711
 51
23.1805034838177697
  0
ARC
  5
7D6E
  8
0
 10
2920.3701337381457961
 20
675.5586509510414999
 30
0.0
 40
0.2850398975429522
 50
12.4261731287277009
 51
19.02545659740559
  0
ARC
  5
7D6F
  8
0
 10
2920.5375737932040465
 20
675.5594225492400255
 30
0.0
 40
0.1241726187938707
 50
28.1234140676322397
 51
30.4981411417343509
  0
ARC
  5
7D70
  8
0
 10
2920.6502119813640093
 20
675.6196345836347064
 30
0.0
 40
0.0035491611274428
 50
208.2611901248835125
 51
235.9885409334997917
  0
ARC
  5
7D71
  8
0
 10
2920.6483304005419086
 20
675.6169460095559316
 30
0.0
 40
0.0002738033278747
 50
247.7504375081055912
 51
346.4187287248021221
  0
ARC
  5
7D72
  8
0
 10
2920.6451436279658083
 20
675.6178358723921065
 30
0.0
 40
0.0035823279310785
 50
344.5527234354112807
 51
7.4457624991828864
  0
ARC
  5
7D73
  8
0
 10
2920.6288778629527769
 20
675.6168109506882047
 30
0.0
 40
0.019873756336043
 50
4.2972189429922931
 51
9.1937520667306654
  0
ARC
  5
7D74
  8
0
 10
2925.7425100190607736
 20
676.353801486322709
 30
0.0
 40
5.2515992794745916
 50
188.8667828300366125
 51
188.9254593439887913
  0
ARC
  5
7D75
  8
0
 10
2920.5467419516530754
 20
675.537979147363103
 30
0.0
 40
0.0078296643631572
 50
288.9055312800077786
 51
7.6331803404467378
  0
ARC
  5
7D76
  8
0
 10
2362.0266106141680211
 20
2297.56412215062619
 30
0.0
 40
1715.5000463935668904
 50
288.9994515048563244
 51
289.0003703353830247
  0
ARC
  5
7D77
  8
0
 10
2920.5258351840379873
 20
675.5141615614244301
 30
0.0
 40
0.0078837814272614
 50
109.0126696940179016
 51
154.8278041534096019
  0
ARC
  5
7D78
  8
0
 10
3145.7554161705479601
 20
569.5439799271663333
 30
0.0
 40
248.9216108970506127
 50
154.8030862366381939
 51
154.8114559375817976
  0
ARC
  5
7D79
  8
0
 10
2920.5236613718561784
 20
675.4754638625304324
 30
0.0
 40
0.0223929677745698
 50
155.8893248572755112
 51
197.6807244951353084
  0
LINE
  5
7D7A
  8
0
 10
2920.5026930182689284
 20
675.4687875144544478
 30
0.0
 11
2920.4963777210227818
 21
675.4666412249181349
 31
0.0
  0
LINE
  5
7D7B
  8
0
 10
2920.5013607929749924
 20
675.4734318223436276
 30
0.0
 11
2920.831213931423008
 21
674.3235215640180513
 31
0.0
  0
ARC
  5
7D7C
  8
0
 10
2920.4981608396888078
 20
675.4610702404984295
 30
0.0
 40
0.005849391385528
 50
107.7484373546682974
 51
184.793672436180799
  0
ARC
  5
7D7D
  8
0
 10
2920.4865242154342013
 20
676.4961839827074073
 30
0.0
 40
0.0259440932899317
 50
107.5682879999569934
 51
201.844935430931514
  0
ARC
  5
7D7E
  8
0
 10
-5139.3112294759930592
 20
30044.1403533196316857
 30
0.0
 40
30453.5266413396202552
 50
285.3466720326749737
 51
285.3467629813799817
  0
ARC
  5
7D7F
  8
0
 10
2920.5254185169469565
 20
676.5332865830672517
 30
0.0
 40
0.0004388332281112
 50
55.6167071388921528
 51
104.3242761720183012
  0
ARC
  5
7D80
  8
0
 10
2920.5246627922369953
 20
676.5322671285327942
 30
0.0
 40
0.0017076184377543
 50
25.3176740595455598
 51
54.0069471045310792
  0
ARC
  5
7D81
  8
0
 10
2920.365566818059051
 20
676.4885801489566575
 30
0.0
 40
0.1666672227336356
 50
1.6897911027859751
 51
15.4562465898689503
  0
ARC
  5
7D82
  8
0
 10
2920.2112259475820792
 20
676.4450652444165826
 30
0.0
 40
0.3245690928375372
 50
351.6328899695391215
 51
8.5812650087360431
  0
ARC
  5
7D83
  8
0
 10
2913.1453958985839563
 20
735.3324670502221352
 30
0.0
 40
59.395772076327809
 50
277.1160867670237735
 51
277.1442707897205082
  0
ARC
  5
7D84
  8
0
 10
2920.5011518857631927
 20
676.418465868880844
 30
0.0
 40
0.024356200854485
 50
188.6532772341946895
 51
275.1761404282752892
  0
ARC
  5
7D85
  8
0
 10
2921.3965786865092014
 20
676.6397007648155295
 30
0.0
 40
0.9466100409149957
 50
189.3119402017939024
 51
193.743989869744496
  0
ARC
  5
7D86
  8
0
 10
2920.4477195515651147
 20
676.3853462663212213
 30
0.0
 40
0.0259440932899317
 50
107.5682879999569934
 51
201.844935430931514
  0
ARC
  5
7D87
  8
0
 10
-5139.3500341398630553
 20
30044.0295156032407249
 30
0.0
 40
30453.5266413396202552
 50
285.3466720326749737
 51
285.3467421545717002
  0
ARC
  5
7D88
  8
0
 10
2920.3267621541899643
 20
676.3777424325705852
 30
0.0
 40
0.1666672227336356
 50
1.6897911027859751
 51
6.1902904442768758
  0
ARC
  5
7D89
  8
0
 10
2920.1724212837129926
 20
676.3342275280303966
 30
0.0
 40
0.3245690928375372
 50
351.6328899695391215
 51
8.5812650087360431
  0
ARC
  5
7D8A
  8
0
 10
2913.1065912347148696
 20
735.2216293338359492
 30
0.0
 40
59.395772076327809
 50
277.1160867670237735
 51
277.1442707897205082
  0
ARC
  5
7D8B
  8
0
 10
2920.462347221894106
 20
676.3076281524945443
 30
0.0
 40
0.024356200854485
 50
188.6532772341946895
 51
275.1761404282752892
  0
ARC
  5
7D8C
  8
0
 10
2921.3577740226401147
 20
676.5288630484293435
 30
0.0
 40
0.9466100409149957
 50
189.3119402017939024
 51
193.743989869744496
  0
ARC
  5
7D8D
  8
0
 10
2920.4461479200967915
 20
676.2019204428013381
 30
0.0
 40
0.0259440932899317
 50
107.5682879999569934
 51
201.844935430931514
  0
ARC
  5
7D8E
  8
0
 10
-5139.3516057713313785
 20
30043.8460897797194775
 30
0.0
 40
30453.5266413396202552
 50
285.3466720326749737
 51
285.3467629813799817
  0
ARC
  5
7D8F
  8
0
 10
2920.4850422216100014
 20
676.2390230431611826
 30
0.0
 40
0.0004388332281112
 50
55.6167071388921528
 51
104.3242761720183012
  0
ARC
  5
7D90
  8
0
 10
2920.4842864969009497
 20
676.2380035886267251
 30
0.0
 40
0.0017076184377543
 50
25.3176740595455598
 51
54.0069471045310792
  0
ARC
  5
7D91
  8
0
 10
2920.3251905227220959
 20
676.194316609050702
 30
0.0
 40
0.1666672227336356
 50
1.6897911027859751
 51
15.4562465898689503
  0
ARC
  5
7D92
  8
0
 10
2920.1708496522460337
 20
676.1508017045103998
 30
0.0
 40
0.3245690928375372
 50
351.6328899695391215
 51
8.5812650087360431
  0
ARC
  5
7D93
  8
0
 10
2913.1050196032479107
 20
735.0382035103160661
 30
0.0
 40
59.395772076327809
 50
277.1160867670237735
 51
277.1442707897205082
  0
ARC
  5
7D94
  8
0
 10
2920.4607755904280566
 20
676.1242023289747749
 30
0.0
 40
0.024356200854485
 50
188.6532772341946895
 51
275.1761404282752892
  0
ARC
  5
7D95
  8
0
 10
2921.3562023911731558
 20
676.3454372249093467
 30
0.0
 40
0.9466100409149957
 50
189.3119402017939024
 51
193.743989869744496
  0
ARC
  5
7D96
  8
0
 10
2920.4291889158807862
 20
676.2647451689949776
 30
0.0
 40
0.0259440932899317
 50
107.5682879999569934
 51
201.844935430931514
  0
ARC
  5
7D97
  8
0
 10
-5148.1254734314115922
 20
30075.8166275087605754
 30
0.0
 40
30486.6141857978982443
 50
285.3466720386484781
 51
285.3467113201572261
  0
ARC
  5
7D98
  8
0
 10
2920.3082315185060907
 20
676.2571413352444551
 30
0.0
 40
0.1666672227336356
 50
1.6897911027859751
 51
9.4077358422986794
  0
ARC
  5
7D99
  8
0
 10
2920.1538906480291189
 20
676.2136264307042666
 30
0.0
 40
0.3245690928375372
 50
4.2060707846363474
 51
8.5812650087360431
  0
ARC
  5
7D9A
  8
0
 10
2920.4438165862111418
 20
676.187027055168528
 30
0.0
 40
0.024356200854485
 50
188.6532772341946895
 51
222.606817884201206
  0
ARC
  5
7D9B
  8
0
 10
2921.3392433869557863
 20
676.4082619511030998
 30
0.0
 40
0.9466100409149957
 50
189.3119402017939024
 51
193.743989869744496
  0
ARC
  5
7D9C
  8
0
 10
2920.5331997376279105
 20
676.0939918202615218
 30
0.0
 40
0.0259440932899317
 50
107.5682879999569934
 51
201.844935430931514
  0
ARC
  5
7D9D
  8
0
 10
-5139.2645539537998047
 20
30043.7381611571800022
 30
0.0
 40
30453.5266413396202552
 50
285.3466720326749737
 51
285.3467629813799817
  0
ARC
  5
7D9E
  8
0
 10
2920.572094039140211
 20
676.1310944206214799
 30
0.0
 40
0.0004388332281112
 50
55.6167071388921528
 51
104.3242761720183012
  0
ARC
  5
7D9F
  8
0
 10
2920.5713383144320687
 20
676.1300749660870224
 30
0.0
 40
0.0017076184377543
 50
25.3176740595455598
 51
54.0069471045310792
  0
ARC
  5
7DA0
  8
0
 10
2920.4122423402532149
 20
676.0863879865108856
 30
0.0
 40
0.1666672227336356
 50
2.1776304647731179
 51
15.4562465898689503
  0
ARC
  5
7DA1
  8
0
 10
2920.2579014697757884
 20
676.0428730819706971
 30
0.0
 40
0.3245690928375372
 50
351.6328899695391215
 51
8.7547212613840255
  0
ARC
  5
7DA2
  8
0
 10
2913.1920714207781202
 20
734.9302748877762497
 30
0.0
 40
59.395772076327809
 50
277.1160867670237735
 51
277.1442707897205082
  0
ARC
  5
7DA3
  8
0
 10
2920.5478274079569019
 20
676.0162737064348448
 30
0.0
 40
0.024356200854485
 50
188.6532772341946895
 51
275.1761404282752892
  0
ARC
  5
7DA4
  8
0
 10
2921.4432542087020011
 20
676.237508602369644
 30
0.0
 40
0.9466100409149957
 50
189.3119402017939024
 51
193.743989869744496
  0
ARC
  5
7DA5
  8
0
 10
2920.6040536421410252
 20
676.086821464256218
 30
0.0
 40
0.0259440932899317
 50
107.5682879999569934
 51
201.844935430931514
  0
ARC
  5
7DA6
  8
0
 10
-5139.1937000492871448
 20
30043.7309908011811785
 30
0.0
 40
30453.5266413396202552
 50
285.3466720326749737
 51
285.3467629813799817
  0
ARC
  5
7DA7
  8
0
 10
2920.6429479436551446
 20
676.1239240646161761
 30
0.0
 40
0.0004388332281112
 50
55.6167071388921528
 51
104.3242761720183012
  0
ARC
  5
7DA8
  8
0
 10
2920.6421922189451834
 20
676.1229046100817186
 30
0.0
 40
0.0017076184377543
 50
25.3176740595455598
 51
54.0069471045310792
  0
ARC
  5
7DA9
  8
0
 10
2920.4830962447658749
 20
676.0792176305055818
 30
0.0
 40
0.1666672227336356
 50
1.6897911027859751
 51
15.4562465898689503
  0
ARC
  5
7DAA
  8
0
 10
2920.3287553742889031
 20
676.0357027259653933
 30
0.0
 40
0.3245690928375372
 50
351.6328899695391215
 51
8.5812650087360431
  0
ARC
  5
7DAB
  8
0
 10
2913.2629253252907802
 20
734.9231045317709459
 30
0.0
 40
59.395772076327809
 50
277.1160867670237735
 51
277.1442707897205082
  0
ARC
  5
7DAC
  8
0
 10
2920.6186813124700166
 20
676.0091033504296547
 30
0.0
 40
0.024356200854485
 50
188.6532772341946895
 51
275.1761404282752892
  0
ARC
  5
7DAD
  8
0
 10
2921.5141081132160252
 20
676.2303382463643402
 30
0.0
 40
0.9466100409149957
 50
189.3119402017939024
 51
193.743989869744496
  0
ARC
  5
7DAE
  8
0
 10
2920.5008865467871146
 20
676.0175412653392186
 30
0.0
 40
0.0259440932899317
 50
107.5682879999569934
 51
201.844935430931514
  0
ARC
  5
7DAF
  8
0
 10
2920.2255882789359021
 20
675.9664225270482802
 30
0.0
 40
0.3245690928375372
 50
351.6328899695391215
 51
4.5116175651677679
  0
ARC
  5
7DB0
  8
0
 10
2913.1597582299377791
 20
734.8538243328539465
 30
0.0
 40
59.395772076327809
 50
277.1160867670237735
 51
277.1442707897205082
  0
ARC
  5
7DB1
  8
0
 10
2920.5155142171170155
 20
675.9398231515126554
 30
0.0
 40
0.024356200854485
 50
188.6532772341946895
 51
275.1761404282752892
  0
ARC
  5
7DB2
  8
0
 10
2921.4109410178621147
 20
676.1610580474473409
 30
0.0
 40
0.9466100409149957
 50
189.3119402017939024
 51
193.743989869744496
  0
ARC
  5
7DB3
  8
0
 10
2920.5783658166678833
 20
675.7310165733769054
 30
0.0
 40
0.0259440932899317
 50
107.5682879999569934
 51
201.844935430931514
  0
ARC
  5
7DB4
  8
0
 10
-5139.2193878747602866
 20
30043.3751859102994786
 30
0.0
 40
30453.5266413396202552
 50
285.3466720326749737
 51
285.3467629813799817
  0
ARC
  5
7DB5
  8
0
 10
2920.6172601181810933
 20
675.7681191737367499
 30
0.0
 40
0.0004388332281112
 50
55.6167071388921528
 51
104.3242761720183012
  0
ARC
  5
7DB6
  8
0
 10
2920.6165043934720416
 20
675.767099719202406
 30
0.0
 40
0.0017076184377543
 50
25.3176740595455598
 51
54.0069471045310792
  0
ARC
  5
7DB7
  8
0
 10
2920.4574084192931878
 20
675.7234127396261556
 30
0.0
 40
0.1666672227336356
 50
1.6897911027859751
 51
15.4562465898689503
  0
ARC
  5
7DB8
  8
0
 10
2920.303067548816216
 20
675.679897835085967
 30
0.0
 40
0.3245690928375372
 50
351.6328899695391215
 51
358.1685105497836048
  0
ARC
  5
7DB9
  8
0
 10
2920.303067548816216
 20
675.679897835085967
 30
0.0
 40
0.3245690928375372
 50
6.499959091823718
 51
8.5812650087360431
  0
ARC
  5
7DBA
  8
0
 10
2913.2372374998180931
 20
734.5672996408916333
 30
0.0
 40
59.395772076327809
 50
277.1160867670237735
 51
277.1442707897205082
  0
ARC
  5
7DBB
  8
0
 10
2920.5929934869977842
 20
675.6532984595503422
 30
0.0
 40
0.024356200854485
 50
188.6532772341946895
 51
275.1761404282752892
  0
ARC
  5
7DBC
  8
0
 10
2921.4884202877428834
 20
675.8745333554850276
 30
0.0
 40
0.9466100409149957
 50
189.3119402017939024
 51
193.743989869744496
  0
ARC
  5
7DBD
  8
0
 10
2921.1405742918259421
 20
675.0488665010377645
 30
0.0
 40
0.3790005665231213
 50
191.5789449157009017
 51
204.3323134894926909
  0
ARC
  5
7DBE
  8
0
 10
2920.8241785445588903
 20
674.904109537137856
 30
0.0
 40
0.0311038237496018
 50
201.5047654840942926
 51
237.5211510525134031
  0
ARC
  5
7DBF
  8
0
 10
2920.8197047851831485
 20
674.8984916189588148
 30
0.0
 40
0.0239742121211945
 50
239.3312255113121978
 51
284.7742188587064902
  0
ARC
  5
7DC0
  8
0
 10
-12.4291917102013905
 20
11748.0559477940896613
 30
0.0
 40
11455.0999293383702025
 50
284.8367256406044135
 51
284.836947741804579
  0
ARC
  5
7DC1
  8
0
 10
2920.8675107525132262
 20
674.890154588328528
 30
0.0
 40
0.0036859059171604
 50
289.5223951957038935
 51
353.3414302317208922
  0
ARC
  5
7DC2
  8
0
 10
2920.8302291580121164
 20
674.8953593298487021
 30
0.0
 40
0.0413282048988322
 50
352.167463829398514
 51
16.0073777528393109
  0
ARC
  5
7DC3
  8
0
 10
2920.5989205773607864
 20
674.8377137812354931
 30
0.0
 40
0.2796899067266229
 50
14.2913601174555005
 51
36.3220120326717293
  0
ARC
  5
7DC4
  8
0
 10
2920.8097914398490502
 20
674.9933185808743019
 30
0.0
 40
0.017629018296662
 50
34.8030775347643768
 51
74.233227007377522
  0
ARC
  5
7DC5
  8
0
 10
2920.8149082095978883
 20
675.0057263092282938
 30
0.0
 40
0.0045696953337952
 50
94.0981488290253054
 51
121.0267847747464032
  0
ARC
  5
7DC6
  8
0
 10
3312.2294772586637919
 20
-244.4691868710862934
 30
0.0
 40
999.3240344638531951
 50
113.0591794667092955
 51
113.060965787299196
  0
ARC
  5
7DC7
  8
0
 10
2920.7935029733462216
 20
674.9750948613992705
 30
0.0
 40
0.0243252691767993
 50
113.287110740168103
 51
185.426878479862097
  0
ARC
  5
7DC8
  8
0
 10
2920.7734885711438437
 20
674.9669981506507384
 30
0.0
 40
0.0029222378109126
 50
162.1108731674671901
 51
184.9164340196718967
  0
ARC
  5
7DC9
  8
0
 10
2920.7710198129148012
 20
674.9677514237864671
 30
0.0
 40
0.0003439612759713
 50
120.1766097361933987
 51
155.1829356794393107
  0
ARC
  5
7DCA
  8
0
 10
2920.7709545233319659
 20
674.9678305001464196
 30
0.0
 40
0.0002433555811392
 50
75.8521900667360285
 51
116.2434384681243955
  0
ARC
  5
7DCB
  8
0
 10
2920.7708507982169976
 20
674.9674359631452489
 30
0.0
 40
0.0006512917602909
 50
49.0028575056124183
 51
75.4875798777239027
  0
ARC
  5
7DCC
  8
0
 10
2920.7681353533230322
 20
674.9644393685175601
 30
0.0
 40
0.0046950833037276
 50
30.8748468894570713
 51
47.9822251224660619
  0
ARC
  5
7DCD
  8
0
 10
2920.7229817934080529
 20
674.9373141999810741
 30
0.0
 40
0.0573697237842073
 50
22.3461584184043005
 51
30.9847689568878799
  0
ARC
  5
7DCE
  8
0
 10
2920.4148641553688321
 20
674.8044701424583991
 30
0.0
 40
0.3928980277847817
 50
17.923867200164711
 51
23.1805034838177697
  0
ARC
  5
7DCF
  8
0
 10
2920.5192241234340145
 20
674.8324660365286718
 30
0.0
 40
0.2850398975429522
 50
12.4261731287277009
 51
19.02545659740559
  0
ARC
  5
7DD0
  8
0
 10
2920.6866641784918102
 20
674.8332376347271975
 30
0.0
 40
0.1241726187938707
 50
28.1234140676322397
 51
30.4981411417343509
  0
ARC
  5
7DD1
  8
0
 10
2920.7993023666517729
 20
674.8934496691218783
 30
0.0
 40
0.0035491611274428
 50
208.2611901248835125
 51
235.9885409334997917
  0
ARC
  5
7DD2
  8
0
 10
2920.7974207858292175
 20
674.8907610950432172
 30
0.0
 40
0.0002738033278747
 50
247.7504375081055912
 51
346.4187287248021221
  0
ARC
  5
7DD3
  8
0
 10
2920.7942340132540266
 20
674.8916509578792784
 30
0.0
 40
0.0035823279310785
 50
344.5527234354112807
 51
7.4457624991828864
  0
ARC
  5
7DD4
  8
0
 10
2920.7779682482400858
 20
674.8906260361754903
 30
0.0
 40
0.019873756336043
 50
4.2972189429922931
 51
9.1937520667306654
  0
ARC
  5
7DD5
  8
0
 10
2921.0321283306670921
 20
675.4463933631808459
 30
0.0
 40
0.3790005665231213
 50
191.5789449157009017
 51
204.3323134894926909
  0
ARC
  5
7DD6
  8
0
 10
2920.7157325834000403
 20
675.3016363992810511
 30
0.0
 40
0.0311038237496018
 50
201.5047654840942926
 51
237.5211510525134031
  0
ARC
  5
7DD7
  8
0
 10
2920.7112588240229343
 20
675.2960184811020099
 30
0.0
 40
0.0239742121211945
 50
239.3312255113121978
 51
284.7742188587064902
  0
ARC
  5
7DD8
  8
0
 10
-12.5376376713607005
 20
11748.4534746562294458
 30
0.0
 40
11455.0999293383702025
 50
284.8367256406044135
 51
284.836947741804579
  0
ARC
  5
7DD9
  8
0
 10
2920.759064791353012
 20
675.2876814504717231
 30
0.0
 40
0.0036859059171604
 50
289.5223951957038935
 51
353.3414302317208922
  0
ARC
  5
7DDA
  8
0
 10
2920.7217831968528117
 20
675.2928861919920109
 30
0.0
 40
0.0413282048988322
 50
352.167463829398514
 51
16.0073777528393109
  0
ARC
  5
7DDB
  8
0
 10
2920.4904746162010269
 20
675.2352406433788019
 30
0.0
 40
0.2796899067266229
 50
14.2913601174555005
 51
36.3220120326717293
  0
ARC
  5
7DDC
  8
0
 10
2920.701345478688836
 20
675.3908454430173833
 30
0.0
 40
0.017629018296662
 50
34.8030775347643768
 51
74.233227007377522
  0
ARC
  5
7DDD
  8
0
 10
2920.7064622484381289
 20
675.4032531713716025
 30
0.0
 40
0.0045696953337952
 50
94.0981488290253054
 51
121.0267847747464032
  0
ARC
  5
7DDE
  8
0
 10
3312.1210312975040324
 20
-244.0716600089430983
 30
0.0
 40
999.3240344638531951
 50
113.0591794667092955
 51
113.060965787299196
  0
ARC
  5
7DDF
  8
0
 10
2920.6850570121869168
 20
675.3726217235423519
 30
0.0
 40
0.0243252691767993
 50
113.287110740168103
 51
185.426878479862097
  0
ARC
  5
7DE0
  8
0
 10
2920.6650426099840843
 20
675.3645250127939335
 30
0.0
 40
0.0029222378109126
 50
162.1108731674671901
 51
184.9164340196718967
  0
ARC
  5
7DE1
  8
0
 10
2920.6625738517550417
 20
675.3652782859297758
 30
0.0
 40
0.0003439612759713
 50
120.1766097361933987
 51
155.1829356794393107
  0
ARC
  5
7DE2
  8
0
 10
2920.6625085621722064
 20
675.3653573622896147
 30
0.0
 40
0.0002433555811392
 50
75.8521900667360285
 51
116.2434384681243955
  0
ARC
  5
7DE3
  8
0
 10
2920.6624048370581477
 20
675.364962825288444
 30
0.0
 40
0.0006512917602909
 50
49.0028575056124183
 51
75.4875798777239027
  0
ARC
  5
7DE4
  8
0
 10
2920.6596893921641822
 20
675.3619662306607552
 30
0.0
 40
0.0046950833037276
 50
30.8748468894570713
 51
47.9822251224660619
  0
ARC
  5
7DE5
  8
0
 10
2920.6145358322478387
 20
675.3348410621241555
 30
0.0
 40
0.0573697237842073
 50
22.3461584184043005
 51
30.9847689568878799
  0
ARC
  5
7DE6
  8
0
 10
2920.3064181942090727
 20
675.2019970046013668
 30
0.0
 40
0.3928980277847817
 50
17.923867200164711
 51
23.1805034838177697
  0
ARC
  5
7DE7
  8
0
 10
2920.4107781622738003
 20
675.2299928986717532
 30
0.0
 40
0.2850398975429522
 50
12.4261731287277009
 51
19.02545659740559
  0
ARC
  5
7DE8
  8
0
 10
2920.5782182173320507
 20
675.2307644968705063
 30
0.0
 40
0.1241726187938707
 50
28.1234140676322397
 51
30.4981411417343509
  0
ARC
  5
7DE9
  8
0
 10
2920.6908564054920134
 20
675.2909765312651871
 30
0.0
 40
0.0035491611274428
 50
208.2611901248835125
 51
235.9885409334997917
  0
ARC
  5
7DEA
  8
0
 10
2920.6889748246708223
 20
675.2882879571862986
 30
0.0
 40
0.0002738033278747
 50
247.7504375081055912
 51
346.4187287248021221
  0
ARC
  5
7DEB
  8
0
 10
2920.6857880520938124
 20
675.2891778200225872
 30
0.0
 40
0.0035823279310785
 50
344.5527234354112807
 51
7.4457624991828864
  0
ARC
  5
7DEC
  8
0
 10
2920.6695222870807811
 20
675.2881528983186854
 30
0.0
 40
0.019873756336043
 50
4.2972189429922931
 51
9.1937520667306654
  0
LINE
  5
7DED
  8
0
 10
2920.4861136912231814
 20
676.1028389945388426
 30
0.0
 11
2920.494183552155846
 21
676.0425107493764472
 31
0.0
  0
LINE
  5
7DEE
  8
0
 10
2920.5091654599909816
 20
675.9163089472303909
 30
0.0
 11
2920.5208294922231289
 21
675.7958030068181188
 31
0.0
  0
ARC
  5
7DEF
  8
0
 10
2920.4892889561351694
 20
675.7692455152722459
 30
0.0
 40
0.0157705602787603
 50
108.5345394672804957
 51
196.1679257099326037
  0
ARC
  5
7DF0
  8
0
 10
2920.2670723888809334
 20
676.5317257110250466
 30
0.0
 40
0.7784438926883503
 50
286.2018822659874786
 51
289.4651572873411851
  0
ARC
  5
7DF1
  8
0
 10
2941.7131452787571106
 20
681.7493618040762158
 30
0.0
 40
22.0660278892910107
 50
195.7362282601663139
 51
196.3057418821373119
  0
ARC
  5
7DF2
  8
0
 10
2920.5498462483378717
 20
675.5602872027649255
 30
0.0
 40
0.0164065191002513
 50
202.3819195335103984
 51
283.4794034938963136
  0
ARC
  5
7DF3
  8
0
 10
2920.5254419488910571
 20
675.8000631721649825
 30
0.0
 40
0.0025116059100176
 50
294.3126766019532852
 51
11.0817823455303603
  0
ARC
  5
7DF4
  8
0
 10
2920.5288165225510966
 20
675.8006997370609952
 30
0.0
 40
0.0009227093652998
 50
72.3675393823968562
 51
189.5956025258848001
  0
ARC
  5
7DF5
  8
0
 10
2920.5029724610299127
 20
675.7853487366179479
 30
0.0
 40
0.0307549173642566
 50
8.9028096997847719
 51
31.8523563698892715
  0
ARC
  5
7DF6
  8
0
 10
2919.0102501240871788
 20
675.473348782642347
 30
0.0
 40
1.555696215733251
 50
2.7912248116643248
 51
11.7483014620331208
  0
ARC
  5
7DF7
  8
0
 10
2920.5367534416859598
 20
675.636434030637588
 30
0.0
 40
0.0936421795110356
 50
280.4080194496369245
 51
283.3503390496630914
  0
ARC
  5
7DF8
  8
0
 10
2920.5586782309737828
 20
675.5418265067178254
 30
0.0
 40
0.0035089474484048
 50
53.5559057035228676
 51
94.9434243996985714
  0
ARC
  5
7DF9
  8
0
 10
2920.5701488593740578
 20
675.5482481383253344
 30
0.0
 40
0.0100524866005489
 50
200.9781200597213058
 51
215.1773982563429115
  0
ARC
  5
7DFA
  8
0
 10
2920.5625357252920367
 20
675.5426938518478437
 30
0.0
 40
0.0006483767148947
 50
201.4449234826338113
 51
324.147729692427788
  0
ARC
  5
7DFB
  8
0
 10
2920.5478664440479406
 20
675.5481149986961782
 30
0.0
 40
0.0162644606989087
 50
339.1047202720712903
 51
3.493943138781149
  0
LINE
  5
7DFC
  8
0
 10
2920.5214067535139293
 20
675.9160277032003705
 30
0.0
 11
2920.5685593642087952
 21
675.7550359294632472
 31
0.0
  0
LINE
  5
7DFD
  8
0
 10
2920.6048081626240673
 20
675.6302430205305427
 30
0.0
 11
2920.6738966184411765
 21
675.3942357081807586
 31
0.0
  0
LINE
  5
7DFE
  8
0
 10
2920.7081920767000156
 20
675.272241225001153
 30
0.0
 11
2920.7868188645270493
 21
674.9986869811997394
 31
0.0
  0
LINE
  5
7DFF
  8
0
 10
2920.8223862401227962
 20
674.8746678357531437
 30
0.0
 11
2920.9009544694908982
 21
674.6004267199793958
 31
0.0
  0
LINE
  5
7E00
  8
0
 10
2920.9361878251488633
 20
674.4764971501853097
 30
0.0
 11
2921.0033395222540094
 21
674.2412038709768467
 31
0.0
  0
LINE
  5
7E01
  8
0
 10
2921.0401471820810002
 20
674.1187349863813552
 30
0.0
 11
2921.0850111582622048
 21
673.9596019927763564
 31
0.0
  0
ARC
  5
7E02
  8
0
 10
2921.2649935812059994
 20
675.6898407854188235
 30
0.0
 40
0.697290522384403
 50
183.2829926842726991
 51
192.6644353246381058
  0
ARC
  5
7E03
  8
0
 10
2920.6015469501171538
 20
675.5401708599957828
 30
0.0
 40
0.0171808712681834
 50
190.7494597836439141
 51
220.8261515668635013
  0
ARC
  5
7E04
  8
0
 10
2920.5891388400550568
 20
675.5297351812133684
 30
0.0
 40
0.0009928403195193
 50
233.3537664927912942
 51
338.1005027046944065
  0
ARC
  5
7E05
  8
0
 10
2920.5608994414051267
 20
675.5407192646689509
 30
0.0
 40
0.0312931708561516
 50
338.7253291818050229
 51
5.013941762583757
  0
ARC
  5
7E06
  8
0
 10
2920.020682378553829
 20
675.5511068882424297
 30
0.0
 40
0.5714417330706589
 50
359.2326809243853063
 51
7.9126948374843789
  0
LINE
  5
7E07
  8
0
 10
2920.4923319089230063
 20
675.4605814197681184
 30
0.0
 11
2920.5057545800232219
 21
675.3815733922181153
 31
0.0
  0
LINE
  5
7E08
  8
0
 10
2921.0718431900459109
 20
673.9529336362345475
 30
0.0
 11
2921.0424700068228958
 21
674.0110371484181542
 31
0.0
  0
ARC
  5
7E09
  8
0
 10
2921.0389453375369158
 20
674.0091767194526255
 30
0.0
 40
0.0039855350342716
 50
27.8264718720373203
 51
103.1422629451324013
  0
LINE
  5
7E0A
  8
0
 10
2921.0380391477228841
 20
674.0130578674180697
 30
0.0
 11
2920.995971775423186
 21
674.0029583302181209
 31
0.0
  0
ARC
  5
7E0B
  8
0
 10
2920.9922939875327756
 20
674.0182689846002404
 30
0.0
 40
0.0157461824380435
 50
195.9888852704789031
 51
283.5071647442933909
  0
ARC
  5
7E0C
  8
0
 10
2982.358660629777205
 20
691.7992788016973691
 30
0.0
 40
63.9062404371857085
 50
195.9910610852994068
 51
196.1589939687731032
  0
LINE
  5
7E0D
  8
0
 10
2921.0424700068228958
 20
674.0110371484181542
 30
0.0
 11
2920.9580564736888846
 21
674.1922221487546949
 31
0.0
  0
ARC
  5
7E0E
  8
0
 10
2920.8758966351729214
 20
674.0995141588994102
 30
0.0
 40
0.1243947574799727
 50
26.5498795154486409
 51
36.6366524093611829
  0
ARC
  5
7E0F
  8
0
 10
2920.9752569607421719
 20
674.1737750293959834
 30
0.0
 40
0.0002320528817049
 50
56.4738323013275973
 51
169.5953962836148889
  0
ARC
  5
7E10
  8
0
 10
2920.9747990284608932
 20
674.1727450336718448
 30
0.0
 40
0.00135658564502
 50
47.5039952533951606
 51
64.4029088557801686
  0
ARC
  5
7E11
  8
0
 10
2920.9775093760608797
 20
674.1733444118643774
 30
0.0
 40
0.0025252559764345
 50
169.2152427377112076
 51
196.8475021838360135
  0
ARC
  5
7E12
  8
0
 10
2921.0314765266380164
 20
674.1863167472038185
 30
0.0
 40
0.0580255415999246
 50
193.6609320358066952
 51
202.9346842420239057
  0
ARC
  5
7E13
  8
0
 10
2921.4929183339490919
 20
674.3646093344111705
 30
0.0
 40
0.552688232762016
 50
201.3155102439089035
 51
204.972653070353914
  0
ARC
  5
7E14
  8
0
 10
2922.383719567063963
 20
674.7639769903812521
 30
0.0
 40
1.528879796576708
 50
204.4460019161292053
 51
208.0444749817939112
  0
ARC
  5
7E15
  8
0
 10
2921.3888752024668065
 20
674.2316981051834546
 30
0.0
 40
0.4005978623837318
 50
207.7516419817584108
 51
212.2697141661209059
  0
ARC
  5
7E16
  8
0
 10
2921.0661816043439103
 20
674.0264145293056117
 30
0.0
 40
0.018189836721649
 50
208.2078520150531062
 51
227.6051978953180992
  0
ARC
  5
7E17
  8
0
 10
2921.054342826624179
 20
674.0134386111025151
 30
0.0
 40
0.0006248098680268
 50
227.0833668133487038
 51
276.9427991058028056
  0
ARC
  5
7E18
  8
0
 10
2921.0542205767410451
 20
674.0131573696421583
 30
0.0
 40
0.0003924632726968
 50
300.2606810356286928
 51
359.4715817744761921
  0
ARC
  5
7E19
  8
0
 10
2921.0482837356380514
 20
674.0132777308602954
 30
0.0
 40
0.0063305018598402
 50
358.8778100137088813
 51
17.6688724177281493
  0
ARC
  5
7E1A
  8
0
 10
2920.9336939153258754
 20
673.9775341100647665
 30
0.0
 40
0.126365526787714
 50
17.3413650185067709
 51
23.6383990879836396
  0
ARC
  5
7E1B
  8
0
 10
2917.6433318640270045
 20
672.4353771397508126
 30
0.0
 40
3.7601565277953002
 50
25.0624598650001502
 51
27.2167706788736687
  0
ARC
  5
7E1C
  8
0
 10
2921.9006716412700371
 20
670.2106232972237194
 30
0.0
 40
4.091656482240948
 50
102.9740931986686974
 51
103.534878535671595
  0
ARC
  5
7E1D
  8
0
 10
2920.9407343608800147
 20
674.2042218233840458
 30
0.0
 40
0.0157514077572631
 50
196.0005584118507045
 51
278.5333185457648142
  0
ARC
  5
7E1E
  8
0
 10
2951.6054983453900604
 20
683.0820633415660268
 30
0.0
 40
31.9397794089496792
 50
195.7510008923663065
 51
196.1463385079499915
  0
ARC
  5
7E1F
  8
0
 10
2920.9366445513319377
 20
674.2038300122999317
 30
0.0
 40
0.0150720607839191
 50
193.422880387813791
 51
221.130906334242411
  0
ARC
  5
7E20
  8
0
 10
2835.3466481492619096
 20
649.4289288198175427
 30
0.0
 40
89.0885420498895826
 50
16.1440801886857983
 51
16.209471104036421
  0
ARC
  5
7E21
  8
0
 10
2920.9868254490747859
 20
674.2016699310423746
 30
0.0
 40
0.0061283738032266
 50
218.8385194119339872
 51
261.5111909571691058
  0
ARC
  5
7E22
  8
0
 10
2920.9854232987559044
 20
674.197824886461035
 30
0.0
 40
0.0022713459126329
 50
282.6523244169742952
 51
358.3901363126706201
  0
ARC
  5
7E23
  8
0
 10
2920.9063752546030628
 20
674.1976448712767933
 30
0.0
 40
0.0813185765783607
 50
0.0818759580267654
 51
17.4349726251321684
  0
ARC
  5
7E24
  8
0
 10
2920.0339939237987892
 20
673.9329344112006765
 30
0.0
 40
0.9929733462573282
 50
16.92508046088955
 51
28.7564959120774901
  0
ARC
  5
7E25
  8
0
 10
2920.8809600556110126
 20
674.4134790522000458
 30
0.0
 40
0.0160088028329156
 50
109.2530769815537042
 51
186.0987175304528876
  0
ARC
  5
7E26
  8
0
 10
2920.8939129427722037
 20
674.3856397686115542
 30
0.0
 40
0.0466618748449107
 50
104.4857381936793956
 51
112.9992054215860975
  0
ARC
  5
7E27
  8
0
 10
2920.8814911218378256
 20
674.4325605067024298
 30
0.0
 40
0.0018967668464384
 50
293.2871142475046895
 51
313.2189797440516941
  0
ARC
  5
7E28
  8
0
 10
2920.888486652355823
 20
674.4320736963394438
 30
0.0
 40
0.005766593211917
 50
141.4489365786531891
 51
188.9330998237857955
  0
ARC
  5
7E29
  8
0
 10
2920.8849420077772265
 20
674.4342195537709586
 30
0.0
 40
0.0017401306087587
 50
62.2310132384426495
 51
123.6855727934437965
  0
ARC
  5
7E2A
  8
0
 10
2920.8423757560422018
 20
674.3838130192640392
 30
0.0
 40
0.0676755300796183
 50
23.3556563478979307
 51
50.136906589742587
  0
ARC
  5
7E2B
  8
0
 10
2920.8222871698808376
 20
674.4834064362032677
 30
0.0
 40
0.085627802906001
 50
27.2823462578768883
 51
51.3891828521159511
  0
ARC
  5
7E2C
  8
0
 10
2920.8749577153121209
 20
674.5478016806640653
 30
0.0
 40
0.0026279142240152
 50
73.1094230566751406
 51
176.6824600144286137
  0
ARC
  5
7E2D
  8
0
 10
2920.9293179061792216
 20
674.5434216008210342
 30
0.0
 40
0.0571636478125185
 50
175.4525951452397123
 51
202.4338360426486076
  0
ARC
  5
7E2E
  8
0
 10
2921.3213014966190713
 20
674.6708870258596562
 30
0.0
 40
0.46920184062068
 50
198.5515245589679125
 51
208.694380329928606
  0
ARC
  5
7E2F
  8
0
 10
2921.0005630926989397
 20
674.4935906084706403
 30
0.0
 40
0.1027369367114207
 50
207.8440335958854064
 51
224.9774229766894962
  0
ARC
  5
7E30
  8
0
 10
2920.9339167877838008
 20
674.4268251802845953
 30
0.0
 40
0.008401513287442
 50
224.1494455263903092
 51
270.1816728822012124
  0
ARC
  5
7E31
  8
0
 10
2920.9325454036788869
 20
674.42170825234723
 30
0.0
 40
0.0035696909072491
 50
293.0564047122188072
 51
353.2230136253372734
  0
ARC
  5
7E32
  8
0
 10
2920.9066706241251268
 20
674.4262211353664043
 30
0.0
 40
0.0298304252951601
 50
350.4791920191522081
 51
14.7921729425553199
  0
ARC
  5
7E33
  8
0
 10
2920.7400921221128556
 20
674.3916389763462576
 30
0.0
 40
0.199924451497698
 50
12.1851290473445406
 51
22.064882248353701
  0
ARC
  5
7E34
  8
0
 10
2920.4839418424771793
 20
674.2953699719902261
 30
0.0
 40
0.4735299353226018
 50
21.2171093491060212
 51
23.1734511325426205
  0
LINE
  5
7E35
  8
0
 10
2920.8971387550777763
 20
674.2987746656482386
 30
0.0
 11
2920.8753552361949914
 21
674.2937437730962529
 31
0.0
  0
ARC
  5
7E36
  8
0
 10
2920.8735839200739974
 20
674.3014340326208185
 30
0.0
 40
0.0078916191213336
 50
237.2075523515734119
 51
282.9708527587383173
  0
ARC
  5
7E37
  8
0
 10
-7932.9518302767128262
 20
-16162.7969092845105479
 30
0.0
 40
20032.3011800882013631
 50
57.1926529264453976
 51
57.1927569287983317
  0
ARC
  5
7E38
  8
0
 10
2920.8494899369570703
 20
674.3311298898197492
 30
0.0
 40
0.0197964390681769
 50
202.6020279167036051
 51
237.1358065672324926
  0
ARC
  5
7E39
  8
0
 10
2921.19245287865715
 20
674.5495470036288452
 30
0.0
 40
0.287671706800012
 50
191.3049785354760957
 51
202.2131139926507899
  0
ARC
  5
7E3A
  8
0
 10
2920.9409067862898155
 20
674.4473879064338462
 30
0.0
 40
0.0161811882719724
 50
204.0561515430212012
 51
229.9110776955959068
  0
ARC
  5
7E3B
  8
0
 10
2920.9314792416521414
 20
674.436373286000844
 30
0.0
 40
0.0016876139424065
 50
233.96670419975041
 51
321.8577879336643264
  0
ARC
  5
7E3C
  8
0
 10
2920.7424021231367988
 20
674.5220406649266351
 30
0.0
 40
0.2092185481020075
 50
335.5156012876115028
 51
336.6051432286481031
  0
LINE
  5
7E3D
  8
0
 10
2920.5492787758948907
 20
675.5305718422984
 30
0.0
 11
2920.5796488040227814
 21
675.428736119918085
 31
0.0
  0
ARC
  5
7E3E
  8
0
 10
2920.5924356407908817
 20
675.4200234609581912
 30
0.0
 40
0.015472996500128
 50
107.5683841472925053
 51
193.9406260117052057
  0
LINE
  5
7E3F
  8
0
 10
2920.5877652115941601
 20
675.4347747562168252
 30
0.0
 11
2920.6181670771229619
 21
675.4450096471181268
 31
0.0
  0
ARC
  5
7E40
  8
0
 10
2920.6262151716068729
 20
675.4430571454308847
 30
0.0
 40
0.0082815510415728
 50
132.7737347860027057
 51
166.3632659595079986
  0
ARC
  5
7E41
  8
0
 10
2920.6222607583267745
 20
675.4470375449767516
 30
0.0
 40
0.002681750075543
 50
84.4731421030928544
 51
128.505454079364398
  0
ARC
  5
7E42
  8
0
 10
2920.6217960790759207
 20
675.4447770850313191
 30
0.0
 40
0.0049824737050619
 50
44.0287402891361808
 51
81.6568376095552253
  0
ARC
  5
7E43
  8
0
 10
2920.5842860410862158
 20
675.4118866519532958
 30
0.0
 40
0.0548648397688181
 50
19.6836011164507099
 51
41.4983334129000383
  0
ARC
  5
7E44
  8
0
 10
2920.1531836763451793
 20
675.2404680267964068
 30
0.0
 40
0.51876768107614
 50
10.8916837870259204
 51
21.4726440048241791
  0
ARC
  5
7E45
  8
0
 10
2920.1187765162508185
 20
675.2074484449924512
 30
0.0
 40
0.5593951755425005
 50
0.2311494894774373
 51
13.5478307212375597
  0
ARC
  5
7E46
  8
0
 10
2920.6723995487118373
 20
675.200201195975751
 30
0.0
 40
0.0051278965100329
 50
208.2298466413326139
 51
285.0481472675436976
  0
ARC
  5
7E47
  8
0
 10
2920.6673161393828195
 20
675.2026179256411069
 30
0.0
 40
0.0097697583005778
 50
311.04065548764288
 51
355.1968656974025862
  0
ARC
  5
7E48
  8
0
 10
2920.6202807992822272
 20
675.2138423888683292
 30
0.0
 40
0.0580339949509894
 50
348.0236556946296105
 51
355.9119878074346275
  0
ARC
  5
7E49
  8
0
 10
2920.6528982033601096
 20
675.2097839766204288
 30
0.0
 40
0.0151294005040309
 50
247.7301298111503911
 51
283.7880323773846953
  0
ARC
  5
7E4A
  8
0
 10
2920.8403687653149063
 20
674.4414498919693415
 30
0.0
 40
0.7757451146383226
 50
102.8471171211935058
 51
103.7105466033112009
  0
ARC
  5
7E4B
  8
0
 10
2920.6527411645352004
 20
675.2104968957654592
 30
0.0
 40
0.01573511623444
 50
189.2130052151084101
 51
249.2432520261797038
  0
ARC
  5
7E4C
  8
0
 10
2941.282022899302774
 20
681.2461094692182542
 30
0.0
 40
21.5097042245347012
 50
195.7256737704520049
 51
196.302980532516699
  0
ARC
  5
7E4D
  8
0
 10
2920.7297073618719878
 20
675.1320447567800329
 30
0.0
 40
0.0012872654567604
 50
66.9577922233494007
 51
180.8229697630330008
  0
ARC
  5
7E4E
  8
0
 10
2920.717102834193156
 20
675.1140891509991206
 30
0.0
 40
0.0231986113633173
 50
40.1830811678698581
 51
55.5942372027859832
  0
ARC
  5
7E4F
  8
0
 10
2920.7512539114732135
 20
675.1294877769687446
 30
0.0
 40
0.0229743548647689
 50
173.6563010678540024
 51
201.403279528413492
  0
ARC
  5
7E50
  8
0
 10
2918.6560570577189537
 20
674.490655142129981
 30
0.0
 40
2.1675194600090402
 50
15.0368892290916794
 51
16.9095574972708391
  0
ARC
  5
7E51
  8
0
 10
2920.771865241903015
 20
675.0574184792484402
 30
0.0
 40
0.0229367186253518
 50
191.1110317723546927
 51
209.982775989694602
  0
ARC
  5
7E52
  8
0
 10
2920.7524414370009254
 20
675.046247438865862
 30
0.0
 40
0.0005305722023601
 50
213.3065640363988109
 51
349.934251109081174
  0
ARC
  5
7E53
  8
0
 10
2920.7641973573090581
 20
675.0412157139578539
 30
0.0
 40
0.0122713283921795
 50
152.7111002404838871
 51
156.266548981621213
  0
ARC
  5
7E54
  8
0
 10
2920.7452764175609445
 20
675.0244030297948257
 30
0.0
 40
0.0044404787742181
 50
236.938626483030589
 51
316.1777501360008955
  0
ARC
  5
7E55
  8
0
 10
2920.7329925418130188
 20
675.0333242259821418
 30
0.0
 40
0.0195900077641355
 50
322.2405804945245222
 51
354.8130499128657789
  0
ARC
  5
7E56
  8
0
 10
2920.5828548161930485
 20
675.0479775753531158
 30
0.0
 40
0.1704407210890459
 50
354.4701519054810888
 51
2.0583757453375471
  0
ARC
  5
7E57
  8
0
 10
2920.5163967980170128
 20
675.0366584066746327
 30
0.0
 40
0.2374302147006085
 50
4.2125938668706073
 51
21.20676556858281
  0
ARC
  5
7E58
  8
0
 10
2920.6580991585360607
 20
675.0907173883842916
 30
0.0
 40
0.085773092211775
 50
21.7815749089469008
 51
26.5511300698487389
  0
ARC
  5
7E59
  8
0
 10
2920.761155686703205
 20
675.0458941272465836
 30
0.0
 40
0.0311549057252867
 50
199.6316085631306976
 51
234.0242721614247898
  0
ARC
  5
7E5A
  8
0
 10
2920.9465348640928823
 20
675.1312136004412423
 30
0.0
 40
0.2351193211539052
 50
185.8548499116674861
 51
204.0413479821280021
  0
ARC
  5
7E5B
  8
0
 10
2920.7803212232970509
 20
675.1210861644112811
 30
0.0
 40
0.0690831521317497
 50
160.6350780265686922
 51
191.5709393276692936
  0
ARC
  5
7E5C
  8
0
 10
2920.7202348467699267
 20
675.1415095034724345
 30
0.0
 40
0.0056621679616433
 50
104.7771302907524955
 51
153.9845683073822045
  0
ARC
  5
7E5D
  8
0
 10
2920.7196029515480404
 20
675.14138595726115
 30
0.0
 40
0.005657061992348
 50
50.7523812763934501
 51
98.2556258063887071
  0
ARC
  5
7E5E
  8
0
 10
2920.6966132909969929
 20
675.1148399332081453
 30
0.0
 40
0.0407722253671107
 50
20.408469600428699
 51
49.3347851544746803
  0
LINE
  5
7E5F
  8
0
 10
2920.4788243089078605
 20
675.3717716490313023
 30
0.0
 11
2920.5057545800232219
 21
675.3815733922181153
 31
0.0
  0
ARC
  5
7E60
  8
0
 10
2920.503837201396891
 20
675.3868599416704228
 30
0.0
 40
0.0056235172186307
 50
289.9352019535949125
 51
342.7954520175812263
  0
ARC
  5
7E61
  8
0
 10
2920.5182406417161474
 20
675.3860164980197851
 30
0.0
 40
0.0090686878313187
 50
167.1024545100295882
 51
185.1872072420889879
  0
ARC
  5
7E62
  8
0
 10
2920.5095957357711995
 20
675.3879883666161277
 30
0.0
 40
0.000201887954395
 50
59.2853516280038377
 51
164.9747678046778105
  0
ARC
  5
7E63
  8
0
 10
2920.5082252607107876
 20
675.3864370568319373
 30
0.0
 40
0.0022686283525502
 50
18.5916095438928117
 51
49.4921728715437297
  0
ARC
  5
7E64
  8
0
 10
2920.4433456537149141
 20
675.35884605471756
 30
0.0
 40
0.0727646843268306
 50
10.7145392957555199
 51
22.8998345076409286
  0
ARC
  5
7E65
  8
0
 10
2919.0210524033041111
 20
675.0072961897401456
 30
0.0
 40
1.5377543672124641
 50
10.0560083961021807
 51
13.7337158506899204
  0
LINE
  5
7E66
  8
0
 10
2920.4930555226819706
 20
676.0422752710409213
 30
0.0
 11
2920.5159992622470781
 21
676.0470648210744002
 31
0.0
  0
ARC
  5
7E67
  8
0
 10
2920.482879774884168
 20
675.3606608345099858
 30
0.0
 40
0.011827806373295
 50
110.052167129516107
 51
191.1222978226132909
  0
ARC
  5
7E68
  8
0
 10
2927.3927765813150472
 20
677.3032049971121751
 30
0.0
 40
7.1895495629098951
 50
195.6950437028669967
 51
196.755572604761312
  0
ARC
  5
7E69
  8
0
 10
2924.9048014036620771
 20
676.431631188537267
 30
0.0
 40
4.5573035822780223
 50
195.2764416293213969
 51
196.7959334323064127
  0
ARC
  5
7E6A
  8
0
 10
2920.5098947968149332
 20
675.2662217638470565
 30
0.0
 40
0.0135416766244445
 50
165.1674898258470137
 51
194.8105084346404112
  0
ARC
  5
7E6B
  8
0
 10
2911.7154629617821229
 20
672.6802179847384195
 30
0.0
 40
9.1532211563451202
 50
15.6144043819467004
 51
16.3883100793962413
  0
ARC
  5
7E6C
  8
0
 10
2920.5421488193360346
 20
675.1471206301597476
 30
0.0
 40
0.0117116922442432
 50
195.8756814688923953
 51
232.4126449965222037
  0
ARC
  5
7E6D
  8
0
 10
2920.5141918799818086
 20
675.2546479291115702
 30
0.0
 40
0.0126841018441456
 50
111.2409912070205991
 51
184.3679479711476858
  0
ARC
  5
7E6E
  8
0
 10
2918.7772009275417986
 20
680.0549098120463896
 30
0.0
 40
5.092184912101664
 50
289.8894701256813278
 51
290.220077915349691
  0
ARC
  5
7E6F
  8
0
 10
2920.5525811535708272
 20
675.1096491197413343
 30
0.0
 40
0.0118190935952368
 50
110.0153553475173993
 51
190.707178964795105
  0
ARC
  5
7E70
  8
0
 10
2920.8710507649871033
 20
674.2516351472958149
 30
0.0
 40
0.9270297120561147
 50
109.3024987984009044
 51
110.3590103684664001
  0
LINE
  5
7E71
  8
0
 10
2920.5395156142749329
 20
675.1227018863905869
 30
0.0
 11
2920.5692639804228747
 21
675.1289926337180987
 31
0.0
  0
LINE
  5
7E72
  8
0
 10
2920.5642308455439888
 20
675.1279283003144656
 30
0.0
 11
2920.5755506209397936
 21
675.0875112279004497
 31
0.0
  0
ARC
  5
7E73
  8
0
 10
2920.5697947002418005
 20
675.1238190734212594
 30
0.0
 40
0.0052007104968693
 50
50.5312093968594809
 51
95.8570903562020504
  0
ARC
  5
7E74
  8
0
 10
2920.8012335125417849
 20
675.2810916140302879
 30
0.0
 40
0.274831901670559
 50
213.8928655770797889
 51
214.7368087896651048
  0
ARC
  5
7E75
  8
0
 10
2920.575518219496189
 20
675.125206969909982
 30
0.0
 40
0.0007293644911645
 50
259.288880486097014
 51
0.9361371842313047
  0
ARC
  5
7E76
  8
0
 10
2920.4772381014299754
 20
675.1340948529318666
 30
0.0
 40
0.0994064441768174
 50
354.8772574419878083
 51
15.8646090571668097
  0
ARC
  5
7E77
  8
0
 10
2920.5353214526271586
 20
675.2810345268774199
 30
0.0
 40
0.0048646853697856
 50
292.6873884361182263
 51
332.1687578781414913
  0
ARC
  5
7E78
  8
0
 10
2920.551745227453921
 20
675.2791377131734407
 30
0.0
 40
0.01212758371315
 50
163.6577947512257083
 51
181.7688985202823062
  0
ARC
  5
7E79
  8
0
 10
2920.5411257799869418
 20
675.2821884637794483
 30
0.0
 40
0.0010804765506091
 50
124.2083333828122989
 51
160.4459105581676965
  0
ARC
  5
7E7A
  8
0
 10
2920.5407646717771968
 20
675.2826370353679977
 30
0.0
 40
0.0005086172756969
 50
72.5692350857236903
 51
118.9687096035762011
  0
ARC
  5
7E7B
  8
0
 10
2920.5404709759600337
 20
675.2818223420107415
 30
0.0
 40
0.0013743530213158
 50
41.1592175046118385
 51
71.0613580265833491
  0
ARC
  5
7E7C
  8
0
 10
2920.5233610657969621
 20
675.2686920129965529
 30
0.0
 40
0.022939165434971
 50
14.7085038601612901
 51
37.7219260272988777
  0
ARC
  5
7E7D
  8
0
 10
2919.9235616283090167
 20
675.0646070792495266
 30
0.0
 40
0.6564522608948291
 50
8.4675433597425513
 51
18.6485999291232289
  0
ARC
  5
7E7E
  8
0
 10
2920.5826897315969291
 20
676.0840289353736807
 30
0.0
 40
0.0028172941106412
 50
152.8958323041235872
 51
185.7342372778016966
  0
ARC
  5
7E7F
  8
0
 10
2920.5803960308021487
 20
676.0851708649222473
 30
0.0
 40
0.0002568016348427
 50
60.4547342117464481
 51
146.5217916465788051
  0
ARC
  5
7E80
  8
0
 10
2920.5764902387950315
 20
676.0809369580128987
 30
0.0
 40
0.0060106658812737
 50
11.5943361202886202
 51
47.86513172879053
  0
ARC
  5
7E81
  8
0
 10
2920.2019484572738293
 20
675.9551939306888926
 30
0.0
 40
0.4010528694576941
 50
7.9290825881164437
 51
18.4540756628266998
  0
ARC
  5
7E82
  8
0
 10
2920.5847511649840271
 20
676.0083813079070296
 30
0.0
 40
0.0145734246805445
 50
349.5462357760688974
 51
8.431208122134743
  0
ARC
  5
7E83
  8
0
 10
2920.6102846021490222
 20
676.0142065949953576
 30
0.0
 40
0.0145514102578434
 50
196.5486323299633966
 51
215.5488887584893121
  0
ARC
  5
7E84
  8
0
 10
2920.5987659323031949
 20
676.0058738518522432
 30
0.0
 40
0.000345030430932
 50
201.6705374819887027
 51
336.645708681878375
  0
ARC
  5
7E85
  8
0
 10
2920.9453956465640658
 20
676.1520378575446557
 30
0.0
 40
0.3768286688410547
 50
198.9789216222542905
 51
202.1334548364390002
  0
ARC
  5
7E86
  8
0
 10
2920.5284557338791274
 20
676.0846533902408737
 30
0.0
 40
0.0211162769928545
 50
160.0138019138973107
 51
168.4711892541469922
  0
ARC
  5
7E87
  8
0
 10
2920.5088253821750186
 20
676.0917291453399685
 30
0.0
 40
0.0002568016348427
 50
60.4547342117464481
 51
146.5217916465788051
  0
ARC
  5
7E88
  8
0
 10
2920.5049195901688108
 20
676.0874952384305061
 30
0.0
 40
0.0060106658812737
 50
11.5943361202886202
 51
47.86513172879053
  0
ARC
  5
7E89
  8
0
 10
2920.1303778086480634
 20
675.9617522111065
 30
0.0
 40
0.4010528694576941
 50
7.9290825881164437
 51
18.4540756628266998
  0
ARC
  5
7E8A
  8
0
 10
2920.513180516356897
 20
676.014939588324637
 30
0.0
 40
0.0145734246805445
 50
349.5462357760688974
 51
8.431208122134743
  0
ARC
  5
7E8B
  8
0
 10
2920.5387139535228016
 20
676.0207648754128513
 30
0.0
 40
0.0145514102578434
 50
196.5486323299633966
 51
215.5488887584893121
  0
ARC
  5
7E8C
  8
0
 10
2920.5271952836769742
 20
676.0124321322698506
 30
0.0
 40
0.000345030430932
 50
201.6705374819887027
 51
336.645708681878375
  0
ARC
  5
7E8D
  8
0
 10
2920.8738249979392094
 20
676.1585961379622631
 30
0.0
 40
0.3768286688410547
 50
200.0128202134173137
 51
202.1334548364390002
  0
ARC
  5
7E8E
  8
0
 10
2920.4304552514199713
 20
676.3746468402821392
 30
0.0
 40
0.0067907505479206
 50
157.709151351472201
 51
174.2593033015982087
  0
ARC
  5
7E8F
  8
0
 10
2920.4243861686650234
 20
676.3770809720015222
 30
0.0
 40
0.0002568016348427
 50
60.4547342117464481
 51
146.5217916465788051
  0
ARC
  5
7E90
  8
0
 10
2920.4204803766588157
 20
676.3728470650919462
 30
0.0
 40
0.0060106658812737
 50
11.5943361202886202
 51
47.86513172879053
  0
ARC
  5
7E91
  8
0
 10
2920.0459385951371587
 20
676.2471040377681675
 30
0.0
 40
0.4010528694576941
 50
7.9290825881164437
 51
18.4540756628266998
  0
ARC
  5
7E92
  8
0
 10
2920.4287413028469018
 20
676.3002914149863045
 30
0.0
 40
0.0145734246805445
 50
349.5462357760688974
 51
8.431208122134743
  0
ARC
  5
7E93
  8
0
 10
2920.4542747400128064
 20
676.3061167020746325
 30
0.0
 40
0.0145514102578434
 50
196.5486323299633966
 51
215.5488887584893121
  0
ARC
  5
7E94
  8
0
 10
2920.4427560701660695
 20
676.2977839589312907
 30
0.0
 40
0.000345030430932
 50
201.6705374819887027
 51
336.645708681878375
  0
ARC
  5
7E95
  8
0
 10
2920.78938578442785
 20
676.4439479646239306
 30
0.0
 40
0.3768286688410547
 50
200.410265949206007
 51
202.1334548364390002
  0
ARC
  5
7E96
  8
0
 10
2920.4569602100941665
 20
676.4852128392716395
 30
0.0
 40
0.0060106658812737
 50
11.5943361202886202
 51
39.8186476866437786
  0
ARC
  5
7E97
  8
0
 10
2920.0824184285729643
 20
676.3594698119477471
 30
0.0
 40
0.4010528694576941
 50
7.9290825881164437
 51
18.4540756628266998
  0
ARC
  5
7E98
  8
0
 10
2920.4652211362831622
 20
676.4126571891657704
 30
0.0
 40
0.0145734246805445
 50
349.5462357760688974
 51
8.431208122134743
  0
ARC
  5
7E99
  8
0
 10
2920.4907545734481573
 20
676.4184824762542121
 30
0.0
 40
0.0145514102578434
 50
205.2930196647025127
 51
215.5488887584893121
  0
ARC
  5
7E9A
  8
0
 10
2920.4792359036018752
 20
676.4101497331110977
 30
0.0
 40
0.000345030430932
 50
201.6705374819887027
 51
336.645708681878375
  0
LINE
  5
7E9B
  8
0
 10
2920.55446286221013
 20
675.539269908989354
 30
0.0
 11
2920.5858560066540122
 21
675.4340278186842852
 31
0.0
  0
LINE
  5
7E9C
  8
0
 10
2920.5234908476800229
 20
675.5216923893794956
 30
0.0
 11
2920.8753552361990842
 21
674.2937437730970487
 31
0.0
  0
ARC
  5
7E9D
  8
0
 10
2920.8903932263119714
 20
674.0656412295300015
 30
0.0
 40
0.2662811505124607
 50
102.9443181248039991
 51
104.4422919445058966
  0
ARC
  5
7E9E
  8
0
 10
2920.8225546530620704
 20
674.3292504914877554
 30
0.0
 40
0.0059173618316379
 50
202.5240771897952925
 51
283.9525700448048156
  0
ARC
  5
7E9F
  8
0
 10
2925.339177257576921
 20
676.2059370920920855
 30
0.0
 40
4.896912386877057
 50
202.3698091793276888
 51
202.5631608753658099
  0
ARC
  5
7EA0
  8
0
 10
2931.8267532546688017
 20
622.3938278311135264
 30
0.0
 40
53.1053624121522816
 50
101.9769570218821002
 51
102.0113219014227042
  0
ARC
  5
7EA1
  8
0
 10
2920.8075137327891753
 20
674.3374165401974096
 30
0.0
 40
0.0058339832830028
 50
56.0281755416947576
 51
100.8111993901972028
  0
ARC
  5
7EA2
  8
0
 10
2920.7728082832809378
 20
674.3480764082911492
 30
0.0
 40
0.0118066075681553
 50
195.9530333662372072
 51
282.001112790443301
  0
ARC
  5
7EA3
  8
0
 10
2942.2569307392259361
 20
680.7146182051719734
 30
0.0
 40
22.4194023616748517
 50
196.1605542355457032
 51
196.5062172541329915
  0
ARC
  5
7EA4
  8
0
 10
2922.2354173537178212
 20
674.9139161346877245
 30
0.0
 40
1.574519880352411
 50
192.9581534806241905
 51
196.2004281969811075
  0
ARC
  5
7EA5
  8
0
 10
2920.7127442561209136
 20
674.5596501957287501
 30
0.0
 40
0.0118109904243501
 50
109.9961652224462938
 51
174.1851607462176901
  0
ARC
  5
7EA6
  8
0
 10
2920.4210921185372172
 20
675.3794051961451714
 30
0.0
 40
0.8582808253133459
 50
289.5788584338116038
 51
290.6563697309065901
  0
ARC
  5
7EA7
  8
0
 10
2857.024734946524859
 20
656.7772720388240941
 30
0.0
 40
66.1083004155587446
 50
15.9879581370176904
 51
16.0976373010176594
  0
ARC
  5
7EA8
  8
0
 10
2920.5862155832010103
 20
674.990528952184718
 30
0.0
 40
0.0112975699367509
 50
204.5609195053609994
 51
239.102821108507186
  0
ARC
  5
7EA9
  8
0
 10
2920.5665609388820485
 20
675.0717603318396414
 30
0.0
 40
0.0118401827208665
 50
110.0779664541620946
 51
194.8543395810509082
  0
ARC
  5
7EAA
  8
0
 10
2920.3608374866680606
 20
675.6720741638749814
 30
0.0
 40
0.6227483891139747
 50
288.8919072017005192
 51
291.0975669524515865
  0
ARC
  5
7EAB
  8
0
 10
2920.5832301923428531
 20
675.0958421421232742
 30
0.0
 40
0.005090461325569
 50
290.3479169999901046
 51
329.2003131166861749
  0
ARC
  5
7EAC
  8
0
 10
2920.5959088949061879
 20
675.0942552365205529
 30
0.0
 40
0.0083685317150006
 50
156.1111762041134909
 51
186.9981888464641031
  0
ARC
  5
7EAD
  8
0
 10
2920.588955431740942
 20
675.0972375166428492
 30
0.0
 40
0.0008079651543984
 50
73.1624135822062129
 51
149.7798929755506094
  0
ARC
  5
7EAE
  8
0
 10
2920.586012224967817
 20
675.0926836445312347
 30
0.0
 40
0.0062027348921614
 50
23.0600429830545615
 51
59.1873567909365832
  0
ARC
  5
7EAF
  8
0
 10
2920.416702158462158
 20
675.007316097947637
 30
0.0
 40
0.19580435714245
 50
15.7094545274992896
 51
26.6405705719189498
  0
ARC
  5
7EB0
  8
0
 10
2920.0027536538741515
 20
674.8642174747865283
 30
0.0
 40
0.6335563371428689
 50
7.7574812531389163
 51
18.0318385873686005
  0
ARC
  5
7EB1
  8
0
 10
2919.6517270479289436
 20
679.4992995771265214
 30
0.0
 40
4.656146848542666
 50
281.7897051849947161
 51
282.0386650189619786
  0
ARC
  5
7EB2
  8
0
 10
2920.6236343333061996
 20
674.9413004513369287
 30
0.0
 40
0.004323104913529
 50
57.5565125901944725
 51
100.2152518215165031
  0
ARC
  5
7EB3
  8
0
 10
2920.6382435950267791
 20
674.9513214910737133
 30
0.0
 40
0.0138440076889295
 50
207.4077917129945092
 51
223.437935137398199
  0
ARC
  5
7EB4
  8
0
 10
2920.6292301187631892
 20
674.942638944944747
 30
0.0
 40
0.0013336157414174
 50
218.8279914268075004
 51
280.7172138591374164
  0
ARC
  5
7EB5
  8
0
 10
2920.6287327196250772
 20
674.9426470424895115
 30
0.0
 40
0.0015145742919277
 50
299.4821239744500758
 51
352.1796789403305183
  0
ARC
  5
7EB6
  8
0
 10
2920.602598556367866
 20
674.9471490638381965
 30
0.0
 40
0.0280328416887193
 50
350.3313735499859263
 51
5.2930846918535277
  0
ARC
  5
7EB7
  8
0
 10
2920.5996900490899861
 20
674.9519333110814614
 30
0.0
 40
0.0110803743318737
 50
209.1767443044051902
 51
287.5999503821523717
  0
ARC
  5
7EB8
  8
0
 10
2904.2089816454940774
 20
670.3800532978319779
 30
0.0
 40
17.0056165918064188
 50
15.5766722608257098
 51
15.6966888208639492
  0
ARC
  5
7EB9
  8
0
 10
2790.5397367913660673
 20
637.598264014716051
 30
0.0
 40
135.3071852853070993
 50
16.0382649122049585
 51
16.0769930621860091
  0
ARC
  5
7EBA
  8
0
 10
2954.5713800767521207
 20
685.3628989834885488
 30
0.0
 40
35.518618021463972
 50
197.0578993331596109
 51
197.5708035344669895
  0
ARC
  5
7EBB
  8
0
 10
2920.7174869616151227
 20
674.6454818952475989
 30
0.0
 40
0.0091390796738405
 50
213.8451161681041128
 51
245.9032252857203105
  0
ARC
  5
7EBC
  8
0
 10
2921.0155977376839473
 20
674.7132479262993456
 30
0.0
 40
0.311289529051588
 50
194.1519864520633121
 51
200.4940822628014132
  0
ARC
  5
7EBD
  8
0
 10
2881.6197048278181683
 20
663.6649423701054502
 30
0.0
 40
40.6046045999590675
 50
15.67738873247262
 51
16.0972158424961584
  0
ARC
  5
7EBE
  8
0
 10
2922.1621853037131586
 20
675.566120858652198
 30
0.0
 40
1.6594397304448769
 50
201.9586557684195895
 51
202.7911460915655937
  0
ARC
  5
7EBF
  8
0
 10
2921.1297993227881307
 20
675.1249018360485934
 30
0.0
 40
0.5367866598195228
 50
202.0598194268451095
 51
210.9341461731251002
  0
ARC
  5
7EC0
  8
0
 10
2920.6753299786278149
 20
674.8510689743945932
 30
0.0
 40
0.0063242216306927
 50
199.4290238277764047
 51
279.1782798480510905
  0
ARC
  5
7EC1
  8
0
 10
2920.6534296476452255
 20
674.9550627724649985
 30
0.0
 40
0.1125923327811359
 50
281.7399107096601938
 51
284.3549425698099071
  0
LINE
  5
7EC2
  8
0
 10
2920.6551699688648114
 20
675.1948261077512825
 30
0.0
 11
2920.7402560019240809
 21
674.8988758577563658
 31
0.0
  0
ARC
  5
7EC3
  8
0
 10
2920.7466259781640474
 20
674.8844484413044711
 30
0.0
 40
0.0157710920406144
 50
108.5258415788131003
 51
193.2287316575695968
  0
ARC
  5
7EC4
  8
0
 10
2920.3922507325028164
 20
675.9601261979518085
 30
0.0
 40
1.1167768850378961
 50
288.2300216418454966
 51
289.1369006358170282
  0
ARC
  5
7EC5
  8
0
 10
2920.7650452948591919
 20
674.9042534517781178
 30
0.0
 40
0.0067346365777006
 50
119.3169408324773002
 51
173.0817059965789895
  0
ARC
  5
7EC6
  8
0
 10
2920.7630394973339207
 20
674.9065337594879566
 30
0.0
 40
0.003817009010403
 50
74.9517787446811354
 51
109.7806337617781054
  0
ARC
  5
7EC7
  8
0
 10
2920.7553695748888458
 20
674.8906134316412135
 30
0.0
 40
0.0214341893098955
 50
30.3018974704795987
 51
66.1670598442676692
  0
ARC
  5
7EC8
  8
0
 10
2920.4941558936848196
 20
674.7219454413381072
 30
0.0
 40
0.3323508052688161
 50
17.8917911943829111
 51
32.6863649112157333
  0
ARC
  5
7EC9
  8
0
 10
2920.2749731265280388
 20
674.6177171212447092
 30
0.0
 40
0.5738391916079985
 50
6.5221975088462889
 51
21.0735625944898004
  0
ARC
  5
7ECA
  8
0
 10
2920.8070733078197918
 20
674.6753321915251718
 30
0.0
 40
0.0162224316426052
 50
196.6382156599173072
 51
276.0715450851262744
  0
ARC
  5
7ECB
  8
0
 10
2921.0366344060698793
 20
673.7779933592441921
 30
0.0
 40
0.9101867592262383
 50
102.8323182876977029
 51
104.4969234658895942
  0
ARC
  5
7ECC
  8
0
 10
2920.849081507829851
 20
674.6856638306693412
 30
0.0
 40
0.0249360753399174
 50
234.1669264423076982
 51
243.3203585631424062
  0
ARC
  5
7ECD
  8
0
 10
2920.8392576776727765
 20
674.6668472335156821
 30
0.0
 40
0.0037265185306497
 50
248.3887059446128944
 51
294.8418171537438752
  0
ARC
  5
7ECE
  8
0
 10
2920.834293219466872
 20
674.6717478310013121
 30
0.0
 40
0.010546932192062
 50
308.2533260776091879
 51
3.3982122035486149
  0
ARC
  5
7ECF
  8
0
 10
2920.7750035024710087
 20
674.6794753228010677
 30
0.0
 40
0.07017842001352
 50
354.1915074314389926
 51
2.7958492611974748
  0
ARC
  5
7ED0
  8
0
 10
2905.4572792656581441
 20
670.3876287210688361
 30
0.0
 40
15.9211757893125103
 50
15.6057495992331194
 51
16.3925076305938298
  0
ARC
  5
7ED1
  8
0
 10
2902.3511735825859432
 20
669.4962817284101675
 30
0.0
 40
19.1677357582464616
 50
15.6271377408368206
 51
16.3728260320695398
  0
ARC
  5
7ED2
  8
0
 10
2807.1831720864029194
 20
642.2546387519007567
 30
0.0
 40
118.1559837486260989
 50
15.8009684096038292
 51
15.9174669919090395
  0
ARC
  5
7ED3
  8
0
 10
2920.7468258599451474
 20
674.440808796858505
 30
0.0
 40
0.0118206836811357
 50
198.4256847855467925
 51
280.2505464021404009
  0
ARC
  5
7ED4
  8
0
 10
2921.651067331806189
 20
674.7569378520213377
 30
0.0
 40
0.9697287117864634
 50
192.8285893057164913
 51
199.2596875055097883
  0
ARC
  5
7ED5
  8
0
 10
2922.7470553701568861
 20
665.0543218674985155
 30
0.0
 40
9.5854270713493541
 50
101.8584922388281058
 51
102.0318008891573953
  0
ARC
  5
7ED6
  8
0
 10
2920.7780582327891352
 20
674.430542820857454
 30
0.0
 40
0.0046973311902536
 50
42.9539617484809781
 51
99.3435159880629755
  0
ARC
  5
7ED7
  8
0
 10
2920.7920719211260803
 20
674.439987119711418
 30
0.0
 40
0.0122811512209368
 50
210.5559634091690953
 51
222.6768103320011107
  0
ARC
  5
7ED8
  8
0
 10
2920.783398609049982
 20
674.4318683378604646
 30
0.0
 40
0.0004110801243188
 50
210.0975583274851886
 51
317.53292085919702
  0
ARC
  5
7ED9
  8
0
 10
2920.7812190990671297
 20
674.4325160952314491
 30
0.0
 40
0.0026495725191275
 50
339.5598971161103918
 51
5.7080367016078322
  0
ARC
  5
7EDA
  8
0
 10
2920.6433452295018469
 20
674.4082945525225341
 30
0.0
 40
0.1426277119004532
 50
9.8849991378717146
 51
18.4882430367601103
  0
ARC
  5
7EDB
  8
0
 10
2919.5369741524268647
 20
674.0557361371912748
 30
0.0
 40
1.303801552753828
 50
17.7640530352689687
 51
21.1674392575217993
  0
ARC
  5
7EDC
  8
0
 10
2920.7190253293338174
 20
674.5833752772514345
 30
0.0
 40
0.0085694857055436
 50
304.355635060303598
 51
338.8420464806681025
  0
ARC
  5
7EDD
  8
0
 10
2920.7194639530262066
 20
674.5801284674259932
 30
0.0
 40
0.0075547482150736
 50
1.166034932909751
 51
16.3194610207688413
  0
ARC
  5
7EDE
  8
0
 10
2920.7292797636760042
 20
674.5825871756535435
 30
0.0
 40
0.0025873379114246
 50
158.1324301107628969
 51
187.4589883166439108
  0
ARC
  5
7EDF
  8
0
 10
2920.7270903069879751
 20
674.5834076708956673
 30
0.0
 40
0.0002555914816245
 50
91.5402263677753467
 51
145.927960711937601
  0
ARC
  5
7EE0
  8
0
 10
2920.727044125590055
 20
674.5830564176275175
 30
0.0
 40
0.0006080245625931
 50
43.5437771223431085
 51
86.2929940478702378
  0
ARC
  5
7EE1
  8
0
 10
2920.7042899959260467
 20
674.5640767342988511
 30
0.0
 40
0.0302374818559624
 50
21.0227564416876902
 51
39.9067557553212566
  0
ARC
  5
7EE2
  8
0
 10
2920.046178669767869
 20
674.2586717035234187
 30
0.0
 40
0.7556936354228386
 50
20.7601152002007794
 51
24.7394715707777983
  0
ARC
  5
7EE3
  8
0
 10
2919.5684484587668521
 20
673.9193102725935205
 30
0.0
 40
1.3085150753192889
 50
18.8993537937585714
 51
23.1617172994444402
  0
ARC
  5
7EE4
  8
0
 10
2920.8712101985588561
 20
674.6231648125362881
 30
0.0
 40
0.1568349688432944
 50
194.9116134190460912
 51
197.6846958155061884
  0
ARC
  5
7EE5
  8
0
 10
2920.7519260879321337
 20
674.5935760575839595
 30
0.0
 40
0.0340189003780196
 50
172.0114734044026932
 51
198.4556457729079
  0
ARC
  5
7EE6
  8
0
 10
2920.7261752680569771
 20
674.5963675580164818
 30
0.0
 40
0.0081706989446171
 50
111.0988061822061042
 51
166.2917991410654963
  0
ARC
  5
7EE7
  8
0
 10
2920.7247617219209133
 20
674.6008699289114929
 30
0.0
 40
0.0034744647186325
 50
102.4911348436930041
 51
116.0847128035823062
  0
ARC
  5
7EE8
  8
0
 10
2920.7543613984012154
 20
674.5174259440289006
 30
0.0
 40
0.0919876079007196
 50
105.7667147457130028
 51
109.2656432026374063
  0
ARC
  5
7EE9
  8
0
 10
2920.729621356168991
 20
674.6027770588127623
 30
0.0
 40
0.0031857694713344
 50
72.5119733643602302
 51
94.5900194482139938
  0
ARC
  5
7EEA
  8
0
 10
2920.714159289089821
 20
674.5726041230406054
 30
0.0
 40
0.037048590150722
 50
33.8582592514403089
 51
63.6926707574165789
  0
ARC
  5
7EEB
  8
0
 10
2920.4783245294029257
 20
674.3622948042354892
 30
0.0
 40
0.3527237524609781
 50
37.3552151229555918
 51
40.9017072872104492
  0
ARC
  5
7EEC
  8
0
 10
2920.7316290885228227
 20
674.8854438879486679
 30
0.0
 40
0.0780094171189594
 50
186.9278086939908974
 51
201.6496488845070871
  0
ARC
  5
7EED
  8
0
 10
2922.604121748137004
 20
675.5172300703612791
 30
0.0
 40
2.0541102918910128
 50
198.7586630963822074
 51
202.7496498789238046
  0
ARC
  5
7EEE
  8
0
 10
2920.7602659360659345
 20
674.6749245765807927
 30
0.0
 40
0.0467691157159412
 50
198.1457142113169994
 51
208.0639938093219996
  0
ARC
  5
7EEF
  8
0
 10
2920.7193291605281047
 20
674.6530642090117453
 30
0.0
 40
0.0003625378719489
 50
203.1470249300872126
 51
256.3677644731246232
  0
ARC
  5
7EF0
  8
0
 10
2920.7192105030990206
 20
674.6528152462623211
 30
0.0
 40
0.0001085664405772
 50
287.8127594089366994
 51
8.4194939033718637
  0
ARC
  5
7EF1
  8
0
 10
2920.715528613762217
 20
674.6530469616898245
 30
0.0
 40
0.0037954267374322
 50
356.7402344819706173
 51
12.0001212713049306
  0
ARC
  5
7EF2
  8
0
 10
2920.8457559734201823
 20
674.6762420903590964
 30
0.0
 40
0.1284836271478418
 50
175.3898777812588037
 51
190.0430474824208886
  0
ARC
  5
7EF3
  8
0
 10
2920.7284551869579445
 20
674.6868505801096489
 30
0.0
 40
0.0107708389425578
 50
113.5058415833640026
 51
181.4982249499161071
  0
ARC
  5
7EF4
  8
0
 10
2920.7135801020699546
 20
674.7241839535419103
 30
0.0
 40
0.0039803061341678
 50
198.8997463035362898
 51
288.1265379882170805
  0
ARC
  5
7EF5
  8
0
 10
2920.7212647583028229
 20
674.7019253286958929
 30
0.0
 40
0.0195681423599119
 50
102.052025132367703
 51
109.2341315443608067
  0
ARC
  5
7EF6
  8
0
 10
2920.7451530440571332
 20
674.7071176949822302
 30
0.0
 40
0.0387005675673352
 50
155.9415709806771133
 51
189.3341982728381936
  0
ARC
  5
7EF7
  8
0
 10
2920.8262206670970045
 20
674.7057253159847505
 30
0.0
 40
0.1193557509303732
 50
182.3454564935410076
 51
202.3394330691197069
  0
ARC
  5
7EF8
  8
0
 10
2920.6434111859330187
 20
674.792786107568304
 30
0.0
 40
0.0118123398500954
 50
195.9955168195143926
 51
282.000483687771009
  0
ARC
  5
7EF9
  8
0
 10
2920.6310623777421824
 20
674.884784983039367
 30
0.0
 40
0.1046060255276672
 50
278.1363563958572058
 51
288.5040696479248936
  0
ARC
  5
7EFA
  8
0
 10
2920.6093430626219742
 20
674.9116226374414964
 30
0.0
 40
0.0118281165257361
 50
110.0311670497171974
 51
194.4765218469578087
  0
ARC
  5
7EFB
  8
0
 10
2919.2122827642151606
 20
678.7560678452427965
 30
0.0
 40
4.0785924554819371
 50
289.9708236870214932
 51
290.1925553983917894
  0
ARC
  5
7EFC
  8
0
 10
2905.9824974635907893
 20
670.6527680368070605
 30
0.0
 40
15.2224301296076394
 50
15.7686932020653803
 51
16.2351815605913288
  0
LINE
  5
7EFE
  8
0
 10
2919.9321364325228387
 20
657.6413375538911623
 30
0.0
 11
2919.9321364325228387
 21
657.7395679736181364
 31
0.0
  0
LINE
  5
7F01
  8
0
 10
2922.344436165121806
 20
680.5933900581179614
 30
0.0
 11
2922.4984288259238383
 21
680.5933900581179614
 31
0.0
  0
LINE
  5
7F04
  8
0
 10
2923.9044809627730501
 20
677.6681932077181045
 30
0.0
 11
2924.3899364325229726
 21
677.6681932077181045
 31
0.0
  0
LINE
  5
7F05
  8
0
 10
2920.8904439490111145
 20
677.4331561166277424
 30
0.0
 11
2920.9043831418930495
 21
677.4331561166277424
 31
0.0
  0
LINE
  5
7F07
  8
0
 10
2921.4716920052228488
 20
672.4417906142181209
 30
0.0
 11
2921.4951517417230207
 21
672.4417906142181209
 31
0.0
  0
LINE
  5
7F08
  8
0
 10
2923.4812363343380639
 20
668.5268644922912245
 30
0.0
 11
2923.5677634404369201
 21
668.5268644922912245
 31
0.0
  0
LINE
  5
7F0B
  8
0
 10
2923.9044809627730501
 20
656.5500829714180782
 30
0.0
 11
2924.3899364325229726
 21
656.5500829714180782
 31
0.0
  0
LINE
  5
7F0C
  8
0
 10
2922.5021155395238566
 20
653.6248861210181076
 30
0.0
 11
2922.3366117302998646
 21
653.6248861210181076
 31
0.0
  0
ATTDEF
  5
7F12
  8
DEFPOINTS
 10
2924.391083338612134
 20
667.1129194050234901
 30
0.0
 40
0.001
  1
K-28016ME
  3

  2
MODELNUMBER
 70
     0
1001
ACDBATTR
1070
     0
1070
     1
  0
ATTDEF
  5
7F13
  8
DEFPOINTS
 10
2924.391083338612134
 20
667.1112527383568249
 30
0.0
 40
0.001
  1
RAIN DUET
  3

  2
TRADENAME
 70
     0
1001
ACDBATTR
1070
     0
1070
     1
  0
ATTDEF
  5
7F14
  8
DEFPOINTS
 10
2924.391083338612134
 20
667.1095860716900461
 30
0.0
 40
0.001
  1
HANDSHOWER KIT
  3

  2
PRODUCT
 70
     0
1001
ACDBATTR
1070
     0
1070
     1
  0
ENDSEC
  0
EOF
