  0
SECTION
  2
HEADER
  9
$ACADVER
  1
AC1009
  9
$INSBASE
 10
4881.4187286951546412
 20
364.9639132629804976
 30
0.0
  9
$EXTMIN
 10
4853.7252497740610124
 20
364.959842456700926
 30
-0.0000000000112498
  9
$EXTMAX
 10
4881.6574596798873245
 20
392.3484428736097129
 30
0.0000000000002956
  9
$LIMMIN
 10
0.0
 20
0.0
  9
$LIMMAX
 10
11.6929133858000007
 20
8.2677165353999982
  9
$ORTHOMODE
 70
     0
  9
$REGENMODE
 70
     1
  9
$FILLMODE
 70
     1
  9
$QTEXTMODE
 70
     0
  9
$MIRRTEXT
 70
     0
  9
$DRAGMODE
 70
     2
  9
$LTSCALE
 40
0.6431102362
  9
$OSMODE
 70
  4095
  9
$ATTMODE
 70
     1
  9
$TEXTSIZE
 40
0.2
  9
$TRACEWID
 40
0.05
  9
$TEXTSTYLE
  7
STANDARD
  9
$CLAYER
  8
0
  9
$CELTYPE
  6
BYLAYER
  9
$CECOLOR
 62
   256
  9
$DIMSCALE
 40
1.0
  9
$DIMASZ
 40
0.1875
  9
$DIMEXO
 40
0.0625
  9
$DIMDLI
 40
0.4443307087
  9
$DIMRND
 40
0.0
  9
$DIMDLE
 40
0.0
  9
$DIMEXE
 40
0.125
  9
$DIMTP
 40
0.01
  9
$DIMTM
 40
0.01
  9
$DIMTXT
 40
2.0
  9
$DIMCEN
 40
0.1052362205
  9
$DIMTSZ
 40
0.0
  9
$DIMTOL
 70
     1
  9
$DIMLIM
 70
     0
  9
$DIMTIH
 70
     1
  9
$DIMTOH
 70
     1
  9
$DIMSE1
 70
     0
  9
$DIMSE2
 70
     0
  9
$DIMTAD
 70
     0
  9
$DIMZIN
 70
     0
  9
$DIMBLK
  1

  9
$DIMASO
 70
     1
  9
$DIMSHO
 70
     1
  9
$DIMPOST
  1
\X
  9
$DIMAPOST
  1

  9
$DIMALT
 70
     1
  9
$DIMALTD
 70
     2
  9
$DIMALTF
 40
25.3999999999999986
  9
$DIMLFAC
 40
1.0
  9
$DIMTOFL
 70
     0
  9
$DIMTVP
 40
0.0
  9
$DIMTIX
 70
     0
  9
$DIMSOXD
 70
     0
  9
$DIMSAH
 70
     0
  9
$DIMBLK1
  1

  9
$DIMBLK2
  1

  9
$DIMSTYLE
  2
STANDARD
  9
$DIMCLRD
 70
     0
  9
$DIMCLRE
 70
     0
  9
$DIMCLRT
 70
     0
  9
$DIMTFAC
 40
1.0
  9
$DIMGAP
 40
0.09
  9
$LUNITS
 70
     2
  9
$LUPREC
 70
     4
  9
$SKETCHINC
 40
0.1
  9
$FILLETRAD
 40
0.0
  9
$AUNITS
 70
     0
  9
$AUPREC
 70
     0
  9
$MENU
  1
.
  9
$ELEVATION
 40
0.0
  9
$PELEVATION
 40
0.0
  9
$THICKNESS
 40
0.0
  9
$LIMCHECK
 70
     0
  9
$BLIPMODE
 70
     0
  9
$CHAMFERA
 40
0.0
  9
$CHAMFERB
 40
0.0
  9
$SKPOLY
 70
     0
  9
$TDCREATE
 40
2458060.468368056230247
  9
$TDUPDATE
 40
2460202.8441087962128222
  9
$TDINDWG
 40
0.5722177083
  9
$TDUSRTIMER
 40
0.5722177083
  9
$USRTIMER
 70
     1
  9
$ANGBASE
 50
0.0
  9
$ANGDIR
 70
     0
  9
$PDMODE
 70
     0
  9
$PDSIZE
 40
0.3125
  9
$PLINEWID
 40
0.0
  9
$COORDS
 70
     1
  9
$SPLFRAME
 70
     0
  9
$SPLINETYPE
 70
     6
  9
$SPLINESEGS
 70
     8
  9
$ATTDIA
 70
     1
  9
$ATTREQ
 70
     1
  9
$HANDLING
 70
     1
  9
$HANDSEED
  5
15443
  9
$SURFTAB1
 70
     6
  9
$SURFTAB2
 70
     6
  9
$SURFTYPE
 70
     6
  9
$SURFU
 70
     6
  9
$SURFV
 70
     6
  9
$UCSNAME
  2

  9
$UCSORG
 10
0.0
 20
0.0
 30
0.0
  9
$UCSXDIR
 10
1.0
 20
0.0
 30
0.0
  9
$UCSYDIR
 10
0.0
 20
1.0
 30
0.0
  9
$PUCSNAME
  2

  9
$PUCSORG
 10
0.0
 20
0.0
 30
0.0
  9
$PUCSXDIR
 10
1.0
 20
0.0
 30
0.0
  9
$PUCSYDIR
 10
0.0
 20
1.0
 30
0.0
  9
$USERI1
 70
     0
  9
$USERI2
 70
     0
  9
$USERI3
 70
     0
  9
$USERI4
 70
     0
  9
$USERI5
 70
     0
  9
$USERR1
 40
0.0
  9
$USERR2
 40
0.0
  9
$USERR3
 40
0.0
  9
$USERR4
 40
0.0
  9
$USERR5
 40
0.0
  9
$WORLDVIEW
 70
     1
  9
$SHADEDGE
 70
     3
  9
$SHADEDIF
 70
    70
  9
$TILEMODE
 70
     1
  9
$MAXACTVP
 70
    64
  9
$PLIMCHECK
 70
     0
  9
$PEXTMIN
 10
1.0000000000000000E+20
 20
1.0000000000000000E+20
 30
1.0000000000000000E+20
  9
$PEXTMAX
 10
-1.0000000000000000E+20
 20
-1.0000000000000000E+20
 30
-1.0000000000000000E+20
  9
$PLIMMIN
 10
0.0
 20
0.0
  9
$PLIMMAX
 10
12.0
 20
9.0
  9
$UNITMODE
 70
     0
  9
$VISRETAIN
 70
     1
  9
$PLINEGEN
 70
     0
  9
$PSLTSCALE
 70
     1
  0
ENDSEC
  0
SECTION
  2
TABLES
  0
TABLE
  2
VPORT
 70
     1
  0
VPORT
  2
*ACTIVE
 70
     0
 10
0.0
 20
0.0
 11
1.0
 21
1.0
 12
1064.1472873441609863
 22
252.6588804684053002
 13
0.0
 23
0.0
 14
1.0
 24
1.0
 15
0.0
 25
0.0
 16
0.0
 26
0.0
 36
17.1152628219792007
 17
3803.5440673828129547
 27
125.9952621967499056
 37
0.0
 40
27.5990121998811411
 41
1.4089743589743591
 42
50.0
 43
0.0
 44
0.0
 50
0.0
 51
0.0
 71
     0
 72
   100
 73
     1
 74
     1
 75
     0
 76
     0
 77
     0
 78
     0
  0
ENDTAB
  0
TABLE
  2
LTYPE
 70
     2
  0
LTYPE
  2
CONTINUOUS
 70
     0
  3
Solid line
 72
    65
 73
     0
 40
0.0
  0
LTYPE
  2
PHANTOM2
 70
     0
  3
___ _ _ ___ _ _ ___ _ _ ___ _ _
 72
    65
 73
     6
 40
1.25
 49
0.625
 49
-0.125
 49
0.125
 49
-0.125
 49
0.125
 49
-0.125
  0
ENDTAB
  0
TABLE
  2
LAYER
 70
     2
  0
LAYER
  2
0
 70
     0
 62
   255
  6
CONTINUOUS
  0
LAYER
  2
DEFPOINTS
 70
     0
 62
     7
  6
CONTINUOUS
  0
ENDTAB
  0
TABLE
  2
STYLE
 70
     1
  0
STYLE
  2
STANDARD
 70
     0
 40
0.0
 41
0.8
 50
0.0
 71
     0
 42
0.2
  3
txt
  4

  0
ENDTAB
  0
TABLE
  2
VIEW
 70
     0
  0
ENDTAB
  0
TABLE
  2
UCS
 70
     0
  0
ENDTAB
  0
TABLE
  2
APPID
 70
    10
  0
APPID
  2
ACAD
 70
     0
  0
APPID
  2
ACAD_MLEADERVER
 70
     0
  0
APPID
  2
ACAD_EXEMPT_FROM_CAD_STANDARDS
 70
     0
  0
APPID
  2
ACAD_NAV_VCDISPLAY
 70
     0
  0
APPID
  2
ACAECLAYERSTANDARD
 70
     0
  0
APPID
  2
ACCMTRANSPARENCY
 70
     0
  0
APPID
  2
ACAD_DSTYLE_DIMJAG
 70
     0
  0
APPID
  2
ACAD_DSTYLE_DIMTALN
 70
     0
  0
APPID
  2
ACDBATTR
 70
     0
  0
APPID
  2
ACADANNOTATIVE
 70
     0
  0
ENDTAB
  0
TABLE
  2
DIMSTYLE
 70
     1
  0
DIMSTYLE
  2
STANDARD
 70
     0
  3

  4

  5

  6

  7

 40
1.0
 41
0.1875
 42
0.0625
 43
0.38
 44
0.125
 45
0.0
 46
0.0
 47
0.01
 48
0.01
140
0.15625
141
0.09
142
0.0
143
25.3999999999999986
144
1.0
145
0.0
146
1.0
147
0.09
 71
     1
 72
     0
 73
     1
 74
     1
 75
     0
 76
     0
 77
     0
 78
     4
170
     0
171
     2
172
     0
173
     0
174
     0
175
     0
176
     0
177
     0
178
     0
  0
ENDTAB
  0
ENDSEC
  0
SECTION
  2
BLOCKS
  0
BLOCK
  8
0
  2
$MODEL_SPACE
 70
     0
 10
0.0
 20
0.0
 30
0.0
  3
$MODEL_SPACE
  1

  0
ENDBLK
  5
21
  8
0
  0
BLOCK
 67
     1
  8
0
  2
$PAPER_SPACE
 70
     0
 10
0.0
 20
0.0
 30
0.0
  3
$PAPER_SPACE
  1

  0
ENDBLK
  5
1D
 67
     1
  8
0
  0
ENDSEC
  0
SECTION
  2
ENTITIES
  0
ATTDEF
  5
3930
  8
DEFPOINTS
 10
4881.4135972517387927
 20
364.9680285411150749
 30
0.0
 40
0.001
  1
K-28020K-HC
  3

  2
MODELNUMBER
 70
     0
1001
ACDBATTR
1070
     0
1070
     1
  0
ATTDEF
  5
3931
  8
DEFPOINTS
 10
4881.4135972517387927
 20
364.9663618744484097
 30
0.0
 40
0.001
  1
SPACITY
  3

  2
TRADENAME
 70
     0
1001
ACDBATTR
1070
     0
1070
     1
  0
ATTDEF
  5
3932
  8
DEFPOINTS
 10
4881.4135972517387927
 20
364.9646952077818014
 30
0.0
 40
0.001
  1
TOILET
  3

  2
PRODUCT
 70
     0
1001
ACDBATTR
1070
     0
1070
     1
  0
LINE
  5
15209
  8
0
 10
4874.9993591921602274
 20
391.3418654593805854
 30
0.0
 11
4880.5403615949608138
 21
391.3418654593805854
 31
0.0
  0
ARC
  5
1520A
  8
0
 10
4880.5006286951538641
 20
391.2237654593806155
 30
0.0
 40
0.1181
 50
0.0
 51
90.0
  0
ARC
  5
1520B
  8
0
 10
4875.0306010179820078
 20
391.2237654593806155
 30
0.0
 40
0.1181
 50
90.0
 51
178.0585086313317902
  0
LINE
  5
1520C
  8
0
 10
4874.8813325782675747
 20
391.4641282004354821
 30
0.0
 11
4874.898338373523984
 21
391.9462952159170754
 31
0.0
  0
LINE
  5
1520D
  8
0
 10
4880.6584553075463191
 20
391.9324234768026827
 30
0.0
 11
4880.6584615949514045
 21
391.4599670310440729
 31
0.0
  0
ARC
  5
1520E
  8
0
 10
4874.9993591921602274
 20
391.4599654593806122
 30
0.0
 40
0.1181
 50
177.9800431163197061
 51
270.0
  0
ARC
  5
1520F
  8
0
 10
4880.5403615949608138
 20
391.4599654593806122
 30
0.0
 40
0.1181
 50
270.0
 51
0.0007624867788888
  0
LINE
  5
15210
  8
0
 10
4880.6190915160295845
 20
379.1371569956805843
 30
0.0
 11
4880.6187286951553688
 21
379.1371569956805843
 31
0.0
  0
LINE
  5
15211
  8
0
 10
4878.0544930243841009
 20
379.1371569956805843
 30
0.0
 11
4854.0442883665291447
 21
379.1371569956805843
 31
0.0
  0
LINE
  5
15212
  8
0
 10
4880.6190915160295845
 20
380.4166691684806096
 30
0.0
 11
4880.6187286951553688
 21
380.4166691684806096
 31
0.0
  0
LINE
  5
15213
  8
0
 10
4880.6187286951553688
 20
380.4166691684806096
 30
0.0
 11
4854.0442883664291003
 21
380.4166691684806096
 31
0.0
  0
LINE
  5
15214
  8
0
 10
4858.3233844418291483
 20
364.9639132629823735
 30
0.0
 11
4880.6187286951553688
 21
364.9639132629836809
 31
0.0
  0
LINE
  5
15215
  8
0
 10
4880.6187286951553688
 20
391.2237654593806155
 30
0.0
 11
4880.6187286951553688
 21
364.9639132629804976
 31
0.0
  0
LINE
  5
15216
  8
0
 10
4874.9125688139738486
 20
391.2277665613082149
 30
0.0
 11
4874.5664155981348813
 21
381.0162728952449243
 31
0.0
  0
LINE
  5
15217
  8
0
 10
4854.2803883857313849
 20
380.7119447589806214
 30
0.0
 11
4875.7622074638029517
 21
380.7119447589806214
 31
0.0
  0
ARC
  5
15218
  8
0
 10
4854.2803883857313849
 20
380.4758447589804859
 30
0.0
 40
0.2361
 50
90.0
 51
179.9999991781567985
  0
ARC
  5
15219
  8
0
 10
4874.2515964257127052
 20
381.0269447589806191
 30
0.0
 40
0.315
 50
270.0
 51
358.0585086313317902
  0
LINE
  5
1521A
  8
0
 10
4854.0442883857322158
 20
380.4758447623671032
 30
0.0
 11
4854.0442883665291447
 21
379.1371569956805843
 31
0.0
  0
ARC
  5
1521B
  8
0
 10
4856.0118311471296693
 20
379.5963253642187283
 30
0.0
 40
2.0204108948818038
 50
193.136095021027586
 51
220.6228733932933039
  0
ARC
  5
1521C
  8
0
 10
4832.0404277657180501
 20
359.029574995499388
 30
0.0
 40
29.5647027108542098
 50
33.3735967147297217
 51
40.6290029986136503
  0
ARC
  5
1521D
  8
0
 10
4850.8550624246572625
 20
370.6775311999106179
 30
0.0
 40
7.4710701237059078
 50
358.4521158623114729
 51
38.1540986536784885
  0
LINE
  5
1521E
  8
0
 10
4858.3234063463287384
 20
370.4757197508806144
 30
0.0
 11
4858.3233844418291483
 21
364.9639132629823735
 31
0.0
  0
ARC
  5
1521F
  8
0
 10
4876.4752775487377221
 20
375.8205170714567771
 30
0.0
 40
3.6734210084708119
 50
14.3068541750708995
 51
64.5385823671467307
  0
ARC
  5
15220
  8
0
 10
4852.0506664963422736
 20
370.9602508307979747
 30
0.0
 40
28.5723684659057398
 50
0.9519353737279169
 51
11.6465773537220603
  0
CIRCLE
  5
15221
  8
0
 10
4875.8946820672290414
 20
366.3418660188805802
 30
0.0
 40
0.5437419538999997
  0
LINE
  5
15222
  8
0
 10
4872.7061368023541945
 20
385.8218128054837734
 30
0.0
 11
4874.0234083137893322
 21
385.8218128054837734
 31
0.0
  0
LINE
  5
15223
  8
0
 10
4854.4959460910549751
 20
382.3950292978377092
 30
0.0
 11
4856.0610664352407184
 21
382.3950292978377092
 31
0.0
  0
LINE
  5
15224
  8
0
 10
4853.924775871669226
 20
381.8816444974557953
 30
0.0
 11
4857.0716339377368058
 21
381.8816444974557953
 31
0.0
  0
LINE
  5
15225
  8
0
 10
4853.939830346229428
 20
381.2014112957838279
 30
0.0
 11
4855.5913495746635817
 21
381.2014112957838279
 31
0.0
  0
LINE
  5
15226
  8
0
 10
4854.3176956201759822
 20
380.9678547175836911
 30
0.0
 11
4859.0995505937626149
 21
380.9678547175836911
 31
0.0
  0
LINE
  5
15227
  8
0
 10
4853.9936032889208946
 20
382.021725736706685
 30
0.0
 11
4854.4071971025332459
 21
382.3600692220996962
 31
0.0
  0
ARC
  5
15228
  8
0
 10
4854.1125015526367861
 20
381.8763570919264225
 30
0.0
 40
0.1878
 50
129.2800283159506023
 51
178.4561722770368988
  0
ARC
  5
15229
  8
0
 10
4854.5002010043217524
 20
382.2540995637262995
 30
0.0
 40
0.1409939510887413
 50
91.7293336994124644
 51
131.2716940232506886
  0
LINE
  5
1522A
  8
0
 10
4853.9073421434441116
 20
381.2347868983205785
 30
0.0
 11
4853.9247697223891009
 21
381.8814167275086788
 31
0.0
  0
ARC
  5
1522B
  8
0
 10
4853.939830346229428
 20
381.2339112957836846
 30
0.0
 40
0.0325
 50
178.4561722770368988
 51
270.0
  0
ARC
  5
1522C
  8
0
 10
4857.8710371462620969
 20
359.0701852947519797
 30
0.0
 40
23.3949640252563107
 50
91.9037371174596842
 51
94.4371692505472851
  0
ARC
  5
1522D
  8
0
 10
4856.0473476495117211
 20
399.649498418606413
 30
0.0
 40
17.2290736889503009
 50
273.4823099729135834
 51
286.1882621317752751
  0
ARC
  5
1522E
  8
0
 10
4851.7157005526823923
 20
419.4950134762752896
 30
0.0
 40
37.520495889815848
 50
284.0912771761052227
 51
289.4285964631143884
  0
ARC
  5
1522F
  8
0
 10
4877.2161501206392131
 20
346.155495061457998
 30
0.0
 40
40.1265921336443867
 50
103.0662783572466026
 51
108.933561884370107
  0
ARC
  5
15230
  8
0
 10
4874.2568819451180389
 20
355.095942208610893
 30
0.0
 40
30.7606585511859087
 50
93.9217610280449264
 51
101.461575873677603
  0
ARC
  5
15231
  8
0
 10
4870.573318734039276
 20
413.3718321188164282
 30
0.0
 40
27.6324533307764
 50
273.2773139454862985
 51
274.4267925094703742
  0
LINE
  5
15232
  8
0
 10
4873.0916311142600534
 20
385.8010996978429716
 30
0.0
 11
4873.3588913190906169
 21
385.2232788961471215
 31
0.0
  0
ARC
  5
15233
  8
0
 10
4873.059229215281448
 20
385.7861128054836968
 30
0.0
 40
0.0357
 50
24.8220185200390517
 51
90.0
  0
ARC
  5
15234
  8
0
 10
4873.0920182626168753
 20
385.3044571273413226
 30
0.0
 40
0.4777883843136124
 50
88.0825414601363406
 51
88.9965413574736459
  0
ARC
  5
15235
  8
0
 10
4873.1074542270562233
 20
385.7655285918900177
 30
0.0
 40
0.0164586059345094
 50
34.1266803892070598
 51
88.0825414601363406
  0
ARC
  5
15236
  8
0
 10
5045.0970290186833154
 20
478.1271192834544195
 30
0.0
 40
195.2042139839668948
 50
208.2361287262812084
 51
208.4197621676676135
  0
ARC
  5
15237
  8
0
 10
4873.0819395748121678
 20
385.0846717947882212
 30
0.0
 40
0.3637735394220661
 50
353.7123364959335277
 51
22.5292105047720703
  0
ARC
  5
15238
  8
0
 10
4873.1490160885296063
 20
385.7841785859517927
 30
0.0
 40
0.0433768432978882
 50
119.8178202113342934
 51
182.8129796308396919
  0
LINE
  5
15239
  8
0
 10
4874.0456577395707427
 20
385.8090743158264218
 30
0.0
 11
4874.3095271852416772
 21
385.3595900300708763
 31
0.0
  0
ARC
  5
1523A
  8
0
 10
4874.0234083137893322
 20
385.7960128054838265
 30
0.0
 40
0.0258
 50
30.4150357755869507
 51
90.0
  0
LINE
  5
1523B
  8
0
 10
4854.2427574096864191
 20
381.2014112957838279
 30
0.0
 11
4854.2380749026297053
 21
381.0669802989575032
 31
0.0
  0
LINE
  5
1523C
  8
0
 10
4854.2964428294653771
 20
381.0465945234838046
 30
0.0
 11
4854.2980023710979367
 21
380.9870390231196211
 31
0.0
  0
ARC
  5
1523D
  8
0
 10
4854.3176956201759822
 20
380.9875547175836914
 30
0.0
 40
0.0197
 50
181.5000249701236044
 51
270.0
  0
LINE
  5
1523E
  8
0
 10
4854.2577629627676288
 20
381.0465945234838046
 30
0.0
 11
4859.2870884353405927
 21
381.0465945234838046
 31
0.0
  0
ARC
  5
1523F
  8
0
 10
4854.2577629627676288
 20
381.0662945234838048
 30
0.0
 40
0.0197
 50
178.0050771392598961
 51
270.0
  0
LINE
  5
15240
  8
0
 10
4855.9969308655536224
 20
380.9678551178836869
 30
0.0
 11
4856.2408484250117908
 21
380.7119487786837908
 31
0.0
  0
LINE
  5
15241
  8
0
 10
4857.8242653312536277
 20
380.9678559078836884
 30
0.0
 11
4857.6018519856415878
 21
380.7119487786837908
 31
0.0
  0
ARC
  5
15242
  8
0
 10
4851.7313685644794532
 20
452.9175557496366764
 30
0.0
 40
71.2363609520064784
 50
274.2992367582760949
 51
275.6989719649967014
  0
ARC
  5
15243
  8
0
 10
4854.2177968316191254
 20
419.1917341377936737
 30
0.0
 40
37.4405507539315181
 50
277.037964032327011
 51
282.6845513318457961
  0
ARC
  5
15244
  8
0
 10
4842.2210216141565979
 20
475.6531540769969979
 30
0.0
 40
95.1607816827662134
 50
282.2666953846327829
 51
284.0839575289027152
  0
ARC
  5
15245
  8
0
 10
4958.2775459680287895
 20
0.7136090526947215
 30
0.0
 40
393.7552350486599835
 50
103.0624177049270003
 51
103.6466140445237016
  0
ARC
  5
15246
  8
0
 10
4787.3720014800055651
 20
765.8657822748334638
 30
0.0
 40
390.2782701353851849
 50
282.1153767647588211
 51
282.5854058548226249
  0
ARC
  5
15247
  8
0
 10
4869.5131854720157207
 20
402.757513589831774
 30
0.0
 40
18.0270334663406899
 50
279.2521014218218056
 51
282.3523305411815159
  0
ARC
  5
15248
  8
0
 10
4873.2865307810297963
 20
385.1745375233516029
 30
0.0
 40
0.0872454519758024
 50
342.1504526343865109
 51
33.9638344678955377
  0
ARC
  5
15249
  8
0
 10
4837.3229748899511833
 20
812.0817236621375059
 30
0.0
 40
431.2674078788560905
 50
272.4277606562400251
 51
272.6600761255941165
  0
ARC
  5
1524A
  8
0
 10
4856.1430736925158271
 20
401.656294258996013
 30
0.0
 40
20.4122902258518018
 50
273.3567527120217733
 51
276.3097565459348743
  0
ARC
  5
1524B
  8
0
 10
4852.3459893032695618
 20
430.5176962043394155
 30
0.0
 40
49.5198309439847222
 50
277.0064331323808915
 51
281.7943318752996902
  0
ARC
  5
1524C
  8
0
 10
4840.8886999908590951
 20
485.3877633700506067
 30
0.0
 40
105.5733210151475987
 50
281.7943318752996902
 51
283.6043556382035149
  0
ARC
  5
1524D
  8
0
 10
4988.8097533118589126
 20
-125.8412759876017049
 30
0.0
 40
523.2999385289937209
 50
103.290960378210201
 51
103.6043556382034012
  0
ARC
  5
1524E
  8
0
 10
4860.1452094656360714
 20
423.2498333975141804
 30
0.0
 40
40.6760226663136919
 50
281.8601469791183831
 51
285.9288833418430045
  0
ARC
  5
1524F
  8
0
 10
4825.8349045648556057
 20
563.8089719371770343
 30
0.0
 40
185.3384807127685008
 50
284.2027734632110878
 51
284.6479910129439759
  0
ARC
  5
15250
  8
0
 10
4872.4158156374924147
 20
385.6181980524747814
 30
0.0
 40
1.159960570720183
 50
284.3480332712637733
 51
310.1156965578780955
  0
ARC
  5
15251
  8
0
 10
4872.5739907984598176
 20
385.2823796374552785
 30
0.0
 40
0.8068889749910026
 50
316.9068603393783974
 51
350.3985163666498011
  0
ARC
  5
15252
  8
0
 10
4860.5844986947313373
 20
351.6635626442815123
 30
0.0
 40
29.4116615612818784
 50
90.8824830434076603
 51
92.528257756174014
  0
ARC
  5
15253
  8
0
 10
4859.6867901072846507
 20
409.9432614230981926
 30
0.0
 40
28.8749507133871504
 50
270.8824830434076034
 51
275.5241750511527812
  0
ARC
  5
15254
  8
0
 10
4860.4711788450949825
 20
401.8329429259047174
 30
0.0
 40
20.7267894595873692
 50
275.5241750511527812
 51
284.6237624919697282
  0
ARC
  5
15255
  8
0
 10
4860.3944016471386931
 20
402.1271947823025812
 30
0.0
 40
21.0308928846249685
 50
284.6237624919697282
 51
289.9601871297352886
  0
ARC
  5
15256
  8
0
 10
5138.2129223033698509
 20
-362.8263582928314008
 30
0.0
 40
792.810042914188557
 50
109.8220947982321007
 51
109.9601871297354023
  0
ARC
  5
15257
  8
0
 10
5108.8118826215750232
 20
-248.8290488394455053
 30
0.0
 40
675.686656363514544
 50
110.6600846292136993
 51
110.7546875066385041
  0
ARC
  5
15258
  8
0
 10
4870.0814226766997308
 20
384.2446383457905199
 30
0.0
 40
0.9038310848175676
 50
291.5926773375866787
 51
328.3546504964505743
  0
ARC
  5
15259
  8
0
 10
4869.8605310587190615
 20
384.3807728996181936
 30
0.0
 40
1.1633030941742699
 50
328.3546504964505743
 51
343.0443879466811268
  0
ARC
  5
1525A
  8
0
 10
4858.2503780813904086
 20
435.7239870443115137
 30
0.0
 40
54.7627165262817712
 50
270.8884868051077888
 51
272.7063776289421071
  0
ARC
  5
1525B
  8
0
 10
4858.9382668829712202
 20
421.1717649381473052
 30
0.0
 40
40.1942451160591077
 50
272.7063776289421071
 51
275.0572768859084931
  0
ARC
  5
1525C
  8
0
 10
4859.6980003232147283
 20
412.586825445540228
 30
0.0
 40
31.5757544714072793
 50
275.0572768859084931
 51
277.7749843992036176
  0
ARC
  5
1525D
  8
0
 10
4862.3909143718237829
 20
392.8640354464840811
 30
0.0
 40
11.6699706028914605
 50
277.7749843992036176
 51
286.3801233424151178
  0
ARC
  5
1525E
  8
0
 10
4857.6158870568988277
 20
410.5058711978235806
 30
0.0
 40
29.944947348331219
 50
285.6263632096236051
 51
289.5463373905271851
  0
ARC
  5
1525F
  8
0
 10
4640.9982725806521557
 20
1000.4970732187780413
 30
0.0
 40
658.4437480558002562
 50
290.1329620114000249
 51
290.2960921585336109
  0
ARC
  5
15260
  8
0
 10
5206.4947129063466491
 20
-507.1256586054278159
 30
0.0
 40
951.7583402494138909
 50
110.6773682982085063
 51
110.743659095843995
  0
ARC
  5
15261
  8
0
 10
4870.2389646943693151
 20
383.942512463238927
 30
0.0
 40
0.64571064099116
 50
286.6319316769597094
 51
308.1520491436646125
  0
ARC
  5
15262
  8
0
 10
4869.895417849002115
 20
384.3798352424959717
 30
0.0
 40
1.2018362097421891
 50
308.1520491436646125
 51
344.7739890291738902
  0
LINE
  5
15263
  8
0
 10
4861.3975905384859288
 20
381.052828416758075
 30
0.0
 11
4861.7043001063548218
 21
380.8082868140837718
 31
0.0
  0
ARC
  5
15264
  8
0
 10
4861.8134385829089297
 20
380.9451707414630732
 30
0.0
 40
0.1750668918994402
 50
231.4344087310826126
 51
262.4269731344252818
  0
LINE
  5
15265
  8
0
 10
4861.7903665625553913
 20
380.7716308367837996
 30
0.0
 11
4864.053574673204821
 21
380.7709989710107266
 31
0.0
  0
LINE
  5
15266
  8
0
 10
4864.1467750941628765
 20
381.3269141852641155
 30
0.0
 11
4864.0927753992264115
 21
380.806333827155413
 31
0.0
  0
ARC
  5
15267
  8
0
 10
4864.0535856733031324
 20
380.8103989694751021
 30
0.0
 40
0.0394
 50
269.9840035739842961
 51
354.0779001538381863
  0
ARC
  5
15268
  8
0
 10
4864.9158491707030407
 20
380.8470507456615906
 30
0.0
 40
0.4185599309820695
 50
175.7651067553400992
 51
198.8310143060272992
  0
ARC
  5
15269
  8
0
 10
4868.8602670798727559
 20
380.5549755799025888
 30
0.0
 40
4.3737768080491302
 50
172.7646311475463108
 51
175.7651067553400992
  0
ARC
  5
1526A
  8
0
 10
4864.5710407110518645
 20
381.1082070728760982
 30
0.0
 40
0.0497792930258679
 50
99.4727949762309862
 51
182.7327552306396115
  0
ARC
  5
1526B
  8
0
 10
4847.2099173384531241
 20
440.589024472706285
 30
0.0
 40
61.913271430248372
 50
286.2768000523208229
 51
292.2373804050885155
  0
ARC
  5
1526C
  8
0
 10
4870.2200187327716776
 20
384.1801333595469146
 30
0.0
 40
0.9930097810924893
 50
295.0628749414951244
 51
355.8213646150302907
  0
LINE
  5
1526D
  8
0
 10
4874.3272077414649175
 20
385.29778022356669
 30
0.0
 11
4874.4400863141836453
 21
381.018747880254125
 31
0.0
  0
ARC
  5
1526E
  8
0
 10
4874.1984525325069626
 20
385.2943837303758983
 30
0.0
 40
0.1288
 50
1.5110814166873161
 51
30.4150357755869507
  0
ARC
  5
1526F
  8
0
 10
4872.5182373258558073
 20
385.6467468788458746
 30
0.0
 40
1.3156894785185711
 50
256.4179964202078281
 51
271.8868340049813241
  0
ARC
  5
15270
  8
0
 10
4872.527726841997719
 20
385.3586915112575753
 30
0.0
 40
1.0274778449694559
 50
271.8868340049813241
 51
306.6120583224001166
  0
ARC
  5
15271
  8
0
 10
4872.5661511871676339
 20
385.2199107229246238
 30
0.0
 40
0.8946716667554913
 50
309.9392692308633173
 51
348.7148863391661848
  0
LINE
  5
15272
  8
0
 10
4873.4838017668052998
 20
385.1668862572838066
 30
0.0
 11
4874.3272077414649175
 21
385.29778022356669
 31
0.0
  0
ARC
  5
15273
  8
0
 10
4873.9091843031046665
 20
384.9510086596127962
 30
0.0
 40
0.4770256170962071
 50
153.0926391317389914
 51
166.7199208915986901
  0
ARC
  5
15274
  8
0
 10
4865.0568322625376823
 20
380.8672473089329173
 30
0.0
 40
0.438957002681843
 50
175.9329146371580066
 51
200.7192950534686133
  0
ARC
  5
15275
  8
0
 10
4624.0696603912929277
 20
501.7636197522786006
 30
0.0
 40
269.2069494930066185
 50
333.3225245678954138
 51
333.3441873561006901
  0
ARC
  5
15276
  8
0
 10
4864.7115758752206602
 20
380.9670656020376782
 30
0.0
 40
0.0519329100100902
 50
92.0558393955309242
 51
154.6050846661318019
  0
LINE
  5
15277
  8
0
 10
4864.7097128616569535
 20
381.0189650849114855
 30
0.0
 11
4869.6647404737541365
 21
381.0190353928837794
 31
0.0
  0
ARC
  5
15278
  8
0
 10
4864.5136781575038185
 20
380.8810242037749845
 30
0.0
 40
0.0153595461399676
 50
99.2249621535868584
 51
162.8595284523877922
  0
ARC
  5
15279
  8
0
 10
4864.5915176787420933
 20
379.6001990220522089
 30
0.0
 40
1.298471521222625
 50
88.7880889986194433
 51
93.5456255162148835
  0
LINE
  5
1527A
  8
0
 10
4870.2841364774540125
 20
381.0190353928837794
 30
0.0
 11
4874.5661363794097269
 21
381.0187391599886837
 31
0.0
  0
LINE
  5
1527B
  8
0
 10
4874.0492965573639594
 20
381.0187761115960825
 30
0.0
 11
4874.0492965573639594
 21
380.7119447590806089
 31
0.0
  0
LINE
  5
1527C
  8
0
 10
4874.0492965573639594
 20
380.8893773634259787
 30
0.0
 11
4874.1154754521139694
 21
380.8562879160804187
 31
0.0
  0
ARC
  5
1527D
  8
0
 10
4874.1066729072699673
 20
380.8386828263767256
 30
0.0
 40
0.0196830886603013
 50
0.9867140556526725
 51
63.4349488432419832
  0
LINE
  5
1527E
  8
0
 10
4874.1263530772257582
 20
380.8390217801429003
 30
0.0
 11
4874.1285417389599388
 21
380.7119447590806089
 31
0.0
  0
LINE
  5
1527F
  8
0
 10
4874.434065267695587
 20
381.2469953858509939
 30
0.0
 11
4874.4931982946827702
 21
381.2469953858509939
 31
0.0
  0
LINE
  5
15280
  8
0
 10
4874.4277257890544206
 20
381.4895078337837049
 30
0.0
 11
4874.486895953844396
 21
381.4895078337837049
 31
0.0
  0
LINE
  5
15281
  8
0
 10
4869.6689865682546952
 20
380.775776802083783
 30
0.0
 11
4870.2798990961537129
 21
380.7762759814838205
 31
0.0
  0
LINE
  5
15282
  8
0
 10
4870.2798990961537129
 20
380.7762759814838205
 30
0.0
 11
4870.2903634911535846
 21
381.3757807736838004
 31
0.0
  0
LINE
  5
15283
  8
0
 10
4869.6689865682546952
 20
380.775776802083783
 30
0.0
 11
4869.6585133829548795
 21
381.3757851819838152
 31
0.0
  0
LINE
  5
15284
  8
0
 10
4869.6334705002100236
 20
381.0190349491871871
 30
0.0
 11
4869.6391170799906831
 21
381.3425277486325058
 31
0.0
  0
ARC
  5
15285
  8
0
 10
4869.678511079197051
 20
381.3418401247973861
 30
0.0
 40
0.0394
 50
90.0191024864218861
 51
179.000001423129703
  0
LINE
  5
15286
  8
0
 10
4870.3154064896134514
 20
381.0190332295940721
 30
0.0
 11
4870.309756427427601
 21
381.3427250736215228
 31
0.0
  0
ARC
  5
15287
  8
0
 10
4870.270362428239423
 20
381.3420374488042057
 30
0.0
 40
0.0394
 50
1.000000005411992
 51
90.0191024864218861
  0
LINE
  5
15288
  8
0
 10
4869.6784979431868123
 20
381.3812401226076076
 30
0.0
 11
4870.2703492922282749
 21
381.3814374466144272
 31
0.0
  0
LINE
  5
15289
  8
0
 10
4869.6992097506736172
 20
380.8694290936837774
 30
0.0
 11
4870.2496672005354412
 21
380.8694290936837774
 31
0.0
  0
ARC
  5
1528A
  8
0
 10
4870.2496672005354412
 20
380.8891290936837777
 30
0.0
 40
0.0197
 50
270.0
 51
0.9999999989071593
  0
ARC
  5
1528B
  8
0
 10
4869.6992097506736172
 20
380.8891290936837777
 30
0.0
 40
0.0197
 50
178.9999999987896047
 51
270.0
  0
LINE
  5
1528C
  8
0
 10
4870.2616336405080801
 20
381.3323563706902064
 30
0.0
 11
4870.2693642001304397
 21
380.8894729060901909
 31
0.0
  0
ARC
  5
1528D
  8
0
 10
4870.2419366409139911
 20
381.3320125582836795
 30
0.0
 40
0.0197
 50
0.9999999989071593
 51
90.0000000106825979
  0
LINE
  5
1528E
  8
0
 10
4869.6872433107173492
 20
381.3323563705910146
 30
0.0
 11
4869.6795127510786187
 21
380.8894729060909867
 31
0.0
  0
ARC
  5
1528F
  8
0
 10
4869.7069403103123477
 20
381.3320125581836919
 30
0.0
 40
0.0197
 50
90.0000000106825979
 51
178.9999999987896047
  0
LINE
  5
15290
  8
0
 10
4869.7069403103078002
 20
381.3517125581836922
 30
0.0
 11
4870.2419366409103532
 21
381.3517125582836798
 31
0.0
  0
LINE
  5
15291
  8
0
 10
4869.6608233922015643
 20
381.2434448416836972
 30
0.0
 11
4869.6856913542051188
 21
381.2434448416836972
 31
0.0
  0
LINE
  5
15292
  8
0
 10
4869.6632286177018614
 20
381.1056495660836845
 30
0.0
 11
4869.6832861287193737
 21
381.1056495660836845
 31
0.0
  0
LINE
  5
15293
  8
0
 10
4870.2844113603550795
 20
381.0347834243838179
 30
0.0
 11
4870.2668277956017846
 21
381.0347834243838179
 31
0.0
  0
LINE
  5
15294
  8
0
 10
4870.2837205549831197
 20
380.9952072125838072
 30
0.0
 11
4870.2675235688702742
 21
380.9949226004447951
 31
0.0
  0
ARC
  5
15295
  8
0
 10
4869.844459905041731
 20
381.3369885317998182
 30
0.0
 40
0.0470385977122375
 50
109.6413898728152958
 51
161.7586698866655865
  0
ARC
  5
15296
  8
0
 10
4870.0801205961170126
 20
381.3506097263680203
 30
0.0
 40
0.0326900107545947
 50
1.9333000845605559
 51
70.2548022222948134
  0
LINE
  5
15297
  8
0
 10
4873.2957460044553955
 20
381.0190340381836904
 30
0.0
 11
4873.2992394574548598
 21
381.2469928498837817
 31
0.0
  0
ARC
  5
15298
  8
0
 10
4873.6603304263408063
 20
381.2414591557961216
 30
0.0
 40
0.3611333681357874
 50
150.1224405061136906
 51
179.1220148758106063
  0
ARC
  5
15299
  8
0
 10
4873.4665976940195833
 20
381.3527594737950039
 30
0.0
 40
0.1377052312346765
 50
83.2416455450687067
 51
150.1224405061136906
  0
LINE
  5
1529A
  8
0
 10
4873.3353017769550206
 20
381.0190353380838246
 30
0.0
 11
4873.3388248346545879
 21
381.2469942573837898
 31
0.0
  0
ARC
  5
1529B
  8
0
 10
4873.7214800722904329
 20
381.2410804002486771
 30
0.0
 40
0.3827009336228181
 50
160.8322382510280022
 51
179.1145761308879969
  0
ARC
  5
1529C
  8
0
 10
4873.5794959107533941
 20
381.290434956688614
 30
0.0
 40
0.2323833552475921
 50
130.7271212037030068
 51
160.8322382510280022
  0
ARC
  5
1529D
  8
0
 10
4873.4906066765215655
 20
381.3936793313387739
 30
0.0
 40
0.096145706783608
 50
94.6554505288436161
 51
130.7271212037009036
  0
ARC
  5
1529E
  8
0
 10
4873.4906183356979454
 20
381.3935361549097252
 30
0.0
 40
0.0962893571446325
 50
54.1618984265981069
 51
94.6554505288436161
  0
ARC
  5
1529F
  8
0
 10
4873.4397521345326822
 20
381.3231071920434943
 30
0.0
 40
0.183166334712331
 50
23.9746814024853911
 51
54.1618984265981069
  0
ARC
  5
152A0
  8
0
 10
4873.2036534145117912
 20
381.2181142563447906
 30
0.0
 40
0.4415577473842161
 50
11.8721611989506197
 51
23.9746814024853911
  0
LINE
  5
152A1
  8
0
 10
4873.6357658265378632
 20
381.3089553684473003
 30
0.0
 11
4873.653857956354841
 21
381.019035388383827
 31
0.0
  0
LINE
  5
152A2
  8
0
 10
4873.3724626659786736
 20
381.0188217394908179
 30
0.0
 11
4873.378504093761876
 21
381.2795566731223857
 31
0.0
  0
ARC
  5
152A3
  8
0
 10
4873.6221928998365911
 20
381.2509499987328923
 30
0.0
 40
0.2453621324198729
 50
149.772300378134986
 51
173.3046804012500957
  0
ARC
  5
152A4
  8
0
 10
4873.5161428209357837
 20
381.3147292249881275
 30
0.0
 40
0.1216347820494756
 50
115.5295527825495014
 51
150.581422998102795
  0
ARC
  5
152A5
  8
0
 10
4873.492725640806384
 20
381.3552371310985905
 30
0.0
 40
0.075079575763388
 50
48.0612594636248787
 51
112.7255641767203969
  0
ARC
  5
152A6
  8
0
 10
4873.4183684953322881
 20
381.2749196369529727
 30
0.0
 40
0.18452728436864
 50
14.7808575637365607
 51
47.5544397250475868
  0
ARC
  5
152A7
  8
0
 10
4873.2866043095045825
 20
381.2295198221319765
 30
0.0
 40
0.3236770773400865
 50
2.547172420482732
 51
16.6011347854551801
  0
ARC
  5
152A8
  8
0
 10
14079.1679340398295608
 20
821.9045656626991558
 30
0.0
 40
9216.0989253807929344
 50
182.7405984374663035
 51
182.7419994706646094
  0
ARC
  5
152A9
  8
0
 10
4873.5152583354092712
 20
381.334573275741775
 30
0.0
 40
0.0564750040848741
 50
47.1705282410922706
 51
127.7571927360453969
  0
ARC
  5
152AA
  8
0
 10
4873.3850051884755885
 20
381.2333470815119085
 30
0.0
 40
0.2208816637165646
 50
320.3614824642679082
 51
40.2251634254239292
  0
ARC
  5
152AB
  8
0
 10
4873.513882550119888
 20
381.1360020094397214
 30
0.0
 40
0.0599748051076128
 50
209.1132955582220063
 51
313.4161176485877149
  0
ARC
  5
152AC
  8
0
 10
4873.6494997151758071
 20
381.2304516125033729
 30
0.0
 40
0.2250195962344046
 50
138.6124259539909076
 51
213.3270383930804996
  0
ARC
  5
152AD
  8
0
 10
4873.4539845986901128
 20
381.3264863401747107
 30
0.0
 40
0.0649664159894338
 50
99.4016112600105117
 51
132.3824519431771023
  0
ARC
  5
152AE
  8
0
 10
4873.4918794802060802
 20
379.2313715992128209
 30
0.0
 40
2.1597532991060779
 50
89.4290882695525653
 51
91.2869535742868692
  0
ARC
  5
152AF
  8
0
 10
4873.4926705541511183
 20
381.1853391483036262
 30
0.0
 40
0.1236047251909474
 50
198.4438617577106925
 51
233.6245585844118864
  0
ARC
  5
152B0
  8
0
 10
4873.4489576982286962
 20
381.1259952351229003
 30
0.0
 40
0.0498991364985446
 50
233.6245585844100106
 51
271.846417316512202
  0
ARC
  5
152B1
  8
0
 10
4873.4807928161098971
 20
380.1384685210472867
 30
0.0
 40
0.9381405822088366
 50
88.218306284138265
 51
91.8464173165121736
  0
LINE
  5
152B2
  8
0
 10
4873.5708560772400233
 20
381.1139814394201721
 30
0.0
 11
4873.5708560772400233
 21
381.0188080144426976
 31
0.0
  0
LINE
  5
152B3
  8
0
 10
4871.2574256696907469
 20
382.7217912983837778
 30
0.0
 11
4873.0523530740538263
 21
382.7217912983837778
 31
0.0
  0
LINE
  5
152B4
  8
0
 10
4871.1354256696922675
 20
382.5997912983837068
 30
0.0
 11
4871.1354256696922675
 21
381.5130826369838246
 31
0.0
  0
LINE
  5
152B5
  8
0
 10
4871.2574256696907469
 20
381.3910826369838105
 30
0.0
 11
4873.0523530740538263
 21
381.3910826369838105
 31
0.0
  0
LINE
  5
152B6
  8
0
 10
4873.1743530740550341
 20
381.5130826369838246
 30
0.0
 11
4873.1743530740550341
 21
382.5997912983837068
 31
0.0
  0
ARC
  5
152B7
  8
0
 10
4871.2574256696907469
 20
382.5997912983837068
 30
0.0
 40
0.122
 50
90.0
 51
179.9999999999967031
  0
ARC
  5
152B8
  8
0
 10
4871.2574256696907469
 20
381.5130826369838246
 30
0.0
 40
0.122
 50
180.0000000000032117
 51
270.0
  0
ARC
  5
152B9
  8
0
 10
4873.0523530740538263
 20
381.5130826369838246
 30
0.0
 40
0.122
 50
270.0
 51
359.9999999999968168
  0
ARC
  5
152BA
  8
0
 10
4873.0523530740538263
 20
382.5997912983837068
 30
0.0
 40
0.122
 50
0.0000000000032569
 51
90.0
  0
ARC
  5
152BB
  8
0
 10
4872.9289815948595788
 20
382.5916743039255152
 30
0.0
 40
0.1544603432139615
 50
1.6318283230779851
 51
57.3941538076511293
  0
ARC
  5
152BC
  8
0
 10
5660.3375304473393044
 20
405.023747264421786
 30
0.0
 40
787.573551538597826
 50
181.6318283230779969
 51
181.7100490813544127
  0
ARC
  5
152BD
  8
0
 10
4872.9705309202727221
 20
381.5170219469308108
 30
0.0
 40
0.144264737894611
 50
299.1939465192008925
 51
1.710049081354464
  0
LINE
  5
152BE
  8
0
 10
4873.0028421745537344
 20
382.1548621236836993
 30
0.0
 11
4873.0063067114542719
 21
381.9580122088837015
 31
0.0
  0
LINE
  5
152BF
  8
0
 10
4873.0063067114542719
 20
381.9580122088837015
 30
0.0
 11
4873.0571795125933932
 21
382.0564364780062192
 31
0.0
  0
LINE
  5
152C0
  8
0
 10
4873.0571795125933932
 20
382.0564364780062192
 30
0.0
 11
4873.0028421745537344
 21
382.1548621236836993
 31
0.0
  0
LINE
  5
152C1
  8
0
 10
4871.2986457198549033
 20
381.7616753277837915
 30
0.0
 11
4871.3022680864542053
 21
381.558591396583779
 31
0.0
  0
LINE
  5
152C2
  8
0
 10
4871.3022680864542053
 20
381.558591396583779
 30
0.0
 11
4872.9616847551369574
 21
381.5582801935116208
 31
0.0
  0
LINE
  5
152C3
  8
0
 10
4872.9616847551369574
 20
381.5582801935116208
 30
0.0
 11
4872.9581051620543803
 21
381.761690684483824
 31
0.0
  0
LINE
  5
152C4
  8
0
 10
4872.9581051620543803
 20
381.761690684483824
 30
0.0
 11
4871.2986457198549033
 21
381.7616753277837915
 31
0.0
  0
LINE
  5
152C5
  8
0
 10
4872.1854940340499525
 20
381.7616722528339892
 30
0.0
 11
4872.1857511758926194
 21
381.5972180000948129
 31
0.0
  0
ARC
  5
152C6
  8
0
 10
4872.1784157291576776
 20
381.5972065303379281
 30
0.0
 40
0.0073354557028929
 50
269.873016099021072
 51
0.089588016493511
  0
ARC
  5
152C7
  8
0
 10
4872.1868070556984094
 20
381.6184469488795798
 30
0.0
 40
0.0297870278476375
 50
207.902066378900912
 51
253.6050704828620042
  0
ARC
  5
152C8
  8
0
 10
4874.0882030889206362
 20
382.4509640156953196
 30
0.0
 40
2.105372574260556
 50
200.263514576817812
 51
203.7061353575965938
  0
LINE
  5
152C9
  8
0
 10
4872.113132718354791
 20
381.7217927684836809
 30
0.0
 11
4871.2993657465749493
 21
381.7213161165610131
 31
0.0
  0
LINE
  5
152CA
  8
0
 10
4871.2986457198549033
 20
381.9764980482295869
 30
0.0
 11
4871.3022680864542053
 21
381.7734141170295743
 31
0.0
  0
LINE
  5
152CB
  8
0
 10
4871.3022680864542053
 20
381.7734141170295743
 30
0.0
 11
4872.9616847551369574
 21
381.7731029139574161
 31
0.0
  0
LINE
  5
152CC
  8
0
 10
4872.9616847551369574
 20
381.7731029139574161
 30
0.0
 11
4872.9581051620543803
 21
381.9765134049296194
 31
0.0
  0
LINE
  5
152CD
  8
0
 10
4872.9581051620543803
 20
381.9765134049296194
 30
0.0
 11
4871.2986457198549033
 21
381.9764980482295869
 31
0.0
  0
LINE
  5
152CE
  8
0
 10
4872.1854940340499525
 20
381.9764949732797845
 30
0.0
 11
4872.1857511758926194
 21
381.8120407205406082
 31
0.0
  0
ARC
  5
152CF
  8
0
 10
4872.1784157291576776
 20
381.8120292507837803
 30
0.0
 40
0.0073354557028929
 50
269.873016099021072
 51
0.089588016493511
  0
ARC
  5
152D0
  8
0
 10
4872.1868070556984094
 20
381.8332696693253752
 30
0.0
 40
0.0297870278476375
 50
207.902066378900912
 51
253.6050704828620042
  0
ARC
  5
152D1
  8
0
 10
4874.0882030889206362
 20
382.6657867361411718
 30
0.0
 40
2.105372574260556
 50
200.263514576817812
 51
203.7061353575965938
  0
LINE
  5
152D2
  8
0
 10
4872.113132718354791
 20
381.9366154889295899
 30
0.0
 11
4871.2993657465749493
 21
381.9361388370068084
 31
0.0
  0
LINE
  5
152D3
  8
0
 10
4871.2986457198549033
 20
382.1885891337170733
 30
0.0
 11
4871.3022680864542053
 21
381.9855052025171176
 31
0.0
  0
LINE
  5
152D4
  8
0
 10
4871.3022680864542053
 20
381.9855052025171176
 30
0.0
 11
4872.9616847551369574
 21
381.9851939994449026
 31
0.0
  0
LINE
  5
152D5
  8
0
 10
4872.9616847551369574
 20
381.9851939994449026
 30
0.0
 11
4872.9581051620543803
 21
382.1886044904171058
 31
0.0
  0
LINE
  5
152D6
  8
0
 10
4872.9581051620543803
 20
382.1886044904171058
 30
0.0
 11
4871.2986457198549033
 21
382.1885891337170733
 31
0.0
  0
LINE
  5
152D7
  8
0
 10
4872.1854940340499525
 20
382.1885860587673278
 30
0.0
 11
4872.1857511758926194
 21
382.0241318060280946
 31
0.0
  0
ARC
  5
152D8
  8
0
 10
4872.1784157291576776
 20
382.0241203362713236
 30
0.0
 40
0.0073354557028929
 50
269.873016099021072
 51
0.089588016493511
  0
ARC
  5
152D9
  8
0
 10
4872.1868070556984094
 20
382.0453607548129185
 30
0.0
 40
0.0297870278476375
 50
207.902066378900912
 51
253.6050704828620042
  0
ARC
  5
152DA
  8
0
 10
4874.0882030889206362
 20
382.8778778216287151
 30
0.0
 40
2.105372574260556
 50
200.263514576817812
 51
203.7061353575965938
  0
LINE
  5
152DB
  8
0
 10
4872.113132718354791
 20
382.1487065744170764
 30
0.0
 11
4871.2993657465749493
 21
382.1482299224942949
 31
0.0
  0
LINE
  5
152DC
  8
0
 10
4871.2986457198549033
 20
382.4011253101709258
 30
0.0
 11
4871.3022680864542053
 21
382.1980413789709132
 31
0.0
  0
LINE
  5
152DD
  8
0
 10
4871.3022680864542053
 20
382.1980413789709132
 30
0.0
 11
4872.9616847551369574
 21
382.1977301758986982
 31
0.0
  0
LINE
  5
152DE
  8
0
 10
4872.9616847551369574
 20
382.1977301758986982
 30
0.0
 11
4872.9581051620543803
 21
382.4011406668709014
 31
0.0
  0
LINE
  5
152DF
  8
0
 10
4872.9581051620543803
 20
382.4011406668709014
 30
0.0
 11
4871.2986457198549033
 21
382.4011253101709258
 31
0.0
  0
LINE
  5
152E0
  8
0
 10
4872.1854940340499525
 20
382.4011222352211234
 30
0.0
 11
4872.1857511758926194
 21
382.2366679824818902
 31
0.0
  0
ARC
  5
152E1
  8
0
 10
4872.1784157291576776
 20
382.2366565127250055
 30
0.0
 40
0.0073354557028929
 50
269.873016099021072
 51
0.089588016493511
  0
ARC
  5
152E2
  8
0
 10
4872.1868070556984094
 20
382.2578969312667141
 30
0.0
 40
0.0297870278476375
 50
207.902066378900912
 51
253.6050704828620042
  0
ARC
  5
152E3
  8
0
 10
4874.0882030889206362
 20
383.0904139980825107
 30
0.0
 40
2.105372574260556
 50
200.263514576817812
 51
203.7061353575965938
  0
LINE
  5
152E4
  8
0
 10
4872.113132718354791
 20
382.361242750870872
 30
0.0
 11
4871.2993657465749493
 21
382.3607660989480905
 31
0.0
  0
LINE
  5
152E5
  8
0
 10
4871.3008307996788062
 20
382.4933606712780261
 30
0.0
 11
4871.3022680864542053
 21
382.4127807960159089
 31
0.0
  0
LINE
  5
152E6
  8
0
 10
4871.3022680864542053
 20
382.4127807960159089
 30
0.0
 11
4872.9616847551369574
 21
382.4124695929436939
 31
0.0
  0
LINE
  5
152E7
  8
0
 10
4872.9616847551369574
 20
382.4124695929436939
 30
0.0
 11
4872.960239231984815
 21
382.4946114921320941
 31
0.0
  0
LINE
  5
152E8
  8
0
 10
4872.1856292383090477
 20
382.5293921963690877
 30
0.0
 11
4872.1857511758926194
 21
382.4514073995269996
 31
0.0
  0
ARC
  5
152E9
  8
0
 10
4872.1784157291576776
 20
382.4513959297701149
 30
0.0
 40
0.0073354557028929
 50
269.873016099021072
 51
0.089588016493511
  0
ARC
  5
152EA
  8
0
 10
4872.1868070556984094
 20
382.4726363483117098
 30
0.0
 40
0.0297870278476375
 50
207.902066378900912
 51
253.6050704828620042
  0
ARC
  5
152EB
  8
0
 10
4874.0882030889206362
 20
383.3051534151275064
 30
0.0
 40
2.105372574260556
 50
202.2126364199532986
 51
203.7061353575965938
  0
LINE
  5
152EC
  8
0
 10
4871.3362252448341678
 20
382.5293919934272822
 30
0.0
 11
4872.92484478723145
 21
382.5293886236764251
 31
0.0
  0
ARC
  5
152ED
  8
0
 10
4871.3362251697435568
 20
382.4939919934274144
 30
0.0
 40
0.0354
 50
89.9998784652380834
 51
181.0218647562493004
  0
ARC
  5
152EE
  8
0
 10
4872.9248447121417485
 20
382.4939886236763869
 30
0.0
 40
0.0354
 50
1.008180095486173
 51
89.9998784652380834
  0
LINE
  5
152EF
  8
0
 10
4871.3042716501659015
 20
382.5092278913854784
 30
0.0
 11
4872.1390760440353915
 21
382.5092278913854784
 31
0.0
  0
LINE
  5
152F1
  8
0
 10
4875.2917937236315993
 20
392.3261179873803144
 30
0.0
 11
4880.2647553075848919
 21
392.3261179873803144
 31
0.0
  0
ARC
  5
152F2
  8
0
 10
4875.2917937236315993
 20
391.9324179873801199
 30
0.0
 40
0.3937000000001731
 50
90.0
 51
177.9800066961799985
  0
ARC
  5
152F3
  8
0
 10
4880.2647553075848919
 20
391.9324179873801768
 30
0.0
 40
0.3937000000001093
 50
0.000798884286998
 51
90.0
  0
ARC
  5
152F4
  8
0
 10
4875.6573588453838966
 20
374.8933697915629182
 30
0.0
 40
5.8195195578538881
 50
71.6404938271757032
 51
88.9676624827112335
  0
LINE
  5
152F5
  8
0
 10
4874.486895953844396
 20
381.4895078337837049
 30
0.0
 11
4874.49912256895459
 21
381.0190308417837741
 31
0.0
  0
ARC
  5
152F6
  8
0
 10
4880.3640200052341243
 20
391.2260485309197975
 30
0.0
 40
0.116129589771244
 50
358.9171311738281815
 51
85.7946652061059893
  0
ARC
  5
152F7
  8
0
 10
4880.6453085054490657
 20
391.2206322706618948
 30
0.0
 40
0.1652110634724294
 50
178.8826721218813134
 51
224.0757361548483004
  0
LINE
  5
152F8
  8
0
 10
4880.5266174177550056
 20
391.105710030883813
 30
0.0
 11
4880.6187286949179907
 21
391.105710030883813
 31
0.0
  0
ENDSEC
  0
EOF
