  0
SECTION
  2
HEADER
  9
$ACADVER
  1
AC1009
  9
$INSBASE
 10
4758.9394750617102545
 20
337.0272172681545726
 30
0.0
  9
$EXTMIN
 10
4731.2497842492275595
 20
337.0227409998140047
 30
-0.0000000349181948
  9
$EXTMAX
 10
4759.207526819857776
 20
364.4069155091237917
 30
0.0000000814935746
  9
$LIMMIN
 10
0.0
 20
0.0
  9
$LIMMAX
 10
11.6929133858000007
 20
8.2677165353999982
  9
$ORTHOMODE
 70
     0
  9
$REGENMODE
 70
     1
  9
$FILLMODE
 70
     1
  9
$QTEXTMODE
 70
     0
  9
$MIRRTEXT
 70
     0
  9
$DRAGMODE
 70
     2
  9
$LTSCALE
 40
0.6431102362
  9
$OSMODE
 70
  4095
  9
$ATTMODE
 70
     1
  9
$TEXTSIZE
 40
0.2
  9
$TRACEWID
 40
0.05
  9
$TEXTSTYLE
  7
STANDARD
  9
$CLAYER
  8
0
  9
$CELTYPE
  6
BYLAYER
  9
$CECOLOR
 62
   256
  9
$DIMSCALE
 40
1.0
  9
$DIMASZ
 40
0.1875
  9
$DIMEXO
 40
0.0625
  9
$DIMDLI
 40
0.4443307087
  9
$DIMRND
 40
0.0
  9
$DIMDLE
 40
0.0
  9
$DIMEXE
 40
0.125
  9
$DIMTP
 40
0.01
  9
$DIMTM
 40
0.01
  9
$DIMTXT
 40
2.0
  9
$DIMCEN
 40
0.1052362205
  9
$DIMTSZ
 40
0.0
  9
$DIMTOL
 70
     1
  9
$DIMLIM
 70
     0
  9
$DIMTIH
 70
     1
  9
$DIMTOH
 70
     1
  9
$DIMSE1
 70
     0
  9
$DIMSE2
 70
     0
  9
$DIMTAD
 70
     0
  9
$DIMZIN
 70
     0
  9
$DIMBLK
  1

  9
$DIMASO
 70
     1
  9
$DIMSHO
 70
     1
  9
$DIMPOST
  1
\X
  9
$DIMAPOST
  1

  9
$DIMALT
 70
     1
  9
$DIMALTD
 70
     2
  9
$DIMALTF
 40
25.3999999999999986
  9
$DIMLFAC
 40
1.0
  9
$DIMTOFL
 70
     0
  9
$DIMTVP
 40
0.0
  9
$DIMTIX
 70
     0
  9
$DIMSOXD
 70
     0
  9
$DIMSAH
 70
     0
  9
$DIMBLK1
  1

  9
$DIMBLK2
  1

  9
$DIMSTYLE
  2
STANDARD
  9
$DIMCLRD
 70
     0
  9
$DIMCLRE
 70
     0
  9
$DIMCLRT
 70
     0
  9
$DIMTFAC
 40
1.0
  9
$DIMGAP
 40
0.09
  9
$LUNITS
 70
     2
  9
$LUPREC
 70
     4
  9
$SKETCHINC
 40
0.1
  9
$FILLETRAD
 40
0.0
  9
$AUNITS
 70
     0
  9
$AUPREC
 70
     0
  9
$MENU
  1
.
  9
$ELEVATION
 40
0.0
  9
$PELEVATION
 40
0.0
  9
$THICKNESS
 40
0.0
  9
$LIMCHECK
 70
     0
  9
$BLIPMODE
 70
     0
  9
$CHAMFERA
 40
0.0
  9
$CHAMFERB
 40
0.0
  9
$SKPOLY
 70
     0
  9
$TDCREATE
 40
2458060.468368056230247
  9
$TDUPDATE
 40
2460202.5144097218289971
  9
$TDINDWG
 40
0.5670325231
  9
$TDUSRTIMER
 40
0.5670325231
  9
$USRTIMER
 70
     1
  9
$ANGBASE
 50
0.0
  9
$ANGDIR
 70
     0
  9
$PDMODE
 70
     0
  9
$PDSIZE
 40
0.3125
  9
$PLINEWID
 40
0.0
  9
$COORDS
 70
     1
  9
$SPLFRAME
 70
     0
  9
$SPLINETYPE
 70
     6
  9
$SPLINESEGS
 70
     8
  9
$ATTDIA
 70
     1
  9
$ATTREQ
 70
     1
  9
$HANDLING
 70
     1
  9
$HANDSEED
  5
14CF2
  9
$SURFTAB1
 70
     6
  9
$SURFTAB2
 70
     6
  9
$SURFTYPE
 70
     6
  9
$SURFU
 70
     6
  9
$SURFV
 70
     6
  9
$UCSNAME
  2

  9
$UCSORG
 10
0.0
 20
0.0
 30
0.0
  9
$UCSXDIR
 10
1.0
 20
0.0
 30
0.0
  9
$UCSYDIR
 10
0.0
 20
1.0
 30
0.0
  9
$PUCSNAME
  2

  9
$PUCSORG
 10
0.0
 20
0.0
 30
0.0
  9
$PUCSXDIR
 10
1.0
 20
0.0
 30
0.0
  9
$PUCSYDIR
 10
0.0
 20
1.0
 30
0.0
  9
$USERI1
 70
     0
  9
$USERI2
 70
     0
  9
$USERI3
 70
     0
  9
$USERI4
 70
     0
  9
$USERI5
 70
     0
  9
$USERR1
 40
0.0
  9
$USERR2
 40
0.0
  9
$USERR3
 40
0.0
  9
$USERR4
 40
0.0
  9
$USERR5
 40
0.0
  9
$WORLDVIEW
 70
     1
  9
$SHADEDGE
 70
     3
  9
$SHADEDIF
 70
    70
  9
$TILEMODE
 70
     1
  9
$MAXACTVP
 70
    64
  9
$PLIMCHECK
 70
     0
  9
$PEXTMIN
 10
1.0000000000000000E+20
 20
1.0000000000000000E+20
 30
1.0000000000000000E+20
  9
$PEXTMAX
 10
-1.0000000000000000E+20
 20
-1.0000000000000000E+20
 30
-1.0000000000000000E+20
  9
$PLIMMIN
 10
0.0
 20
0.0
  9
$PLIMMAX
 10
12.0
 20
9.0
  9
$UNITMODE
 70
     0
  9
$VISRETAIN
 70
     1
  9
$PLINEGEN
 70
     0
  9
$PSLTSCALE
 70
     1
  0
ENDSEC
  0
SECTION
  2
TABLES
  0
TABLE
  2
VPORT
 70
     1
  0
VPORT
  2
*ACTIVE
 70
     0
 10
0.0
 20
0.0
 11
1.0
 21
1.0
 12
941.6845881517310772
 22
224.7195660577189926
 13
0.0
 23
0.0
 14
1.0
 24
1.0
 15
0.0
 25
0.0
 16
0.0
 26
0.0
 36
17.1152628219792007
 17
3803.5440673828129547
 27
125.9952621967499056
 37
0.0
 40
27.5945522904312384
 41
1.4089743589743591
 42
50.0
 43
0.0
 44
0.0
 50
0.0
 51
0.0
 71
     0
 72
   100
 73
     1
 74
     1
 75
     0
 76
     0
 77
     0
 78
     0
  0
ENDTAB
  0
TABLE
  2
LTYPE
 70
     2
  0
LTYPE
  2
CONTINUOUS
 70
     0
  3
Solid line
 72
    65
 73
     0
 40
0.0
  0
LTYPE
  2
PHANTOM2
 70
     0
  3
___ _ _ ___ _ _ ___ _ _ ___ _ _
 72
    65
 73
     6
 40
1.25
 49
0.625
 49
-0.125
 49
0.125
 49
-0.125
 49
0.125
 49
-0.125
  0
ENDTAB
  0
TABLE
  2
LAYER
 70
     2
  0
LAYER
  2
0
 70
     0
 62
   255
  6
CONTINUOUS
  0
LAYER
  2
DEFPOINTS
 70
     0
 62
     7
  6
CONTINUOUS
  0
ENDTAB
  0
TABLE
  2
STYLE
 70
     1
  0
STYLE
  2
STANDARD
 70
     0
 40
0.0
 41
0.8
 50
0.0
 71
     0
 42
0.2
  3
txt
  4

  0
ENDTAB
  0
TABLE
  2
VIEW
 70
     0
  0
ENDTAB
  0
TABLE
  2
UCS
 70
     0
  0
ENDTAB
  0
TABLE
  2
APPID
 70
    10
  0
APPID
  2
ACAD
 70
     0
  0
APPID
  2
ACAD_MLEADERVER
 70
     0
  0
APPID
  2
ACAD_EXEMPT_FROM_CAD_STANDARDS
 70
     0
  0
APPID
  2
ACAD_NAV_VCDISPLAY
 70
     0
  0
APPID
  2
ACAECLAYERSTANDARD
 70
     0
  0
APPID
  2
ACCMTRANSPARENCY
 70
     0
  0
APPID
  2
ACAD_DSTYLE_DIMJAG
 70
     0
  0
APPID
  2
ACAD_DSTYLE_DIMTALN
 70
     0
  0
APPID
  2
ACDBATTR
 70
     0
  0
APPID
  2
ACADANNOTATIVE
 70
     0
  0
ENDTAB
  0
TABLE
  2
DIMSTYLE
 70
     1
  0
DIMSTYLE
  2
STANDARD
 70
     0
  3

  4

  5

  6

  7

 40
1.0
 41
0.1875
 42
0.0625
 43
0.38
 44
0.125
 45
0.0
 46
0.0
 47
0.01
 48
0.01
140
0.15625
141
0.09
142
0.0
143
25.3999999999999986
144
1.0
145
0.0
146
1.0
147
0.09
 71
     1
 72
     0
 73
     1
 74
     1
 75
     0
 76
     0
 77
     0
 78
     4
170
     0
171
     2
172
     0
173
     0
174
     0
175
     0
176
     0
177
     0
178
     0
  0
ENDTAB
  0
ENDSEC
  0
SECTION
  2
BLOCKS
  0
BLOCK
  8
0
  2
$MODEL_SPACE
 70
     0
 10
0.0
 20
0.0
 30
0.0
  3
$MODEL_SPACE
  1

  0
ENDBLK
  5
21
  8
0
  0
BLOCK
 67
     1
  8
0
  2
$PAPER_SPACE
 70
     0
 10
0.0
 20
0.0
 30
0.0
  3
$PAPER_SPACE
  1

  0
ENDBLK
  5
1D
 67
     1
  8
0
  0
ENDSEC
  0
SECTION
  2
ENTITIES
  0
ATTDEF
  5
3930
  8
DEFPOINTS
 10
4758.9361625045376059
 20
337.0310382761851997
 30
0.0
 40
0.001
  1
K-28020K-S
  3

  2
MODELNUMBER
 70
     0
1001
ACDBATTR
1070
     0
1070
     1
  0
ATTDEF
  5
3931
  8
DEFPOINTS
 10
4758.9361625045376059
 20
337.0293716095185914
 30
0.0
 40
0.001
  1
SPACITY
  3

  2
TRADENAME
 70
     0
1001
ACDBATTR
1070
     0
1070
     1
  0
ATTDEF
  5
3932
  8
DEFPOINTS
 10
4758.9361625045376059
 20
337.0277049428519263
 30
0.0
 40
0.001
  1
TOILET
  3

  2
PRODUCT
 70
     0
1001
ACDBATTR
1070
     0
1070
     1
  0
LINE
  5
14B55
  8
0
 10
4752.5201055587158407
 20
363.4032709721211063
 30
0.0
 11
4758.0611079615173367
 21
363.4032709721211063
 31
0.0
  0
ARC
  5
14B56
  8
0
 10
4758.021375061708568
 20
363.2870694645545768
 30
0.0
 40
0.1181
 50
0.0
 51
79.7127185158104936
  0
ARC
  5
14B57
  8
0
 10
4752.5513473845376211
 20
363.2870694645545768
 30
0.0
 40
0.1181
 50
100.2872814841895064
 51
178.0585086313317902
  0
LINE
  5
14B58
  8
0
 10
4752.4020789448231881
 20
363.5274322056096139
 30
0.0
 11
4752.4190847400786879
 21
364.0095992210912073
 31
0.0
  0
LINE
  5
14B59
  8
0
 10
4758.1792016741019324
 20
363.9957274819768145
 30
0.0
 11
4758.1792079615061084
 21
363.5232710362182047
 31
0.0
  0
ARC
  5
14B5A
  8
0
 10
4752.5233158588243896
 20
363.5245008211863933
 30
0.0
 40
0.1212723477598246
 50
178.6149166024189867
 51
268.483099075135101
  0
ARC
  5
14B5B
  8
0
 10
4758.0578034565451162
 20
363.5246381966903186
 30
0.0
 40
0.1214122026516303
 50
271.5596255377018906
 51
359.3548080113812944
  0
LINE
  5
14B5C
  8
0
 10
4758.1398378825851978
 20
351.2004610008546024
 30
0.0
 11
4758.1394750617091631
 21
351.2004610008546024
 31
0.0
  0
LINE
  5
14B5D
  8
0
 10
4755.5752393909397142
 20
351.2004610008546024
 30
0.0
 11
4731.565034733084758
 21
351.2004610008546024
 31
0.0
  0
LINE
  5
14B5E
  8
0
 10
4758.1398378825851978
 20
352.4799731736546278
 30
0.0
 11
4758.1394750617091631
 21
352.4799731736546278
 31
0.0
  0
LINE
  5
14B5F
  8
0
 10
4758.1394750617091631
 20
352.4799731736546278
 30
0.0
 11
4731.5650347329847136
 21
352.4799731736546278
 31
0.0
  0
LINE
  5
14B60
  8
0
 10
4735.8441308083838521
 20
337.0272172681565053
 30
0.0
 11
4758.1394750617091631
 21
337.0272172681578127
 31
0.0
  0
LINE
  5
14B61
  8
0
 10
4758.1394750617091631
 20
363.2870694645545768
 30
0.0
 11
4758.1394750617091631
 21
337.0272172681545726
 31
0.0
  0
LINE
  5
14B62
  8
0
 10
4752.4333151805285524
 20
363.2910705664821762
 30
0.0
 11
4752.0871619646895851
 21
353.0795769004189992
 31
0.0
  0
LINE
  5
14B63
  8
0
 10
4731.8011347522869983
 20
352.7752487641545827
 30
0.0
 11
4753.282953830358565
 21
352.7752487641545827
 31
0.0
  0
ARC
  5
14B64
  8
0
 10
4731.8011347522869983
 20
352.5391487641546178
 30
0.0
 40
0.2361
 50
90.0
 51
179.9999991781567985
  0
ARC
  5
14B65
  8
0
 10
4751.7723427922683186
 20
353.0902487641545804
 30
0.0
 40
0.315
 50
270.0
 51
358.0585086313317902
  0
LINE
  5
14B66
  8
0
 10
4731.5650347522869197
 20
352.5391487675411781
 30
0.0
 11
4731.565034733084758
 21
351.2004610008546024
 31
0.0
  0
ARC
  5
14B67
  8
0
 10
4733.5325775136852826
 20
351.6596293693928033
 30
0.0
 40
2.0204108948818038
 50
193.136095021027586
 51
220.6228733932933039
  0
ARC
  5
14B68
  8
0
 10
4709.5611741322718444
 20
331.0928790006735198
 30
0.0
 40
29.5647027108542098
 50
33.3735967147297217
 51
40.6290029986136503
  0
ARC
  5
14B69
  8
0
 10
4728.3758087912119663
 20
342.7408352050846929
 30
0.0
 40
7.4710701237059078
 50
358.4521158623114729
 51
38.1540986536784885
  0
LINE
  5
14B6A
  8
0
 10
4735.8441527128852613
 20
342.5390237560545756
 30
0.0
 11
4735.8441308083838521
 21
337.0272172681565053
 31
0.0
  0
ARC
  5
14B6B
  8
0
 10
4753.9960239152942449
 20
347.8838210766307952
 30
0.0
 40
3.6734210084708119
 50
14.3068541750708995
 51
64.5385823671467307
  0
ARC
  5
14B6C
  8
0
 10
4729.571412862897887
 20
343.0235548359719928
 30
0.0
 40
28.5723684659057398
 50
0.9519353737279169
 51
11.6465773537220603
  0
CIRCLE
  5
14B6D
  8
0
 10
4753.4154284337837453
 20
338.405170024054712
 30
0.0
 40
0.5437419538999997
  0
LINE
  5
14B6F
  8
0
 10
4752.8125400901872126
 20
364.3875564925211847
 30
0.0
 11
4757.7855016741395957
 21
364.3875564925211847
 31
0.0
  0
ARC
  5
14B70
  8
0
 10
4752.8092844742450325
 20
363.9971725053484874
 30
0.0
 40
0.3903975620774122
 50
89.5221916494400887
 51
178.1759509125269858
  0
ARC
  5
14B71
  8
0
 10
4757.7886681606278216
 20
363.9970336312301242
 30
0.0
 40
0.3905356985317629
 50
359.8083368326776963
 51
90.4645626514029857
  0
ARC
  5
14B72
  8
0
 10
4753.1781052119404194
 20
346.9566737967369932
 30
0.0
 40
5.8195195578538881
 50
71.6404938271757032
 51
88.9676624827112335
  0
ARC
  5
14B73
  8
0
 10
4757.8847663720271157
 20
363.2893525358531974
 30
0.0
 40
0.116129589771244
 50
358.9171311738281815
 51
78.8013120292734328
  0
ARC
  5
14B74
  8
0
 10
4758.1660548722411477
 20
363.2839362755951811
 30
0.0
 40
0.1652110634724294
 50
178.8826721218813134
 51
224.0757361548483004
  0
LINE
  5
14B75
  8
0
 10
4758.0473637845461781
 20
363.1690140358170993
 30
0.0
 11
4758.1394750617091631
 21
363.1690140358170993
 31
0.0
  0
ARC
  5
14B76
  8
0
 10
4735.0188941485566829
 20
352.7172909823426039
 30
0.0
 40
3.572974392152374
 50
163.7881458044120961
 51
174.7547159885357075
  0
ARC
  5
14B77
  8
0
 10
4731.8199695645598695
 20
353.6441113261111013
 30
0.0
 40
0.2425135986217908
 50
93.3221872664927758
 51
163.0460757391313109
  0
ARC
  5
14B78
  8
0
 10
4731.5078778087972751
 20
353.0391115054400188
 30
0.0
 40
0.0472425460873066
 50
174.144648865627488
 51
269.9994800881701735
  0
LINE
  5
14B79
  8
0
 10
4731.5078773801087664
 20
352.9918689593546901
 30
0.0
 11
4749.6093373335370416
 21
352.9918689593546901
 31
0.0
  0
LINE
  5
14B7A
  8
0
 10
4731.8059157508314456
 20
353.8862173686546271
 30
0.0
 11
4741.3682460013096716
 21
353.8862173686546271
 31
0.0
  0
ARC
  5
14B7B
  8
0
 10
4740.0065925380786211
 20
487.4577380812884257
 30
0.0
 40
133.5784610093988931
 50
270.5840638319314735
 51
272.8989696453710962
  0
ARC
  5
14B7C
  8
0
 10
4745.3091498765161305
 20
381.1473415920953016
 30
0.0
 40
27.1360572457996305
 50
273.0697308466166078
 51
280.8605580539265816
  0
ARC
  5
14B7D
  8
0
 10
4750.4616618699519677
 20
354.3446283719047187
 30
0.0
 40
0.1577384680784034
 50
11.7482515934461897
 51
104.5214269874555981
  0
LINE
  5
14B7E
  8
0
 10
4750.616095983111336
 20
354.3767457971546264
 30
0.0
 11
4750.7838740967636113
 21
353.5698212777913909
 31
0.0
  0
LINE
  5
14B7F
  8
0
 10
4750.7821881647541886
 20
353.4546377379205069
 30
0.0
 11
4750.8055165945106637
 21
352.7752487642546271
 31
0.0
  0
ARC
  5
14B80
  8
0
 10
4749.4761149070300235
 20
357.3412181406570767
 30
0.0
 40
4.3513890329204941
 50
271.7544456933762262
 51
275.9257763814158011
  0
ARC
  5
14B81
  8
0
 10
4749.7582151550113849
 20
354.5514755640140265
 30
0.0
 40
1.547447278046518
 50
276.2005199177294799
 51
297.0053297102382999
  0
ARC
  5
14B82
  8
0
 10
4750.234721057862771
 20
353.8027220259580758
 30
0.0
 40
0.6693290053677253
 50
289.7473853737419063
 51
317.9113965057625251
  0
ARC
  5
14B83
  8
0
 10
4750.5359310411777187
 20
353.5158462915651967
 30
0.0
 40
0.2537499910374761
 50
320.3955675507017986
 51
12.2811723284075605
  0
ARC
  5
14B84
  8
0
 10
4750.2660431103104202
 20
353.6611278644547269
 30
0.0
 40
0.5118110235998776
 50
354.3494761409344278
 51
29.1421045171568807
  0
LINE
  5
14B85
  8
0
 10
4749.7317262981341628
 20
352.9973432192812197
 30
0.0
 11
4749.7241886302708735
 21
352.7752487642546271
 31
0.0
  0
ARC
  5
14B86
  8
0
 10
4749.2942843026430637
 20
356.5697596739350956
 30
0.0
 40
3.5917350094010572
 50
275.0322302392215192
 51
288.9532887711400804
  0
ARC
  5
14B87
  8
0
 10
4731.9771802317018228
 20
350.2665494421369772
 30
0.0
 40
3.025816721745711
 50
56.006216701709441
 51
64.2487675706810819
  0
ARC
  5
14B88
  8
0
 10
4743.355147087115256
 20
352.7695194328898083
 30
0.0
 40
0.5724028522383759
 50
7.8940116734086567
 51
22.8580489340553896
  0
ARC
  5
14B89
  8
0
 10
4743.9795611924373588
 20
352.8560975331603231
 30
0.0
 40
0.0579849191940694
 50
187.8940116734086132
 51
270.9124994791690142
  0
ARC
  5
14B8A
  8
0
 10
4745.3242026786156202
 20
352.7978499591401942
 30
0.0
 40
0.606019754627412
 50
161.3197542995353047
 51
175.2404696105936921
  0
ARC
  5
14B8B
  8
0
 10
4744.6628372091818164
 20
352.8560975331603231
 30
0.0
 40
0.057984919194072
 50
270.9124994791690142
 51
352.1059883265880899
  0
LINE
  5
14B8C
  8
0
 10
4744.6637606449457962
 20
352.7981199674961772
 30
0.0
 11
4743.9786377566742885
 21
352.7981199674961772
 31
0.0
  0
ARC
  5
14B8D
  8
0
 10
4748.6184764634217572
 20
350.0103074242019261
 30
0.0
 40
2.9105997621459041
 50
99.8157101750401381
 51
108.2029674869607021
  0
ARC
  5
14B8E
  8
0
 10
4748.8384813617685722
 20
348.738693815716772
 30
0.0
 40
4.2011048278397043
 50
92.7824387218081057
 51
99.8157101750401381
  0
ARC
  5
14B8F
  8
0
 10
4747.9259802728256545
 20
367.5140775930215113
 30
0.0
 40
14.5964400709600994
 50
272.7824387218080915
 51
273.7163522564305254
  0
ARC
  5
14B90
  8
0
 10
4746.9675796060946595
 20
383.0341923990446844
 30
0.0
 40
30.1456690706196291
 50
273.9614640941634889
 51
274.7456464055002812
  0
ARC
  5
14B91
  8
0
 10
4735.3393488209667339
 20
352.7502189418416947
 30
0.0
 40
0.5551628904019557
 50
4.3226640977783619
 51
25.8029646950794707
  0
ARC
  5
14B92
  8
0
 10
4735.950720331440607
 20
352.7979965050452051
 30
0.0
 40
0.0580916244254094
 50
185.8621145640422014
 51
203.0530859987279939
  0
ARC
  5
14B93
  8
0
 10
4738.8702956947290659
 20
352.4799465258777218
 30
0.0
 40
2.1996420784808208
 50
166.5421554377157065
 51
171.9217054407806131
  0
ARC
  5
14B94
  8
0
 10
4736.6360478650003643
 20
352.7976917725674184
 30
0.0
 40
0.0570901411903066
 50
336.8515176469667267
 51
351.2974933282854977
  0
LINE
  5
14B95
  8
0
 10
4748.8742049678103285
 20
352.9524870377546222
 30
0.0
 11
4748.8742047847090362
 21
352.9407078566546261
 31
0.0
  0
LINE
  5
14B96
  8
0
 10
4748.8742047847090362
 20
352.9407078566546261
 30
0.0
 11
4749.0468981557096413
 21
352.9523869767547239
 31
0.0
  0
LINE
  5
14B97
  8
0
 10
4749.0468981557096413
 20
352.9523869767547239
 30
0.0
 11
4749.0468984522422033
 21
352.964206859746696
 31
0.0
  0
LINE
  5
14B98
  8
0
 10
4749.0468984522422033
 20
352.964206859746696
 30
0.0
 11
4748.9674818468065496
 21
352.9574020212577921
 31
0.0
  0
LINE
  5
14B99
  8
0
 10
4748.9674818385328763
 20
352.9580909424951756
 30
0.0
 11
4748.9674818038101876
 21
352.9499083815546214
 31
0.0
  0
LINE
  5
14B9A
  8
0
 10
4748.8742049678103285
 20
352.9524870377546222
 30
0.0
 11
4748.9674818385328763
 21
352.9580909424951187
 31
0.0
  0
LINE
  5
14B9B
  8
0
 10
4748.8702550762100145
 20
352.9477684493235756
 30
0.0
 11
4748.8702550762100145
 21
352.9418574584547059
 31
0.0
  0
LINE
  5
14B9C
  8
0
 10
4748.8702550762100145
 20
352.9418574584547059
 30
0.0
 11
4748.8736388063571212
 21
352.9418212559587005
 31
0.0
  0
LINE
  5
14B9D
  8
0
 10
4749.050208767708682
 20
352.9600334864612137
 30
0.0
 11
4749.050208767708682
 21
352.9537435632545908
 31
0.0
  0
LINE
  5
14B9E
  8
0
 10
4749.050208767708682
 20
352.9537435632545908
 30
0.0
 11
4749.0472637283874064
 21
352.9533878195734928
 31
0.0
  0
ENDSEC
  0
EOF
