  0
SECTION
  2
HEADER
  9
$ACADVER
  1
AC1009
  9
$INSBASE
 10
4734.6816134064602011
 20
335.704906259431084
 30
0.0
  9
$EXTMIN
 10
4707.1630749954547355
 20
335.6933128999513087
 30
-0.0000000349181948
  9
$EXTMAX
 10
4734.9784851914682804
 20
363.0892728705518948
 30
0.0000000814935746
  9
$LIMMIN
 10
0.0
 20
0.0
  9
$LIMMAX
 10
11.6929133858000007
 20
8.2677165353999982
  9
$ORTHOMODE
 70
     0
  9
$REGENMODE
 70
     1
  9
$FILLMODE
 70
     1
  9
$QTEXTMODE
 70
     0
  9
$MIRRTEXT
 70
     0
  9
$DRAGMODE
 70
     2
  9
$LTSCALE
 40
0.6431102362
  9
$OSMODE
 70
  4095
  9
$ATTMODE
 70
     1
  9
$TEXTSIZE
 40
0.2
  9
$TRACEWID
 40
0.05
  9
$TEXTSTYLE
  7
STANDARD
  9
$CLAYER
  8
0
  9
$CELTYPE
  6
BYLAYER
  9
$CECOLOR
 62
   256
  9
$DIMSCALE
 40
1.0
  9
$DIMASZ
 40
0.1875
  9
$DIMEXO
 40
0.0625
  9
$DIMDLI
 40
0.4443307087
  9
$DIMRND
 40
0.0
  9
$DIMDLE
 40
0.0
  9
$DIMEXE
 40
0.125
  9
$DIMTP
 40
0.01
  9
$DIMTM
 40
0.01
  9
$DIMTXT
 40
2.0
  9
$DIMCEN
 40
0.1052362205
  9
$DIMTSZ
 40
0.0
  9
$DIMTOL
 70
     1
  9
$DIMLIM
 70
     0
  9
$DIMTIH
 70
     1
  9
$DIMTOH
 70
     1
  9
$DIMSE1
 70
     0
  9
$DIMSE2
 70
     0
  9
$DIMTAD
 70
     0
  9
$DIMZIN
 70
     0
  9
$DIMBLK
  1

  9
$DIMASO
 70
     1
  9
$DIMSHO
 70
     1
  9
$DIMPOST
  1
\X
  9
$DIMAPOST
  1

  9
$DIMALT
 70
     1
  9
$DIMALTD
 70
     2
  9
$DIMALTF
 40
25.3999999999999986
  9
$DIMLFAC
 40
1.0
  9
$DIMTOFL
 70
     0
  9
$DIMTVP
 40
0.0
  9
$DIMTIX
 70
     0
  9
$DIMSOXD
 70
     0
  9
$DIMSAH
 70
     0
  9
$DIMBLK1
  1

  9
$DIMBLK2
  1

  9
$DIMSTYLE
  2
STANDARD
  9
$DIMCLRD
 70
     0
  9
$DIMCLRE
 70
     0
  9
$DIMCLRT
 70
     0
  9
$DIMTFAC
 40
1.0
  9
$DIMGAP
 40
0.09
  9
$LUNITS
 70
     2
  9
$LUPREC
 70
     4
  9
$SKETCHINC
 40
0.1
  9
$FILLETRAD
 40
0.0
  9
$AUNITS
 70
     0
  9
$AUPREC
 70
     0
  9
$MENU
  1
.
  9
$ELEVATION
 40
0.0
  9
$PELEVATION
 40
0.0
  9
$THICKNESS
 40
0.0
  9
$LIMCHECK
 70
     0
  9
$BLIPMODE
 70
     0
  9
$CHAMFERA
 40
0.0
  9
$CHAMFERB
 40
0.0
  9
$SKPOLY
 70
     0
  9
$TDCREATE
 40
2458060.468368056230247
  9
$TDUPDATE
 40
2459912.5466087958775461
  9
$TDINDWG
 40
0.567159838
  9
$TDUSRTIMER
 40
0.567159838
  9
$USRTIMER
 70
     1
  9
$ANGBASE
 50
0.0
  9
$ANGDIR
 70
     0
  9
$PDMODE
 70
     0
  9
$PDSIZE
 40
0.3125
  9
$PLINEWID
 40
0.0
  9
$COORDS
 70
     1
  9
$SPLFRAME
 70
     0
  9
$SPLINETYPE
 70
     6
  9
$SPLINESEGS
 70
     8
  9
$ATTDIA
 70
     1
  9
$ATTREQ
 70
     1
  9
$HANDLING
 70
     1
  9
$HANDSEED
  5
15006
  9
$SURFTAB1
 70
     6
  9
$SURFTAB2
 70
     6
  9
$SURFTYPE
 70
     6
  9
$SURFU
 70
     6
  9
$SURFV
 70
     6
  9
$UCSNAME
  2

  9
$UCSORG
 10
0.0
 20
0.0
 30
0.0
  9
$UCSXDIR
 10
1.0
 20
0.0
 30
0.0
  9
$UCSYDIR
 10
0.0
 20
1.0
 30
0.0
  9
$PUCSNAME
  2

  9
$PUCSORG
 10
0.0
 20
0.0
 30
0.0
  9
$PUCSXDIR
 10
1.0
 20
0.0
 30
0.0
  9
$PUCSYDIR
 10
0.0
 20
1.0
 30
0.0
  9
$USERI1
 70
     0
  9
$USERI2
 70
     0
  9
$USERI3
 70
     0
  9
$USERI4
 70
     0
  9
$USERI5
 70
     0
  9
$USERR1
 40
0.0
  9
$USERR2
 40
0.0
  9
$USERR3
 40
0.0
  9
$USERR4
 40
0.0
  9
$USERR5
 40
0.0
  9
$WORLDVIEW
 70
     1
  9
$SHADEDGE
 70
     3
  9
$SHADEDIF
 70
    70
  9
$TILEMODE
 70
     1
  9
$MAXACTVP
 70
    64
  9
$PLIMCHECK
 70
     0
  9
$PEXTMIN
 10
1.0000000000000000E+20
 20
1.0000000000000000E+20
 30
1.0000000000000000E+20
  9
$PEXTMAX
 10
-1.0000000000000000E+20
 20
-1.0000000000000000E+20
 30
-1.0000000000000000E+20
  9
$PLIMMIN
 10
0.0
 20
0.0
  9
$PLIMMAX
 10
12.0
 20
9.0
  9
$UNITMODE
 70
     0
  9
$VISRETAIN
 70
     1
  9
$PLINEGEN
 70
     0
  9
$PSLTSCALE
 70
     1
  0
ENDSEC
  0
SECTION
  2
TABLES
  0
TABLE
  2
VPORT
 70
     1
  0
VPORT
  2
*ACTIVE
 70
     0
 10
0.0
 20
0.0
 11
1.0
 21
1.0
 12
917.5267127106490079
 22
223.3960306885016109
 13
0.0
 23
0.0
 14
1.0
 24
1.0
 15
0.0
 25
0.0
 16
0.0
 26
0.0
 36
17.1152628219792007
 17
3803.5440673828129547
 27
125.9952621967499056
 37
0.0
 40
27.5808595879500515
 41
2.1126126126126121
 42
50.0
 43
0.0
 44
0.0
 50
0.0
 51
0.0
 71
     0
 72
   100
 73
     1
 74
     1
 75
     0
 76
     0
 77
     0
 78
     0
  0
ENDTAB
  0
TABLE
  2
LTYPE
 70
     2
  0
LTYPE
  2
CONTINUOUS
 70
     0
  3
Solid line
 72
    65
 73
     0
 40
0.0
  0
LTYPE
  2
PHANTOM2
 70
     0
  3
___ _ _ ___ _ _ ___ _ _ ___ _ _
 72
    65
 73
     6
 40
1.25
 49
0.625
 49
-0.125
 49
0.125
 49
-0.125
 49
0.125
 49
-0.125
  0
ENDTAB
  0
TABLE
  2
LAYER
 70
     2
  0
LAYER
  2
0
 70
     0
 62
   255
  6
CONTINUOUS
  0
LAYER
  2
DEFPOINTS
 70
     0
 62
     7
  6
CONTINUOUS
  0
ENDTAB
  0
TABLE
  2
STYLE
 70
     1
  0
STYLE
  2
STANDARD
 70
     0
 40
0.0
 41
0.8
 50
0.0
 71
     0
 42
0.2
  3
txt
  4

  0
ENDTAB
  0
TABLE
  2
VIEW
 70
     0
  0
ENDTAB
  0
TABLE
  2
UCS
 70
     0
  0
ENDTAB
  0
TABLE
  2
APPID
 70
    10
  0
APPID
  2
ACAD
 70
     0
  0
APPID
  2
ACAD_MLEADERVER
 70
     0
  0
APPID
  2
ACAD_EXEMPT_FROM_CAD_STANDARDS
 70
     0
  0
APPID
  2
ACAD_NAV_VCDISPLAY
 70
     0
  0
APPID
  2
ACAECLAYERSTANDARD
 70
     0
  0
APPID
  2
ACCMTRANSPARENCY
 70
     0
  0
APPID
  2
ACAD_DSTYLE_DIMJAG
 70
     0
  0
APPID
  2
ACAD_DSTYLE_DIMTALN
 70
     0
  0
APPID
  2
ACDBATTR
 70
     0
  0
APPID
  2
ACADANNOTATIVE
 70
     0
  0
ENDTAB
  0
TABLE
  2
DIMSTYLE
 70
     1
  0
DIMSTYLE
  2
STANDARD
 70
     0
  3

  4

  5

  6

  7

 40
1.0
 41
0.1875
 42
0.0625
 43
0.38
 44
0.125
 45
0.0
 46
0.0
 47
0.01
 48
0.01
140
0.15625
141
0.09
142
0.0
143
25.3999999999999986
144
1.0
145
0.0
146
1.0
147
0.09
 71
     1
 72
     0
 73
     1
 74
     1
 75
     0
 76
     0
 77
     0
 78
     4
170
     0
171
     2
172
     0
173
     0
174
     0
175
     0
176
     0
177
     0
178
     0
  0
ENDTAB
  0
ENDSEC
  0
SECTION
  2
BLOCKS
  0
BLOCK
  8
0
  2
$MODEL_SPACE
 70
     0
 10
0.0
 20
0.0
 30
0.0
  3
$MODEL_SPACE
  1

  0
ENDBLK
  5
21
  8
0
  0
BLOCK
 67
     1
  8
0
  2
$PAPER_SPACE
 70
     0
 10
0.0
 20
0.0
 30
0.0
  3
$PAPER_SPACE
  1

  0
ENDBLK
  5
1D
 67
     1
  8
0
  0
ENDSEC
  0
SECTION
  2
ENTITIES
  0
ATTDEF
  5
3930
  8
DEFPOINTS
 10
4734.6788095546717159
 20
335.7105961998328212
 30
0.0
 40
0.001
  1
K-28020PH-HC
  3

  2
MODELNUMBER
 70
     0
1001
ACDBATTR
1070
     0
1070
     1
  0
ATTDEF
  5
3931
  8
DEFPOINTS
 10
4734.6788095546717159
 20
335.7089295331662129
 30
0.0
 40
0.001
  1
SPACITY
  3

  2
TRADENAME
 70
     0
1001
ACDBATTR
1070
     0
1070
     1
  0
ATTDEF
  5
3932
  8
DEFPOINTS
 10
4734.6788095546717159
 20
335.7072628664994909
 30
0.0
 40
0.001
  1
TOILET
  3

  2
PRODUCT
 70
     0
1001
ACDBATTR
1070
     0
1070
     1
  0
LINE
  5
14A90
  8
0
 10
4728.2622439034676063
 20
362.082858455831115
 30
0.0
 11
4733.8032463062681927
 21
362.082858455831115
 31
0.0
  0
ARC
  5
14A91
  8
0
 10
4733.763513406461243
 20
361.9647584558310882
 30
0.0
 40
0.1181
 50
0.0
 51
90.0
  0
ARC
  5
14A92
  8
0
 10
4728.2934857292902961
 20
361.9647584558310882
 30
0.0
 40
0.1181
 50
90.0
 51
178.0585086313317902
  0
LINE
  5
14A93
  8
0
 10
4728.1442172895749536
 20
362.2051211968861253
 30
0.0
 11
4728.1612230848313629
 21
362.687288212367605
 31
0.0
  0
LINE
  5
14A94
  8
0
 10
4733.921340018853698
 20
362.6734164732533259
 30
0.0
 11
4733.9213463062587834
 21
362.2009600274946024
 31
0.0
  0
ARC
  5
14A95
  8
0
 10
4728.2622439034676063
 20
362.2009584558310848
 30
0.0
 40
0.1181
 50
177.9800431163197061
 51
270.0
  0
ARC
  5
14A96
  8
0
 10
4733.8032463062681927
 20
362.2009584558310848
 30
0.0
 40
0.1181
 50
270.0
 51
0.0007624867788888
  0
LINE
  5
14A97
  8
0
 10
4733.8819762273360539
 20
349.8781499921311138
 30
0.0
 11
4733.8816134064618382
 21
349.8781499921311138
 31
0.0
  0
LINE
  5
14A98
  8
0
 10
4731.3173777356905703
 20
349.8781499921311138
 30
0.0
 11
4707.3071730778356141
 21
349.8781499921311138
 31
0.0
  0
LINE
  5
14A99
  8
0
 10
4733.8819762273360539
 20
351.1576621649310823
 30
0.0
 11
4733.8816134064618382
 21
351.1576621649310823
 31
0.0
  0
LINE
  5
14A9A
  8
0
 10
4730.7532661635314071
 20
351.1576621649310823
 30
0.0
 11
4707.3071730777355697
 21
351.1576621649310823
 31
0.0
  0
LINE
  5
14A9B
  8
0
 10
4711.5862691531356177
 20
335.7049062594330167
 30
0.0
 11
4733.8816134064618382
 21
335.7049062594342104
 31
0.0
  0
LINE
  5
14A9C
  8
0
 10
4733.8816134064618382
 20
361.9647584558310882
 30
0.0
 11
4733.8816134064618382
 21
335.704906259431084
 31
0.0
  0
LINE
  5
14A9D
  8
0
 10
4728.1754535252812275
 20
361.9687595577585739
 30
0.0
 11
4727.8293003094422602
 21
351.7572658916955106
 31
0.0
  0
LINE
  5
14A9E
  8
0
 10
4707.5432730970387638
 20
351.452937755431094
 30
0.0
 11
4729.0250921751103306
 21
351.452937755431094
 31
0.0
  0
ARC
  5
14A9F
  8
0
 10
4707.5432730970387638
 20
351.2168377554310723
 30
0.0
 40
0.2361
 50
90.0
 51
179.9999991781567985
  0
ARC
  5
14AA0
  8
0
 10
4727.5144811370200841
 20
351.7679377554310918
 30
0.0
 40
0.315
 50
270.0
 51
358.0585086313317902
  0
LINE
  5
14AA1
  8
0
 10
4707.3071730970386852
 20
351.2168377588175758
 30
0.0
 11
4707.3071730778356141
 21
349.8781499921311138
 31
0.0
  0
ARC
  5
14AA2
  8
0
 10
4709.2747158584370482
 20
350.337318360669201
 30
0.0
 40
2.0204108948818038
 50
193.136095021027586
 51
220.6228733932933039
  0
ARC
  5
14AA3
  8
0
 10
4685.30331247702361
 20
329.7705679919499175
 30
0.0
 40
29.5647027108542098
 50
33.3735967147297217
 51
40.6290029986136503
  0
ARC
  5
14AA4
  8
0
 10
4704.1179471359646413
 20
341.4185241963612043
 30
0.0
 40
7.4710701237059078
 50
358.4521158623114729
 51
38.1540986536784885
  0
LINE
  5
14AA5
  8
0
 10
4711.5862910576370268
 20
341.216712747331087
 30
0.0
 11
4711.5862691531356177
 21
335.7049062594330167
 31
0.0
  0
ARC
  5
14AA6
  8
0
 10
4729.7381622600460105
 20
346.5615100679073066
 30
0.0
 40
3.6734210084708119
 50
14.3068541750708995
 51
64.5385823671467307
  0
ARC
  5
14AA7
  8
0
 10
4705.313551207648743
 20
341.7012438272485042
 30
0.0
 40
28.5723684659057398
 50
0.9519353737311732
 51
11.6465773537220603
  0
CIRCLE
  5
14AA8
  8
0
 10
4729.1575667785364203
 20
337.0828590153311097
 30
0.0
 40
0.5437419538999997
  0
LINE
  5
14AA9
  8
0
 10
4726.044414095461434
 20
356.5628017823311211
 30
0.0
 11
4727.3616856068956622
 21
356.5628017823311211
 31
0.0
  0
LINE
  5
14AAA
  8
0
 10
4707.7942527822488046
 20
353.1010502045658086
 30
0.0
 11
4709.3994470935558638
 21
353.1010502045658086
 31
0.0
  0
LINE
  5
14AAB
  8
0
 10
4707.2630531647746466
 20
352.6226334743030861
 30
0.0
 11
4710.4099112308431359
 21
352.6226334743030861
 31
0.0
  0
LINE
  5
14AAC
  8
0
 10
4707.278107639335758
 20
351.9424002726311187
 30
0.0
 11
4708.9296268677717308
 21
351.9424002726311187
 31
0.0
  0
LINE
  5
14AAD
  8
0
 10
4707.6559729132832217
 20
351.7088436944310956
 30
0.0
 11
4712.4378278868689449
 21
351.7088436944310956
 31
0.0
  0
LINE
  5
14AAE
  8
0
 10
4707.3318805820281341
 20
352.7627147135540895
 30
0.0
 11
4707.7078331177272048
 21
353.0702095230562918
 31
0.0
  0
ARC
  5
14AAF
  8
0
 10
4707.4507788457440256
 20
352.6173460687737133
 30
0.0
 40
0.1878
 50
129.2800283159506023
 51
178.4561722770368988
  0
ARC
  5
14AB0
  8
0
 10
4707.7942527822488046
 20
352.9645502045656826
 30
0.0
 40
0.1365
 50
90.0
 51
129.2800283159506023
  0
LINE
  5
14AB1
  8
0
 10
4707.2456194365513511
 20
351.975775875167983
 30
0.0
 11
4707.26304701549725
 21
352.6224057043560265
 31
0.0
  0
ARC
  5
14AB2
  8
0
 10
4707.278107639335758
 20
351.9749002726310891
 30
0.0
 40
0.0325
 50
178.4561722770368988
 51
270.0
  0
ARC
  5
14AB3
  8
0
 10
4711.2094178045772424
 20
329.776206201480079
 30
0.0
 40
23.3949640252563107
 50
91.9037371174596842
 51
94.4371692505472851
  0
ARC
  5
14AB4
  8
0
 10
4709.3857283078268665
 20
370.3555193253345124
 30
0.0
 40
17.2290736889503009
 50
273.4823099729135834
 51
286.1882621317752751
  0
ARC
  5
14AB5
  8
0
 10
4701.3685557757271454
 20
401.2319282308408219
 30
0.0
 40
49.1248092393236533
 50
285.1281576706264786
 51
289.119907830194677
  0
ARC
  5
14AB6
  8
0
 10
4728.0765318100111472
 20
326.161651728050515
 30
0.0
 40
30.55914520471838
 50
102.6057000806919035
 51
110.3305370908362022
  0
ARC
  5
14AB7
  8
0
 10
4727.5197666564254178
 20
325.8369352050614793
 30
0.0
 40
30.7606585511859087
 50
93.9217610280449264
 51
101.461575873677603
  0
ARC
  5
14AB8
  8
0
 10
4728.2351836625321084
 20
314.2647517510014836
 30
0.0
 40
42.354745988482378
 50
92.9649071172297852
 51
93.8166129410684562
  0
LINE
  5
14AB9
  8
0
 10
4726.429908407367293
 20
356.5420886746903193
 30
0.0
 11
4726.6971686121969469
 21
355.9642678729942986
 31
0.0
  0
ARC
  5
14ABA
  8
0
 10
4726.3975065083886875
 20
356.5271017823311013
 30
0.0
 40
0.0357
 50
24.8220185200390517
 51
90.0
  0
ARC
  5
14ABB
  8
0
 10
4726.4302955557241148
 20
356.0454461041886134
 30
0.0
 40
0.4777883843136124
 50
88.0825414601363406
 51
88.9965413574736459
  0
ARC
  5
14ABC
  8
0
 10
4726.4457315201625534
 20
356.5065175687374222
 30
0.0
 40
0.0164586059345094
 50
34.1266803892070598
 51
88.0825414601363406
  0
ARC
  5
14ABD
  8
0
 10
4898.4353035884487326
 20
448.8681122799047785
 30
0.0
 40
195.2042139839668948
 50
208.2361287262812084
 51
208.4197621676676135
  0
ARC
  5
14ABE
  8
0
 10
4726.4202168679175884
 20
355.825660771635512
 30
0.0
 40
0.3637735394220661
 50
353.7123364959335277
 51
22.5292105047720703
  0
ARC
  5
14ABF
  8
0
 10
4726.4872933816359364
 20
356.5251675627991972
 30
0.0
 40
0.0433768432978882
 50
119.8178202113342934
 51
182.8129796308396919
  0
LINE
  5
14AC0
  8
0
 10
4727.3839350326770727
 20
356.5500632926737126
 30
0.0
 11
4727.6478044783480073
 21
356.100579006918224
 31
0.0
  0
ARC
  5
14AC1
  8
0
 10
4727.3616856068956622
 20
356.5370017823311173
 30
0.0
 40
0.0258
 50
30.4150357755869507
 51
90.0
  0
LINE
  5
14AC2
  8
0
 10
4707.5810347027918397
 20
351.9424002726311187
 30
0.0
 11
4707.5763521957360354
 21
351.8079692758046804
 31
0.0
  0
LINE
  5
14AC3
  8
0
 10
4707.6347201225707977
 20
351.7875835003310954
 30
0.0
 11
4707.6362796642060857
 21
351.7280279999669119
 31
0.0
  0
ARC
  5
14AC4
  8
0
 10
4707.6559729132832217
 20
351.7285436944310959
 30
0.0
 40
0.0197
 50
181.5000249701236044
 51
270.0
  0
LINE
  5
14AC5
  8
0
 10
4707.5960402558739588
 20
351.7875835003310954
 30
0.0
 11
4712.6253657284478322
 21
351.7875835003310954
 31
0.0
  0
ARC
  5
14AC6
  8
0
 10
4707.5960402558739588
 20
351.8072835003310956
 30
0.0
 40
0.0197
 50
178.0050771392598961
 51
270.0
  0
LINE
  5
14AC7
  8
0
 10
4709.3352081586617714
 20
351.7088440947310914
 30
0.0
 11
4709.5791257181190304
 21
351.4529377555310816
 31
0.0
  0
LINE
  5
14AC8
  8
0
 10
4711.1625426243617767
 20
351.7088448847310929
 30
0.0
 11
4710.9401292787488273
 21
351.4529377555310816
 31
0.0
  0
ARC
  5
14AC9
  8
0
 10
4705.0696458575857832
 20
423.6585447264840241
 30
0.0
 40
71.2363609520064784
 50
274.2992367582760949
 51
275.6989719649967014
  0
ARC
  5
14ACA
  8
0
 10
4707.5560741247272745
 20
389.9327231146410782
 30
0.0
 40
37.4405507539315181
 50
277.037964032327011
 51
282.6845513318457961
  0
ARC
  5
14ACB
  8
0
 10
4695.5592989072638375
 20
446.3941430538445161
 30
0.0
 40
95.1607816827662134
 50
282.2666953846327829
 51
284.0839575289027152
  0
ARC
  5
14ACC
  8
0
 10
4753.6785478620031427
 20
218.0376631437773085
 30
0.0
 40
140.4765794840834019
 50
102.8038921059736026
 51
104.4115349398090018
  0
ARC
  5
14ACD
  8
0
 10
4782.7597877530206461
 20
81.2241929795685564
 30
0.0
 40
280.3397827699849927
 50
101.7335248931716052
 51
102.4029433670583984
  0
ARC
  5
14ACE
  8
0
 10
4722.8514627651229603
 20
373.4985025666791785
 30
0.0
 40
18.0270334663406899
 50
279.2521014218218056
 51
282.3523305411815159
  0
ARC
  5
14ACF
  8
0
 10
4726.6248080741370359
 20
355.9155265001988937
 30
0.0
 40
0.0872454519758024
 50
342.1504526343865109
 51
33.9638344678955377
  0
ARC
  5
14AD0
  8
0
 10
4690.6612521830584228
 20
782.8227126389848536
 30
0.0
 40
431.2674078788560905
 50
272.4277606562400251
 51
272.6600761255941165
  0
ARC
  5
14AD1
  8
0
 10
4709.4813509856230667
 20
372.3972832358434175
 30
0.0
 40
20.4122902258518018
 50
273.3567527120217733
 51
276.3097565459348743
  0
ARC
  5
14AD2
  8
0
 10
4705.6842665963768013
 20
401.2586851811867064
 30
0.0
 40
49.5198309439847222
 50
277.0064331323808915
 51
281.7943318752996902
  0
ARC
  5
14AD3
  8
0
 10
4694.2269772839672441
 20
456.1287523468978975
 30
0.0
 40
105.5733210151475987
 50
281.7943318752996902
 51
283.6043556382035149
  0
ARC
  5
14AD4
  8
0
 10
4842.1480306049670617
 20
-155.1002870107543004
 30
0.0
 40
523.2999385289937209
 50
103.290960378210201
 51
103.6043556382034012
  0
ARC
  5
14AD5
  8
0
 10
4690.7066968389262911
 20
485.9934092118685953
 30
0.0
 40
135.4379493362953895
 50
283.2909603782101726
 51
284.4817732458727164
  0
ARC
  5
14AD6
  8
0
 10
4886.6958554537595774
 20
-272.8361953611999979
 30
0.0
 40
648.2929477649163346
 50
104.3480332712638017
 51
104.4817732458727022
  0
ARC
  5
14AD7
  8
0
 10
4725.7540929305987447
 20
356.3591870293220722
 30
0.0
 40
1.159960570720183
 50
284.3480332712637733
 51
310.1156965578780955
  0
ARC
  5
14AD8
  8
0
 10
4725.9122680915652381
 20
356.0233686143026262
 30
0.0
 40
0.8068889749910026
 50
316.9068603393783974
 51
350.3985163666498011
  0
ARC
  5
14AD9
  8
0
 10
4713.9227759878376673
 20
322.4045516211288032
 30
0.0
 40
29.4116615612818784
 50
90.8824830434076603
 51
92.528257756174014
  0
ARC
  5
14ADA
  8
0
 10
4713.0250674003909808
 20
380.6842503999455971
 30
0.0
 40
28.8749507133871504
 50
270.8824830434076034
 51
275.5241750511527812
  0
ARC
  5
14ADB
  8
0
 10
4713.8094561382031316
 20
372.5739319027521219
 30
0.0
 40
20.7267894595873692
 50
275.5241750511527812
 51
284.6237624919697282
  0
ARC
  5
14ADC
  8
0
 10
4713.7326789402450231
 20
372.8681837591499857
 30
0.0
 40
21.0308928846249685
 50
284.6237624919697282
 51
289.9601871297352886
  0
ARC
  5
14ADD
  8
0
 10
4991.5511995964770904
 20
-392.0853693159839963
 30
0.0
 40
792.810042914188557
 50
109.8220947982321007
 51
109.9601871297354023
  0
ARC
  5
14ADE
  8
0
 10
4710.4659765104506732
 20
387.7152186609916953
 30
0.0
 40
36.1036194455037887
 50
289.822094798232115
 51
291.5926773375866787
  0
ARC
  5
14ADF
  8
0
 10
4723.4196999698060608
 20
354.9856273226378107
 30
0.0
 40
0.9038310848175676
 50
291.5926773375866787
 51
328.3546504964505743
  0
ARC
  5
14AE0
  8
0
 10
4723.1988083518272106
 20
355.1217618764654844
 30
0.0
 40
1.1633030941742699
 50
328.3546504964505743
 51
343.5005782299672887
  0
ARC
  5
14AE1
  8
0
 10
4711.5886553744967387
 20
406.4649760211588045
 30
0.0
 40
54.7627165262817712
 50
270.8884868051077888
 51
272.7063776289421071
  0
ARC
  5
14AE2
  8
0
 10
4712.2765441760757312
 20
391.912753914994596
 30
0.0
 40
40.1942451160591077
 50
272.7063776289421071
 51
275.0572768859084931
  0
ARC
  5
14AE3
  8
0
 10
4713.0362776163201488
 20
383.3278144223875188
 30
0.0
 40
31.5757544714072793
 50
275.0572768859084931
 51
277.7749843992036176
  0
ARC
  5
14AE4
  8
0
 10
4715.7291916649310224
 20
363.605024423331372
 30
0.0
 40
11.6699706028914605
 50
277.7749843992036176
 51
286.3801233424151178
  0
ARC
  5
14AE5
  8
0
 10
4710.9541643500051578
 20
381.2468601746710988
 30
0.0
 40
29.944947348331219
 50
285.6263632096236051
 51
289.5463373905271851
  0
ARC
  5
14AE6
  8
0
 10
4494.3365498737593953
 20
971.2380621956256164
 30
0.0
 40
658.4437480558002562
 50
290.1329620114000249
 51
290.2960921585336109
  0
ARC
  5
14AE7
  8
0
 10
5059.8329901994529791
 20
-536.3846696285803546
 30
0.0
 40
951.7583402494138909
 50
110.6773682982085063
 51
110.743659095843995
  0
ARC
  5
14AE8
  8
0
 10
4723.5772419874747357
 20
354.6835014400862178
 30
0.0
 40
0.64571064099116
 50
286.6319316769597094
 51
308.1520491436646125
  0
ARC
  5
14AE9
  8
0
 10
4723.233695142108445
 20
355.1208242193433193
 30
0.0
 40
1.2018362097421891
 50
308.1520491436646125
 51
345.1178196279485064
  0
LINE
  5
14AEA
  8
0
 10
4714.7358678315931684
 20
351.7938173936054227
 30
0.0
 11
4715.0425773994611518
 21
351.5492757909311194
 31
0.0
  0
ARC
  5
14AEB
  8
0
 10
4715.1517158760152597
 20
351.6861597183104209
 30
0.0
 40
0.1750668918994402
 50
231.4344087310805946
 51
262.4269731344252818
  0
LINE
  5
14AEC
  8
0
 10
4715.1286438556617213
 20
351.5126198136310904
 30
0.0
 11
4717.391851966311151
 21
351.5119879478580174
 31
0.0
  0
LINE
  5
14AED
  8
0
 10
4717.4850523872710255
 20
352.0679031621114063
 30
0.0
 11
4717.4310526923318321
 21
351.5473228040028175
 31
0.0
  0
ARC
  5
14AEE
  8
0
 10
4717.3918629664085529
 20
351.551387946322393
 30
0.0
 40
0.0394
 50
269.9840035739842961
 51
354.0779001538381863
  0
ARC
  5
14AEF
  8
0
 10
4718.2541264638102803
 20
351.5880397225088814
 30
0.0
 40
0.4185599309820695
 50
175.7651067553400992
 51
198.8310143060272992
  0
ARC
  5
14AF0
  8
0
 10
4722.1985443729799954
 20
351.2959645567498796
 30
0.0
 40
4.3737768080491302
 50
172.7646311475463108
 51
175.7651067553400992
  0
ARC
  5
14AF1
  8
0
 10
4717.909318004159104
 20
351.849196049723389
 30
0.0
 40
0.0497792930258679
 50
99.4727949762309862
 51
182.7327552306396115
  0
ARC
  5
14AF2
  8
0
 10
4691.8463518983053291
 20
436.2383608983203089
 30
0.0
 40
88.2728592231196245
 50
287.1672381235931084
 51
291.34694233385909
  0
ARC
  5
14AF3
  8
0
 10
4723.5582960258789171
 20
354.9211223363942054
 30
0.0
 40
0.9930097810924893
 50
295.0628749414951244
 51
355.9917684995427862
  0
LINE
  5
14AF4
  8
0
 10
4727.6654850345730665
 20
356.0387692004139808
 30
0.0
 11
4727.7783636072899753
 21
351.7597368571014727
 31
0.0
  0
ARC
  5
14AF5
  8
0
 10
4727.5367298256142021
 20
356.0353727072233028
 30
0.0
 40
0.1288
 50
1.5110814166873161
 51
30.4150357755869507
  0
ARC
  5
14AF6
  8
0
 10
4725.8565146189621373
 20
356.3877358556932222
 30
0.0
 40
1.3156894785185711
 50
256.4179964202078281
 51
271.8868340049813241
  0
ARC
  5
14AF7
  8
0
 10
4725.8660041351049586
 20
356.0996804881049229
 30
0.0
 40
1.0274778449694559
 50
271.8868340049813241
 51
306.6120583224019924
  0
ARC
  5
14AF8
  8
0
 10
4725.9044284802739639
 20
355.9608996997720283
 30
0.0
 40
0.8946716667554913
 50
309.9392692308633173
 51
348.7148863391661848
  0
LINE
  5
14AF9
  8
0
 10
4726.8220790599107204
 20
355.9078752341310974
 30
0.0
 11
4727.6654850345730665
 21
356.0387692004139808
 31
0.0
  0
ARC
  5
14AFA
  8
0
 10
4727.2474615962128155
 20
355.6919976364599734
 30
0.0
 40
0.4770256170962071
 50
153.0926391317418904
 51
166.7199208915986901
  0
ARC
  5
14AFB
  8
0
 10
4718.3951095556458313
 20
351.6082362857803219
 30
0.0
 40
0.438957002681843
 50
175.9329146371580066
 51
200.7192950534686133
  0
ARC
  5
14AFC
  8
0
 10
4477.4079376843992577
 20
472.5046087291258914
 30
0.0
 40
269.2069494930066185
 50
333.3225245678954138
 51
333.3441873561006901
  0
ARC
  5
14AFD
  8
0
 10
4718.0498531683288093
 20
351.7080545788850259
 30
0.0
 40
0.0519329100100902
 50
92.0558393955309242
 51
154.6050846661318019
  0
LINE
  5
14AFE
  8
0
 10
4718.047990154764193
 20
351.75995406175889
 30
0.0
 11
4723.0030177668622855
 21
351.7600243697311271
 31
0.0
  0
ARC
  5
14AFF
  8
0
 10
4717.8519554506101485
 20
351.6220131806222753
 30
0.0
 40
0.0153595461399676
 50
99.2249621535868584
 51
162.8595284523877922
  0
ARC
  5
14B00
  8
0
 10
4717.9297949718484233
 20
350.3411879988996134
 30
0.0
 40
1.298471521222625
 50
88.7880889986194433
 51
93.5456255162148835
  0
LINE
  5
14B01
  8
0
 10
4723.622413770561252
 20
351.7600243697311271
 30
0.0
 11
4727.7783636072899753
 21
351.7597368571014727
 31
0.0
  0
LINE
  5
14B02
  8
0
 10
4727.3121812686704288
 20
351.759769108046612
 30
0.0
 11
4727.3121812686704288
 21
351.4529377555310816
 31
0.0
  0
LINE
  5
14B03
  8
0
 10
4727.3121812686704288
 20
351.6303703598765082
 30
0.0
 11
4727.3783601634204388
 21
351.5972809125308913
 31
0.0
  0
ARC
  5
14B04
  8
0
 10
4727.3695576185764367
 20
351.5796758228271983
 30
0.0
 40
0.0196830886603013
 50
0.9867140556526725
 51
63.4349488432419832
  0
LINE
  5
14B05
  8
0
 10
4727.3892377885340466
 20
351.580014776593373
 30
0.0
 11
4727.3914264502664082
 21
351.4529377555310816
 31
0.0
  0
LINE
  5
14B06
  8
0
 10
4727.7723425608028265
 20
351.9879843626982847
 30
0.0
 11
4727.8371212946267406
 21
351.9879843626982847
 31
0.0
  0
LINE
  5
14B07
  8
0
 10
4727.7660030821607506
 20
352.2304968106311094
 30
0.0
 11
4727.8453420766682029
 21
352.2304968106311094
 31
0.0
  0
LINE
  5
14B08
  8
0
 10
4723.0072638613619347
 20
351.5167657789310738
 30
0.0
 11
4723.6181763892609524
 21
351.5172649583311113
 31
0.0
  0
LINE
  5
14B09
  8
0
 10
4723.6181763892609524
 20
351.5172649583311113
 30
0.0
 11
4723.6286407842608241
 21
352.1167697505310912
 31
0.0
  0
LINE
  5
14B0A
  8
0
 10
4723.0072638613619347
 20
351.5167657789310738
 30
0.0
 11
4722.9967906760612095
 21
352.116774158831106
 31
0.0
  0
LINE
  5
14B0B
  8
0
 10
4722.9717477933163536
 20
351.7600239260345916
 30
0.0
 11
4722.9773943730970132
 21
352.0835167254797966
 31
0.0
  0
ARC
  5
14B0C
  8
0
 10
4723.016788372303381
 20
352.0828291016446769
 30
0.0
 40
0.0394
 50
90.0191024864218861
 51
179.000001423129703
  0
LINE
  5
14B0D
  8
0
 10
4723.653683782718872
 20
351.7600222064414197
 30
0.0
 11
4723.6480337205348405
 21
352.0837140504688136
 31
0.0
  0
ARC
  5
14B0E
  8
0
 10
4723.6086397213448436
 20
352.0830264256514965
 30
0.0
 40
0.0394
 50
1.000000005411992
 51
90.0191024864218861
  0
LINE
  5
14B0F
  8
0
 10
4723.0167752362931424
 20
352.1222290994550121
 30
0.0
 11
4723.6086265853364239
 21
352.1224264234616044
 31
0.0
  0
LINE
  5
14B10
  8
0
 10
4723.0374870437808568
 20
351.6104180705311251
 30
0.0
 11
4723.5879444936426808
 21
351.6104180705311251
 31
0.0
  0
ARC
  5
14B11
  8
0
 10
4723.5879444936426808
 20
351.6301180705311253
 30
0.0
 40
0.0197
 50
270.0
 51
0.9999999989071593
  0
ARC
  5
14B12
  8
0
 10
4723.0374870437808568
 20
351.6301180705311253
 30
0.0
 40
0.0197
 50
178.9999999987896047
 51
270.0
  0
LINE
  5
14B13
  8
0
 10
4723.5999109336153197
 20
352.0733453475374972
 30
0.0
 11
4723.6076414932367697
 21
351.6304618829375954
 31
0.0
  0
ARC
  5
14B14
  8
0
 10
4723.5802139340212307
 20
352.073001535131084
 30
0.0
 40
0.0197
 50
0.9999999989071593
 51
90.0000000107346949
  0
LINE
  5
14B15
  8
0
 10
4723.0255206038227698
 20
352.0733453474383055
 30
0.0
 11
4723.0177900441858583
 21
351.6304618829383912
 31
0.0
  0
ARC
  5
14B16
  8
0
 10
4723.0452176034177683
 20
352.0730015350310964
 30
0.0
 40
0.0197
 50
90.0000000107346949
 51
178.9999999987896047
  0
LINE
  5
14B17
  8
0
 10
4723.0452176034141303
 20
352.0927015350310967
 30
0.0
 11
4723.5802139340175927
 21
352.0927015351310843
 31
0.0
  0
LINE
  5
14B18
  8
0
 10
4722.9991006853088038
 20
351.9844338185311017
 30
0.0
 11
4723.0239686473114489
 21
351.9844338185311017
 31
0.0
  0
LINE
  5
14B19
  8
0
 10
4723.0015059108081914
 20
351.846638542931089
 30
0.0
 11
4723.0215634218257037
 21
351.846638542931089
 31
0.0
  0
LINE
  5
14B1A
  8
0
 10
4723.6226886534623191
 20
351.7757724012311087
 30
0.0
 11
4723.6051050887081146
 21
351.7757724012311087
 31
0.0
  0
LINE
  5
14B1B
  8
0
 10
4723.6219978480894497
 20
351.736196189431098
 30
0.0
 11
4723.6058008619766042
 21
351.7359115772920859
 31
0.0
  0
ARC
  5
14B1C
  8
0
 10
4723.18273719814988
 20
352.0779775086471091
 30
0.0
 40
0.0470385977122375
 50
109.6413898728152958
 51
161.7586698866655865
  0
ARC
  5
14B1D
  8
0
 10
4723.4183978892251616
 20
352.0915987032153112
 30
0.0
 40
0.0326900107545947
 50
1.9333000845605559
 51
70.2548022222948134
  0
LINE
  5
14B1E
  8
0
 10
4726.634023297560816
 20
351.7600230150310949
 30
0.0
 11
4726.6375167505611898
 21
351.9879818267310725
 31
0.0
  0
ARC
  5
14B1F
  8
0
 10
4726.9986077194471363
 20
351.9824481326434125
 30
0.0
 40
0.3611333681357874
 50
150.1224405061136906
 51
179.1220148758106063
  0
ARC
  5
14B20
  8
0
 10
4726.8048749871259133
 20
352.0937484506422948
 30
0.0
 40
0.1377052312346765
 50
83.2416455450687067
 51
150.1224405061136906
  0
LINE
  5
14B21
  8
0
 10
4726.6735790700622601
 20
351.7600243149311154
 30
0.0
 11
4726.6771021277609179
 21
351.9879832342310806
 31
0.0
  0
ARC
  5
14B22
  8
0
 10
4727.0597573653958534
 20
351.9820693770960816
 30
0.0
 40
0.3827009336228181
 50
160.8322382510280022
 51
179.1145761308879969
  0
ARC
  5
14B23
  8
0
 10
4726.9177732038597242
 20
352.0314239335359048
 30
0.0
 40
0.2323833552475921
 50
130.7271212037030068
 51
160.8322382510280022
  0
ARC
  5
14B24
  8
0
 10
4726.8288839696297146
 20
352.1346683081861215
 30
0.0
 40
0.096145706783608
 50
94.6554505288436161
 51
130.7271212037009036
  0
ARC
  5
14B25
  8
0
 10
4726.828895628805185
 20
352.134525131757016
 30
0.0
 40
0.0962893571446325
 50
54.1618984265981069
 51
94.6554505288436161
  0
ARC
  5
14B26
  8
0
 10
4726.7780294276408313
 20
352.0640961688907851
 30
0.0
 40
0.183166334712331
 50
23.9746814024853911
 51
54.1618984265981069
  0
ARC
  5
14B27
  8
0
 10
4726.5419307076190307
 20
351.9591032331920815
 30
0.0
 40
0.4415577473842161
 50
11.8721611989506197
 51
23.9746814024853911
  0
LINE
  5
14B28
  8
0
 10
4726.9740431196451027
 20
352.0499443452945911
 30
0.0
 11
4726.992135249461171
 21
351.7600243652311178
 31
0.0
  0
LINE
  5
14B29
  8
0
 10
4726.7107399590859131
 20
351.7598107163382224
 30
0.0
 11
4726.716781386868206
 21
352.0205456499696766
 31
0.0
  0
ARC
  5
14B2A
  8
0
 10
4726.9604701929438306
 20
351.9919389755801831
 30
0.0
 40
0.2453621324198729
 50
149.7723003781322006
 51
173.3046804012500957
  0
ARC
  5
14B2B
  8
0
 10
4726.8544201140439327
 20
352.0557182018354752
 30
0.0
 40
0.1216347820494756
 50
115.5295527825495014
 51
150.581422998102795
  0
ARC
  5
14B2C
  8
0
 10
4726.8310029339136236
 20
352.096226107945995
 30
0.0
 40
0.075079575763388
 50
48.0612594636248787
 51
112.7255641767203969
  0
ARC
  5
14B2D
  8
0
 10
4726.7566457884377087
 20
352.0159086138003204
 30
0.0
 40
0.18452728436864
 50
14.7808575637365607
 51
47.5544397250475868
  0
ARC
  5
14B2E
  8
0
 10
4726.6248816026127315
 20
351.9705087989793242
 30
0.0
 40
0.3236770773400865
 50
2.547172420482732
 51
16.6011347854551801
  0
ARC
  5
14B2F
  8
0
 10
13932.5062113329404383
 20
792.6455546395466172
 30
0.0
 40
9216.0989253807929344
 50
182.7405984374663035
 51
182.7419994706646094
  0
ARC
  5
14B30
  8
0
 10
4726.8535356285156013
 20
352.0755622525891795
 30
0.0
 40
0.0564750040848741
 50
47.1705282410922706
 51
127.7571927360453969
  0
ARC
  5
14B31
  8
0
 10
4726.7232824815819185
 20
351.9743360583591993
 30
0.0
 40
0.2208816637165646
 50
320.3614824642679082
 51
40.2251634254239292
  0
ARC
  5
14B32
  8
0
 10
4726.8521598432271276
 20
351.8769909862870122
 30
0.0
 40
0.0599748051076128
 50
209.1132955582220063
 51
313.4161176485877149
  0
ARC
  5
14B33
  8
0
 10
4726.9877770082821371
 20
351.9714405893507774
 30
0.0
 40
0.2250195962344046
 50
138.6124259539909076
 51
213.3270383930804996
  0
ARC
  5
14B34
  8
0
 10
4726.7922618917946238
 20
352.0674753170220015
 30
0.0
 40
0.0649664159894338
 50
99.4016112600105117
 51
132.3824519431771023
  0
ARC
  5
14B35
  8
0
 10
4726.8301567733133197
 20
349.9723605760602254
 30
0.0
 40
2.1597532991060779
 50
89.4290882695525653
 51
91.2869535742868692
  0
ARC
  5
14B36
  8
0
 10
4726.8309478472583578
 20
351.926328125150917
 30
0.0
 40
0.1236047251909474
 50
198.4438617577137052
 51
233.6245585844118864
  0
ARC
  5
14B37
  8
0
 10
4726.7872349913359358
 20
351.8669842119701912
 30
0.0
 40
0.0498991364985446
 50
233.6245585844100106
 51
271.846417316512202
  0
ARC
  5
14B38
  8
0
 10
4726.8190701092171366
 20
350.8794574978946912
 30
0.0
 40
0.9381405822088366
 50
88.218306284138265
 51
91.8464173165121736
  0
LINE
  5
14B39
  8
0
 10
4726.9091333703463533
 20
351.8549704162675766
 30
0.0
 11
4726.9091333703463533
 21
351.7597969912899885
 31
0.0
  0
LINE
  5
14B3A
  8
0
 10
4724.5957029627979864
 20
353.4627802752311254
 30
0.0
 11
4726.3906303671610658
 21
353.4627802752311254
 31
0.0
  0
LINE
  5
14B3B
  8
0
 10
4724.4737029627967786
 20
353.3407802752311113
 30
0.0
 11
4724.4737029627967786
 21
352.2540716138311154
 31
0.0
  0
LINE
  5
14B3C
  8
0
 10
4724.5957029627979864
 20
352.1320716138311013
 30
0.0
 11
4726.3906303671610658
 21
352.1320716138311013
 31
0.0
  0
LINE
  5
14B3D
  8
0
 10
4726.5126303671613641
 20
352.2540716138311154
 30
0.0
 11
4726.5126303671613641
 21
353.3407802752311113
 31
0.0
  0
ARC
  5
14B3E
  8
0
 10
4724.5957029627979864
 20
353.3407802752311113
 30
0.0
 40
0.122
 50
90.0
 51
179.9999999999967031
  0
ARC
  5
14B3F
  8
0
 10
4724.5957029627979864
 20
352.2540716138311154
 30
0.0
 40
0.122
 50
180.0000000000032117
 51
270.0
  0
ARC
  5
14B40
  8
0
 10
4726.3906303671610658
 20
352.2540716138311154
 30
0.0
 40
0.122
 50
270.0
 51
359.9999999999968168
  0
ARC
  5
14B41
  8
0
 10
4726.3906303671610658
 20
353.3407802752311113
 30
0.0
 40
0.122
 50
0.0000000000032569
 51
90.0
  0
ARC
  5
14B42
  8
0
 10
4726.2672588879668183
 20
353.332663280772806
 30
0.0
 40
0.1544603432139615
 50
1.6318283230779851
 51
57.3941538076511293
  0
ARC
  5
14B43
  8
0
 10
5513.6758077404456344
 20
375.7647362412693042
 30
0.0
 40
787.573551538597826
 50
181.6318283230779969
 51
181.7100490813544127
  0
ARC
  5
14B44
  8
0
 10
4726.3088082133799617
 20
352.2580109237781016
 30
0.0
 40
0.144264737894611
 50
299.1939465192008925
 51
1.710049081354464
  0
LINE
  5
14B45
  8
0
 10
4726.3411194676618834
 20
352.8958511005311038
 30
0.0
 11
4726.3445840045606019
 21
352.699001185731106
 31
0.0
  0
LINE
  5
14B46
  8
0
 10
4726.3445840045606019
 20
352.699001185731106
 30
0.0
 11
4726.3954568056997232
 21
352.79742545485351
 31
0.0
  0
LINE
  5
14B47
  8
0
 10
4726.3954568056997232
 20
352.79742545485351
 30
0.0
 11
4726.3411194676618834
 21
352.8958511005311038
 31
0.0
  0
LINE
  5
14B48
  8
0
 10
4724.6369230129612333
 20
352.5026643046310824
 30
0.0
 11
4724.6405453795614449
 21
352.2995803734311266
 31
0.0
  0
LINE
  5
14B49
  8
0
 10
4724.6405453795614449
 20
352.2995803734311266
 30
0.0
 11
4726.2999620482432874
 21
352.2992691703589117
 31
0.0
  0
LINE
  5
14B4A
  8
0
 10
4726.2999620482432874
 20
352.2992691703589117
 30
0.0
 11
4726.2963824551616199
 21
352.5026796613311149
 31
0.0
  0
LINE
  5
14B4B
  8
0
 10
4726.2963824551616199
 20
352.5026796613311149
 30
0.0
 11
4724.6369230129612333
 21
352.5026643046310824
 31
0.0
  0
LINE
  5
14B4C
  8
0
 10
4725.523771327157192
 20
352.50266122968128
 30
0.0
 11
4725.5240284689989494
 21
352.3382069769421037
 31
0.0
  0
ARC
  5
14B4D
  8
0
 10
4725.5166930222640076
 20
352.3381955071852758
 30
0.0
 40
0.0073354557028929
 50
269.873016099021072
 51
0.089588016493511
  0
ARC
  5
14B4E
  8
0
 10
4725.5250843488047394
 20
352.3594359257269275
 30
0.0
 40
0.0297870278476375
 50
207.902066378900912
 51
253.6050704828620042
  0
ARC
  5
14B4F
  8
0
 10
4727.4264803820269663
 20
353.1919529925427241
 30
0.0
 40
2.105372574260556
 50
200.263514576817812
 51
203.7061353575936096
  0
LINE
  5
14B50
  8
0
 10
4725.451410011461121
 20
352.4627817453310854
 30
0.0
 11
4724.6376430396821888
 21
352.4623050934083039
 31
0.0
  0
LINE
  5
14B51
  8
0
 10
4724.6369230129612333
 20
352.7174870250768777
 30
0.0
 11
4724.6405453795614449
 21
352.514403093876922
 31
0.0
  0
LINE
  5
14B52
  8
0
 10
4724.6405453795614449
 20
352.514403093876922
 30
0.0
 11
4726.2999620482432874
 21
352.514091890804707
 31
0.0
  0
LINE
  5
14B53
  8
0
 10
4726.2999620482432874
 20
352.514091890804707
 30
0.0
 11
4726.2963824551616199
 21
352.7175023817769102
 31
0.0
  0
LINE
  5
14B54
  8
0
 10
4726.2963824551616199
 20
352.7175023817769102
 30
0.0
 11
4724.6369230129612333
 21
352.7174870250768777
 31
0.0
  0
LINE
  5
14B55
  8
0
 10
4725.523771327157192
 20
352.7174839501270753
 30
0.0
 11
4725.5240284689989494
 21
352.553029697387899
 31
0.0
  0
ARC
  5
14B56
  8
0
 10
4725.5166930222640076
 20
352.553018227631128
 30
0.0
 40
0.0073354557028929
 50
269.873016099021072
 51
0.089588016493511
  0
ARC
  5
14B57
  8
0
 10
4725.5250843488047394
 20
352.5742586461727228
 30
0.0
 40
0.0297870278476375
 50
207.902066378900912
 51
253.6050704828620042
  0
ARC
  5
14B58
  8
0
 10
4727.4264803820269663
 20
353.4067757129885194
 30
0.0
 40
2.105372574260556
 50
200.263514576817812
 51
203.7061353575936096
  0
LINE
  5
14B59
  8
0
 10
4725.451410011461121
 20
352.6776044657768807
 30
0.0
 11
4724.6376430396821888
 21
352.6771278138542129
 31
0.0
  0
LINE
  5
14B5A
  8
0
 10
4724.6369230129612333
 20
352.929578110564421
 30
0.0
 11
4724.6405453795614449
 21
352.7264941793644084
 31
0.0
  0
LINE
  5
14B5B
  8
0
 10
4724.6405453795614449
 20
352.7264941793644084
 30
0.0
 11
4726.2999620482432874
 21
352.7261829762921934
 31
0.0
  0
LINE
  5
14B5C
  8
0
 10
4726.2999620482432874
 20
352.7261829762921934
 30
0.0
 11
4726.2963824551616199
 21
352.9295934672643966
 31
0.0
  0
LINE
  5
14B5D
  8
0
 10
4726.2963824551616199
 20
352.9295934672643966
 30
0.0
 11
4724.6369230129612333
 21
352.929578110564421
 31
0.0
  0
LINE
  5
14B5E
  8
0
 10
4725.523771327157192
 20
352.9295750356146186
 30
0.0
 11
4725.5240284689989494
 21
352.7651207828753854
 31
0.0
  0
ARC
  5
14B5F
  8
0
 10
4725.5166930222640076
 20
352.7651093131186144
 30
0.0
 40
0.0073354557028929
 50
269.873016099021072
 51
0.089588016493511
  0
ARC
  5
14B60
  8
0
 10
4725.5250843488047394
 20
352.7863497316602093
 30
0.0
 40
0.0297870278476375
 50
207.902066378900912
 51
253.6050704828620042
  0
ARC
  5
14B61
  8
0
 10
4727.4264803820269663
 20
353.6188667984760059
 30
0.0
 40
2.105372574260556
 50
200.263514576817812
 51
203.7061353575936096
  0
LINE
  5
14B62
  8
0
 10
4725.451410011461121
 20
352.889695551264424
 30
0.0
 11
4724.6376430396821888
 21
352.8892188993415857
 31
0.0
  0
LINE
  5
14B63
  8
0
 10
4724.6369230129612333
 20
353.1421142870182166
 30
0.0
 11
4724.6405453795614449
 21
352.9390303558183177
 31
0.0
  0
LINE
  5
14B64
  8
0
 10
4724.6405453795614449
 20
352.9390303558183177
 30
0.0
 11
4726.2999620482432874
 21
352.938719152745989
 31
0.0
  0
LINE
  5
14B65
  8
0
 10
4726.2999620482432874
 20
352.938719152745989
 30
0.0
 11
4726.2963824551616199
 21
353.1421296437183059
 31
0.0
  0
LINE
  5
14B66
  8
0
 10
4726.2963824551616199
 20
353.1421296437183059
 30
0.0
 11
4724.6369230129612333
 21
353.1421142870182166
 31
0.0
  0
LINE
  5
14B67
  8
0
 10
4725.523771327157192
 20
353.1421112120685279
 30
0.0
 11
4725.5240284689989494
 21
352.9776569593292948
 31
0.0
  0
ARC
  5
14B68
  8
0
 10
4725.5166930222640076
 20
352.97764548957241
 30
0.0
 40
0.0073354557028929
 50
269.873016099021072
 51
0.089588016493511
  0
ARC
  5
14B69
  8
0
 10
4725.5250843488047394
 20
352.9988859081141186
 30
0.0
 40
0.0297870278476375
 50
207.902066378900912
 51
253.6050704828620042
  0
ARC
  5
14B6A
  8
0
 10
4727.4264803820269663
 20
353.8314029749298015
 30
0.0
 40
2.105372574260556
 50
200.263514576817812
 51
203.7061353575936096
  0
LINE
  5
14B6B
  8
0
 10
4725.451410011461121
 20
353.1022317277182196
 30
0.0
 11
4724.6376430396821888
 21
353.101755075795495
 31
0.0
  0
LINE
  5
14B6C
  8
0
 10
4724.6391080927851363
 20
353.2343496481253169
 30
0.0
 11
4724.6405453795614449
 21
353.1537697728633134
 31
0.0
  0
LINE
  5
14B6D
  8
0
 10
4724.6405453795614449
 20
353.1537697728633134
 30
0.0
 11
4726.2999620482432874
 21
353.1534585697909847
 31
0.0
  0
LINE
  5
14B6E
  8
0
 10
4726.2999620482432874
 20
353.1534585697909847
 30
0.0
 11
4726.298516525091145
 21
353.2356004689793849
 31
0.0
  0
LINE
  5
14B6F
  8
0
 10
4725.5239065314162872
 20
353.2703811732163786
 30
0.0
 11
4725.5240284689989494
 21
353.1923963763741767
 31
0.0
  0
ARC
  5
14B70
  8
0
 10
4725.5166930222640076
 20
353.1923849066174057
 30
0.0
 40
0.0073354557028929
 50
269.873016099021072
 51
0.089588016493511
  0
ARC
  5
14B71
  8
0
 10
4725.5250843488047394
 20
353.2136253251591143
 30
0.0
 40
0.0297870278476375
 50
207.902066378900912
 51
253.6050704828620042
  0
ARC
  5
14B72
  8
0
 10
4727.4264803820269663
 20
354.0461423919747972
 30
0.0
 40
2.105372574260556
 50
202.2126364199532986
 51
203.7061353575936096
  0
LINE
  5
14B73
  8
0
 10
4724.6745025379395884
 20
353.270380970274573
 30
0.0
 11
4726.2631220803386896
 21
353.270377600523716
 31
0.0
  0
ARC
  5
14B74
  8
0
 10
4724.6745024628507963
 20
353.2349809702747052
 30
0.0
 40
0.0354
 50
89.9998784652380834
 51
181.0218647562493004
  0
ARC
  5
14B75
  8
0
 10
4726.2631220052480785
 20
353.2349776005237914
 30
0.0
 40
0.0354
 50
1.008180095482917
 51
89.9998784652380834
  0
LINE
  5
14B76
  8
0
 10
4724.642548943273141
 20
353.2502168682328829
 30
0.0
 11
4725.4773533371417216
 21
353.2502168682328829
 31
0.0
  0
LINE
  5
14B78
  8
0
 10
4728.5546784349380687
 20
363.0671109838309008
 30
0.0
 11
4733.5276400188913613
 21
363.0671109838309008
 31
0.0
  0
ARC
  5
14B79
  8
0
 10
4728.5546784349380687
 20
362.67341098383082
 30
0.0
 40
0.3937
 50
90.0
 51
177.9800431163718031
  0
ARC
  5
14B7A
  8
0
 10
4733.5276400188913613
 20
362.67341098383082
 30
0.0
 40
0.3937
 50
0.0007624867398061
 51
90.0
  0
ARC
  5
14B7B
  8
0
 10
4728.9202435566912754
 20
345.6343627880133909
 30
0.0
 40
5.8195195578538881
 50
71.6404938271757032
 51
88.9676624827112335
  0
ENDSEC
  0
EOF
