  0
SECTION
  2
HEADER
  9
$ACADVER
  1
AC1009
  9
$INSBASE
 10
4840.382588226124426
 20
300.1763362899558842
 30
0.0
  9
$EXTMIN
 10
4833.5079916914755813
 20
285.4082156850440128
 30
-0.0000000000000058
  9
$EXTMAX
 10
4847.4188364236915731
 20
300.1824185198696
 30
0.0000000000000104
  9
$LIMMIN
 10
0.0
 20
0.0
  9
$LIMMAX
 10
11.6929133858000007
 20
8.2677165353999982
  9
$ORTHOMODE
 70
     0
  9
$REGENMODE
 70
     1
  9
$FILLMODE
 70
     1
  9
$QTEXTMODE
 70
     0
  9
$MIRRTEXT
 70
     0
  9
$DRAGMODE
 70
     2
  9
$LTSCALE
 40
0.6431102362
  9
$OSMODE
 70
  4095
  9
$ATTMODE
 70
     1
  9
$TEXTSIZE
 40
0.2
  9
$TRACEWID
 40
0.05
  9
$TEXTSTYLE
  7
STANDARD
  9
$CLAYER
  8
0
  9
$CELTYPE
  6
BYLAYER
  9
$CECOLOR
 62
   256
  9
$DIMSCALE
 40
1.0
  9
$DIMASZ
 40
0.1875
  9
$DIMEXO
 40
0.0625
  9
$DIMDLI
 40
0.4443307087
  9
$DIMRND
 40
0.0
  9
$DIMDLE
 40
0.0
  9
$DIMEXE
 40
0.125
  9
$DIMTP
 40
0.01
  9
$DIMTM
 40
0.01
  9
$DIMTXT
 40
2.0
  9
$DIMCEN
 40
0.1052362205
  9
$DIMTSZ
 40
0.0
  9
$DIMTOL
 70
     1
  9
$DIMLIM
 70
     0
  9
$DIMTIH
 70
     1
  9
$DIMTOH
 70
     1
  9
$DIMSE1
 70
     0
  9
$DIMSE2
 70
     0
  9
$DIMTAD
 70
     0
  9
$DIMZIN
 70
     0
  9
$DIMBLK
  1

  9
$DIMASO
 70
     1
  9
$DIMSHO
 70
     1
  9
$DIMPOST
  1
\X
  9
$DIMAPOST
  1

  9
$DIMALT
 70
     1
  9
$DIMALTD
 70
     2
  9
$DIMALTF
 40
25.3999999999999986
  9
$DIMLFAC
 40
1.0
  9
$DIMTOFL
 70
     0
  9
$DIMTVP
 40
0.0
  9
$DIMTIX
 70
     0
  9
$DIMSOXD
 70
     0
  9
$DIMSAH
 70
     0
  9
$DIMBLK1
  1

  9
$DIMBLK2
  1

  9
$DIMSTYLE
  2
STANDARD
  9
$DIMCLRD
 70
     0
  9
$DIMCLRE
 70
     0
  9
$DIMCLRT
 70
     0
  9
$DIMTFAC
 40
1.0
  9
$DIMGAP
 40
0.09
  9
$LUNITS
 70
     2
  9
$LUPREC
 70
     4
  9
$SKETCHINC
 40
0.1
  9
$FILLETRAD
 40
0.0
  9
$AUNITS
 70
     0
  9
$AUPREC
 70
     0
  9
$MENU
  1
.
  9
$ELEVATION
 40
0.0
  9
$PELEVATION
 40
0.0
  9
$THICKNESS
 40
0.0
  9
$LIMCHECK
 70
     0
  9
$BLIPMODE
 70
     0
  9
$CHAMFERA
 40
0.0
  9
$CHAMFERB
 40
0.0
  9
$SKPOLY
 70
     0
  9
$TDCREATE
 40
2458060.468368056230247
  9
$TDUPDATE
 40
2460507.7537731491029263
  9
$TDINDWG
 40
0.4142778935
  9
$TDUSRTIMER
 40
0.4142778935
  9
$USRTIMER
 70
     1
  9
$ANGBASE
 50
0.0
  9
$ANGDIR
 70
     0
  9
$PDMODE
 70
     0
  9
$PDSIZE
 40
0.3125
  9
$PLINEWID
 40
0.0
  9
$COORDS
 70
     1
  9
$SPLFRAME
 70
     0
  9
$SPLINETYPE
 70
     6
  9
$SPLINESEGS
 70
     8
  9
$ATTDIA
 70
     1
  9
$ATTREQ
 70
     1
  9
$HANDLING
 70
     1
  9
$HANDSEED
  5
A622
  9
$SURFTAB1
 70
     6
  9
$SURFTAB2
 70
     6
  9
$SURFTYPE
 70
     6
  9
$SURFU
 70
     6
  9
$SURFV
 70
     6
  9
$UCSNAME
  2

  9
$UCSORG
 10
0.0
 20
0.0
 30
0.0
  9
$UCSXDIR
 10
1.0
 20
0.0
 30
0.0
  9
$UCSYDIR
 10
0.0
 20
1.0
 30
0.0
  9
$PUCSNAME
  2

  9
$PUCSORG
 10
0.0
 20
0.0
 30
0.0
  9
$PUCSXDIR
 10
1.0
 20
0.0
 30
0.0
  9
$PUCSYDIR
 10
0.0
 20
1.0
 30
0.0
  9
$USERI1
 70
     0
  9
$USERI2
 70
     0
  9
$USERI3
 70
     0
  9
$USERI4
 70
     0
  9
$USERI5
 70
     0
  9
$USERR1
 40
0.0
  9
$USERR2
 40
0.0
  9
$USERR3
 40
0.0
  9
$USERR4
 40
0.0
  9
$USERR5
 40
0.0
  9
$WORLDVIEW
 70
     1
  9
$SHADEDGE
 70
     3
  9
$SHADEDIF
 70
    70
  9
$TILEMODE
 70
     1
  9
$MAXACTVP
 70
    64
  9
$PLIMCHECK
 70
     0
  9
$PEXTMIN
 10
1.0000000000000000E+20
 20
1.0000000000000000E+20
 30
1.0000000000000000E+20
  9
$PEXTMAX
 10
-1.0000000000000000E+20
 20
-1.0000000000000000E+20
 30
-1.0000000000000000E+20
  9
$PLIMMIN
 10
0.0
 20
0.0
  9
$PLIMMAX
 10
12.0
 20
9.0
  9
$UNITMODE
 70
     0
  9
$VISRETAIN
 70
     1
  9
$PLINEGEN
 70
     0
  9
$PSLTSCALE
 70
     1
  0
ENDSEC
  0
SECTION
  2
TABLES
  0
TABLE
  2
VPORT
 70
     1
  0
VPORT
  2
*ACTIVE
 70
     0
 10
0.0
 20
0.0
 11
1.0
 21
1.0
 12
1036.9193466747719867
 22
166.8000549057069009
 13
0.0
 23
0.0
 14
1.0
 24
1.0
 15
0.0
 25
0.0
 16
0.0
 26
0.0
 36
17.1152628219792007
 17
3803.5440673828129547
 27
125.9952621967499056
 37
0.0
 40
14.8725882033151002
 41
1.797777777777777
 42
50.0
 43
0.0
 44
0.0
 50
0.0
 51
0.0
 71
     0
 72
   100
 73
     1
 74
     1
 75
     0
 76
     0
 77
     0
 78
     0
  0
ENDTAB
  0
TABLE
  2
LTYPE
 70
     2
  0
LTYPE
  2
CONTINUOUS
 70
     0
  3
Solid line
 72
    65
 73
     0
 40
0.0
  0
LTYPE
  2
PHANTOM2
 70
     0
  3
___ _ _ ___ _ _ ___ _ _ ___ _ _
 72
    65
 73
     6
 40
1.25
 49
0.625
 49
-0.125
 49
0.125
 49
-0.125
 49
0.125
 49
-0.125
  0
ENDTAB
  0
TABLE
  2
LAYER
 70
     2
  0
LAYER
  2
0
 70
     0
 62
   255
  6
CONTINUOUS
  0
LAYER
  2
DEFPOINTS
 70
     0
 62
     7
  6
CONTINUOUS
  0
ENDTAB
  0
TABLE
  2
STYLE
 70
     1
  0
STYLE
  2
STANDARD
 70
     0
 40
0.0
 41
0.8
 50
0.0
 71
     0
 42
0.2
  3
txt
  4

  0
ENDTAB
  0
TABLE
  2
VIEW
 70
     0
  0
ENDTAB
  0
TABLE
  2
UCS
 70
     0
  0
ENDTAB
  0
TABLE
  2
APPID
 70
     9
  0
APPID
  2
ACAD
 70
     0
  0
APPID
  2
ACAD_MLEADERVER
 70
     0
  0
APPID
  2
ACAD_EXEMPT_FROM_CAD_STANDARDS
 70
     0
  0
APPID
  2
ACAD_NAV_VCDISPLAY
 70
     0
  0
APPID
  2
ACAECLAYERSTANDARD
 70
     0
  0
APPID
  2
ACCMTRANSPARENCY
 70
     0
  0
APPID
  2
ACAD_DSTYLE_DIMJAG
 70
     0
  0
APPID
  2
ACAD_DSTYLE_DIMTALN
 70
     0
  0
APPID
  2
ACDBATTR
 70
     0
  0
ENDTAB
  0
TABLE
  2
DIMSTYLE
 70
     1
  0
DIMSTYLE
  2
STANDARD
 70
     0
  3

  4

  5

  6

  7

 40
1.0
 41
0.1875
 42
0.0625
 43
0.38
 44
0.125
 45
0.0
 46
0.0
 47
0.01
 48
0.01
140
0.15625
141
0.09
142
0.0
143
25.3999999999999986
144
1.0
145
0.0
146
1.0
147
0.09
 71
     1
 72
     0
 73
     1
 74
     1
 75
     0
 76
     0
 77
     0
 78
     4
170
     0
171
     2
172
     0
173
     0
174
     0
175
     0
176
     0
177
     0
178
     0
  0
ENDTAB
  0
ENDSEC
  0
SECTION
  2
BLOCKS
  0
BLOCK
  8
0
  2
$MODEL_SPACE
 70
     0
 10
0.0
 20
0.0
 30
0.0
  3
$MODEL_SPACE
  1

  0
ENDBLK
  5
21
  8
0
  0
BLOCK
 67
     1
  8
0
  2
$PAPER_SPACE
 70
     0
 10
0.0
 20
0.0
 30
0.0
  3
$PAPER_SPACE
  1

  0
ENDBLK
  5
1D
 67
     1
  8
0
  0
BLOCK
  8
0
  2
_FILLED
 70
     0
 10
0.0
 20
0.0
 30
0.0
  3
_FILLED
  1

  0
SOLID
  5
A43D
  8
0
  6
BYBLOCK
 62
     0
 10
0.0
 20
0.0
 30
0.0
 11
-1.0
 21
0.1666666667
 31
0.0
 12
-1.0
 22
-0.1666666667
 32
0.0
 13
-1.0
 23
-0.1666666667
 33
0.0
  0
ENDBLK
  5
A43E
  8
0
  6
BYBLOCK
 62
     0
  0
ENDSEC
  0
SECTION
  2
ENTITIES
  0
ATTDEF
  5
3930
  8
DEFPOINTS
 10
4840.3789106165113481
 20
300.1799672349445132
 30
0.0
 40
0.001
  1
K-28079T-ER
  3

  2
MODELNUMBER
 70
     0
1001
ACDBATTR
1070
     0
1070
     1
  0
ATTDEF
  5
3931
  8
DEFPOINTS
 10
4840.3789106165113481
 20
300.1783005682777912
 30
0.0
 40
0.001
  1
TEND
  3

  2
TRADENAME
 70
     0
1001
ACDBATTR
1070
     0
1070
     1
  0
ATTDEF
  5
3932
  8
DEFPOINTS
 10
4840.3789106165113481
 20
300.176633901611126
 30
0.0
 40
0.001
  1
URINAL
  3

  2
PRODUCT
 70
     0
1001
ACDBATTR
1070
     0
1070
     1
  0
LINE
  5
A569
  8
0
 10
4833.5607842789777351
 20
300.1763362899558842
 30
0.0
 11
4847.2043921732520175
 21
300.1763362899558842
 31
0.0
  0
ARC
  5
A56A
  8
0
 10
4866.3006611981718379
 20
299.5817796753103153
 30
0.0
 40
32.7399907291397909
 50
180.1510736038044058
 51
186.6300594140851103
  0
ARC
  5
A56B
  8
0
 10
4848.6463327416768152
 20
297.0262899689928986
 30
0.0
 40
14.9170601979934503
 50
184.7089877254439045
 51
203.5643490915489053
  0
ARC
  5
A56C
  8
0
 10
4851.5987006255882079
 20
298.3139606970045179
 30
0.0
 40
18.138018444498659
 50
203.5643490915489053
 51
215.5573279973984882
  0
ARC
  5
A56D
  8
0
 10
4843.4382657063597435
 20
292.4808509540338832
 30
0.0
 40
8.1071726504248698
 50
215.5573279973984882
 51
234.7241356712993081
  0
ARC
  5
A56E
  8
0
 10
4840.390814485642295
 20
288.5802422550553956
 30
0.0
 40
3.17157999131109
 50
238.9774836858302081
 51
259.5819093049721005
  0
ARC
  5
A56F
  8
0
 10
4840.4266109122536363
 20
289.2510706469209936
 30
0.0
 40
3.838788121901032
 50
260.8670923243116135
 51
269.2154846163388129
  0
ARC
  5
A570
  8
0
 10
4835.8039777374851838
 20
293.7529177483677927
 30
0.0
 40
1.665243347906477
 50
152.6287000412503119
 51
192.0433552419937087
  0
ARC
  5
A571
  8
0
 10
4835.4325737490626125
 20
293.9451993247491259
 30
0.0
 40
1.2470171803458829
 50
123.2673659665950936
 51
152.6287000412503119
  0
ARC
  5
A572
  8
0
 10
4837.2128893361941664
 20
291.2315608825417144
 30
0.0
 40
4.4925305734489882
 50
94.879619400059795
 51
123.2673659665950936
  0
ARC
  5
A573
  8
0
 10
4838.5015323270536101
 20
283.109636897837504
 30
0.0
 40
12.7084802770073999
 50
93.4732963828494263
 51
97.554569044597514
  0
ARC
  5
A574
  8
0
 10
4840.1498809934437304
 20
251.2774084963529049
 30
0.0
 40
44.5829992417040302
 50
89.7119077559233347
 51
93.1093633549213564
  0
ARC
  5
A575
  8
0
 10
4836.3178412187526192
 20
293.1174521449094073
 30
0.0
 40
1.9962911958813241
 50
137.9499371390157876
 51
190.6864598058768081
  0
ARC
  5
A576
  8
0
 10
4837.1433077421697817
 20
291.9436737535406792
 30
0.0
 40
3.4103483680285551
 50
99.2019833599786267
 51
132.587434868773812
  0
ARC
  5
A577
  8
0
 10
4838.0207105962863352
 20
287.5510698811406201
 30
0.0
 40
7.88843085849786
 50
93.593472904268296
 51
100.3908221292529959
  0
ARC
  5
A578
  8
0
 10
4840.5625902710125956
 20
245.4735241887130996
 30
0.0
 40
50.0426645088019768
 50
90.2109794016207047
 51
93.4785153450864641
  0
ARC
  5
A579
  8
0
 10
4840.3889539091451297
 20
295.3868141463037205
 30
0.0
 40
1.255270069294516
 50
175.013563071910113
 51
198.6791313520234041
  0
ARC
  5
A57A
  8
0
 10
4840.4079405726815821
 20
295.3932330705508775
 30
0.0
 40
1.2753124239658771
 50
198.6791313520234041
 51
230.1160962380851061
  0
ARC
  5
A57B
  8
0
 10
4840.3948877206703401
 20
295.3776131195623975
 30
0.0
 40
1.2549565939770511
 50
230.1160962380851061
 51
269.0483917475601174
  0
ARC
  5
A57C
  8
0
 10
4809.1438608889257011
 20
300.0351683418521134
 30
0.0
 40
38.0607930820517097
 50
353.6137904516035064
 51
359.7874887641842179
  0
ARC
  5
A57D
  8
0
 10
4832.1017681032381006
 20
297.0262899689928986
 30
0.0
 40
14.9170601979934503
 50
336.4356509084510094
 51
355.2910122745561239
  0
ARC
  5
A57E
  8
0
 10
4829.1494002193267079
 20
298.3139606970045179
 30
0.0
 40
18.138018444498659
 50
324.4426720026000908
 51
336.4356509084510094
  0
ARC
  5
A57F
  8
0
 10
4837.3098351385551723
 20
292.4808509540338832
 30
0.0
 40
8.1071726504248698
 50
305.2758643287007203
 51
324.4426720026000908
  0
ARC
  5
A580
  8
0
 10
4840.3572863592726208
 20
288.5802422550553956
 30
0.0
 40
3.17157999131109
 50
280.4180906950278995
 51
301.0225163141698204
  0
ARC
  5
A581
  8
0
 10
4840.3630160673646969
 20
288.7724525864509246
 30
0.0
 40
3.3598283363763848
 50
270.1881712544932839
 51
279.7292518048298007
  0
ARC
  5
A582
  8
0
 10
4844.9441231074288225
 20
293.7529177483677927
 30
0.0
 40
1.665243347906477
 50
347.9566447580061777
 51
27.3712999587496491
  0
ARC
  5
A583
  8
0
 10
4845.3155270958532128
 20
293.9451993247491259
 30
0.0
 40
1.2470171803458829
 50
27.3712999587496491
 51
56.7326340334049206
  0
ARC
  5
A584
  8
0
 10
4843.5352115087198399
 20
291.2315608825417144
 30
0.0
 40
4.4925305734489882
 50
56.7326340334049206
 51
85.1203805999402192
  0
ARC
  5
A585
  8
0
 10
4842.2465685178613057
 20
283.109636897837504
 30
0.0
 40
12.7084802770073999
 50
82.445430955402486
 51
86.5267036171505737
  0
ARC
  5
A586
  8
0
 10
4840.5982198514720949
 20
251.2774084963529049
 30
0.0
 40
44.5829992417040302
 50
86.8906366450786152
 51
90.2880922440766938
  0
ARC
  5
A587
  8
0
 10
4844.4302596261622966
 20
293.1174521449094073
 30
0.0
 40
1.9962911958813241
 50
349.3135401941231066
 51
42.0500628609841485
  0
ARC
  5
A588
  8
0
 10
4843.6047931027451341
 20
291.9436737535406792
 30
0.0
 40
3.4103483680285551
 50
47.4125651312261382
 51
80.7980166400213733
  0
ARC
  5
A589
  8
0
 10
4842.7273902486285806
 20
287.5510698811406201
 30
0.0
 40
7.88843085849786
 50
79.6091778707470468
 51
86.406527095731704
  0
ARC
  5
A58A
  8
0
 10
4840.18365699467995
 20
245.4336701768228011
 30
0.0
 40
50.0825575622239327
 50
86.5221344029138066
 51
89.7773005508704074
  0
ARC
  5
A58B
  8
0
 10
4840.3591469357697861
 20
295.3868141463037205
 30
0.0
 40
1.255270069294516
 50
341.3208686479766243
 51
4.9864369280899341
  0
ARC
  5
A58C
  8
0
 10
4840.3401602722333337
 20
295.3932330705508775
 30
0.0
 40
1.2753124239658771
 50
309.8839037619148939
 51
341.3208686479766243
  0
ARC
  5
A58D
  8
0
 10
4840.3532131242445757
 20
295.3776131195623975
 30
0.0
 40
1.2549565939770511
 50
270.9516082524398826
 51
309.8839037619148939
  0
LINE
  5
A58E
  8
0
 10
4833.5607842796980549
 20
300.1763362899558842
 30
0.0
 11
4833.5607842789777351
 21
299.4954532006764794
 31
0.0
  0
LINE
  5
A58F
  8
0
 10
4847.2043921732520175
 20
299.8940003937481151
 30
0.0
 11
4847.2043921732520175
 21
300.1763362899559979
 31
0.0
  0
ARC
  5
A590
  8
0
 10
4840.3783192653263541
 20
295.3731865811558919
 30
0.0
 40
0.9251968504004882
 50
171.8653432387959015
 51
8.1228187923813504
  0
ARC
  5
A591
  8
0
 10
4850.5283859305664009
 20
298.1663372819184019
 30
0.0
 40
15.9286515463295597
 50
196.1527138671256978
 51
215.2436913118461064
  0
ARC
  5
A592
  8
0
 10
4847.498352483024064
 20
296.0254215855349003
 30
0.0
 40
12.2185811006051406
 50
215.2436913118461064
 51
224.4482516192366859
  0
ARC
  5
A593
  8
0
 10
4840.3253463335067863
 20
288.9892515583825912
 30
0.0
 40
2.1707103872643669
 50
224.4482516192366859
 51
250.505439791937107
  0
ARC
  5
A594
  8
0
 10
4840.6427209775347364
 20
289.8857603993354246
 30
0.0
 40
3.1217386552872068
 50
250.505439791937107
 51
265.1414031010108943
  0
ARC
  5
A595
  8
0
 10
4837.2896068054378702
 20
294.2522557395910212
 30
0.0
 40
2.124979693743076
 50
172.9750282993680912
 51
194.0879956111564013
  0
ARC
  5
A596
  8
0
 10
4836.3449131653578661
 20
294.3686674968482748
 30
0.0
 40
1.1731405419758349
 50
159.634989783055488
 51
172.9750282993680912
  0
ARC
  5
A597
  8
0
 10
4830.228252717288342
 20
298.1663372819184019
 30
0.0
 40
15.9286515463295597
 50
324.756308688153922
 51
343.8472861328742738
  0
ARC
  5
A598
  8
0
 10
4833.2582861648288599
 20
296.0254215855349003
 30
0.0
 40
12.2185811006051406
 50
315.5517483807267922
 51
324.756308688153922
  0
ARC
  5
A599
  8
0
 10
4840.4312923143461376
 20
288.9892515583825912
 30
0.0
 40
2.1707103872643669
 50
289.4945602080629214
 51
315.5517483807267922
  0
ARC
  5
A59A
  8
0
 10
4840.1139176703181874
 20
289.8857603993354246
 30
0.0
 40
3.1217386552871891
 50
274.8585968989889921
 51
289.4945602080629214
  0
ARC
  5
A59B
  8
0
 10
4843.4670318424141442
 20
294.2522557395910212
 30
0.0
 40
2.124979693743076
 50
345.9120043888452187
 51
7.0249717006318706
  0
ARC
  5
A59C
  8
0
 10
4844.4117254824950578
 20
294.3686674968482748
 30
0.0
 40
1.1731405419758349
 50
7.0249717006318706
 51
19.9679895697242493
  0
ENDSEC
  0
EOF
