  0
SECTION
  2
HEADER
  9
$ACADVER
  1
AC1009
  9
$INSBASE
 10
3446.7131401875458323
 20
189.6752672781684907
 30
0.0
  9
$EXTMIN
 10
3441.1095963754460172
 20
189.0049161152161048
 30
-0.0000000349181948
  9
$EXTMAX
 10
3452.4354433046541999
 20
191.6958769619687075
 30
0.0000000814935746
  9
$LIMMIN
 10
0.0
 20
0.0
  9
$LIMMAX
 10
11.6929133858000007
 20
8.2677165353999982
  9
$ORTHOMODE
 70
     1
  9
$REGENMODE
 70
     1
  9
$FILLMODE
 70
     1
  9
$QTEXTMODE
 70
     0
  9
$MIRRTEXT
 70
     0
  9
$DRAGMODE
 70
     2
  9
$LTSCALE
 40
0.6431102362
  9
$OSMODE
 70
  2047
  9
$ATTMODE
 70
     1
  9
$TEXTSIZE
 40
0.2
  9
$TRACEWID
 40
0.05
  9
$TEXTSTYLE
  7
STANDARD
  9
$CLAYER
  8
0
  9
$CELTYPE
  6
BYLAYER
  9
$CECOLOR
 62
   256
  9
$DIMSCALE
 40
1.0
  9
$DIMASZ
 40
0.1875
  9
$DIMEXO
 40
0.0625
  9
$DIMDLI
 40
0.4443307087
  9
$DIMRND
 40
0.0
  9
$DIMDLE
 40
0.0
  9
$DIMEXE
 40
0.125
  9
$DIMTP
 40
0.01
  9
$DIMTM
 40
0.01
  9
$DIMTXT
 40
2.0
  9
$DIMCEN
 40
0.1052362205
  9
$DIMTSZ
 40
0.0
  9
$DIMTOL
 70
     1
  9
$DIMLIM
 70
     0
  9
$DIMTIH
 70
     1
  9
$DIMTOH
 70
     1
  9
$DIMSE1
 70
     0
  9
$DIMSE2
 70
     0
  9
$DIMTAD
 70
     0
  9
$DIMZIN
 70
     0
  9
$DIMBLK
  1

  9
$DIMASO
 70
     1
  9
$DIMSHO
 70
     1
  9
$DIMPOST
  1
\X
  9
$DIMAPOST
  1

  9
$DIMALT
 70
     1
  9
$DIMALTD
 70
     2
  9
$DIMALTF
 40
25.3999999999999986
  9
$DIMLFAC
 40
1.0
  9
$DIMTOFL
 70
     0
  9
$DIMTVP
 40
0.0
  9
$DIMTIX
 70
     0
  9
$DIMSOXD
 70
     0
  9
$DIMSAH
 70
     0
  9
$DIMBLK1
  1

  9
$DIMBLK2
  1

  9
$DIMSTYLE
  2
STANDARD
  9
$DIMCLRD
 70
     0
  9
$DIMCLRE
 70
     0
  9
$DIMCLRT
 70
     0
  9
$DIMTFAC
 40
1.0
  9
$DIMGAP
 40
0.09
  9
$LUNITS
 70
     2
  9
$LUPREC
 70
     4
  9
$SKETCHINC
 40
0.1
  9
$FILLETRAD
 40
0.0
  9
$AUNITS
 70
     0
  9
$AUPREC
 70
     0
  9
$MENU
  1
.
  9
$ELEVATION
 40
0.0
  9
$PELEVATION
 40
0.0
  9
$THICKNESS
 40
0.0
  9
$LIMCHECK
 70
     0
  9
$BLIPMODE
 70
     0
  9
$CHAMFERA
 40
0.0
  9
$CHAMFERB
 40
0.0
  9
$SKPOLY
 70
     0
  9
$TDCREATE
 40
2458060.468368056230247
  9
$TDUPDATE
 40
2459040.3503356478177011
  9
$TDINDWG
 40
0.5042547454
  9
$TDUSRTIMER
 40
0.5042547454
  9
$USRTIMER
 70
     1
  9
$ANGBASE
 50
0.0
  9
$ANGDIR
 70
     0
  9
$PDMODE
 70
     0
  9
$PDSIZE
 40
0.3125
  9
$PLINEWID
 40
0.0
  9
$COORDS
 70
     1
  9
$SPLFRAME
 70
     0
  9
$SPLINETYPE
 70
     6
  9
$SPLINESEGS
 70
     8
  9
$ATTDIA
 70
     1
  9
$ATTREQ
 70
     1
  9
$HANDLING
 70
     1
  9
$HANDSEED
  5
AF7C
  9
$SURFTAB1
 70
     6
  9
$SURFTAB2
 70
     6
  9
$SURFTYPE
 70
     6
  9
$SURFU
 70
     6
  9
$SURFV
 70
     6
  9
$UCSNAME
  2

  9
$UCSORG
 10
0.0
 20
0.0
 30
0.0
  9
$UCSXDIR
 10
1.0
 20
0.0
 30
0.0
  9
$UCSYDIR
 10
0.0
 20
1.0
 30
0.0
  9
$PUCSNAME
  2

  9
$PUCSORG
 10
0.0
 20
0.0
 30
0.0
  9
$PUCSXDIR
 10
1.0
 20
0.0
 30
0.0
  9
$PUCSYDIR
 10
0.0
 20
1.0
 30
0.0
  9
$USERI1
 70
     0
  9
$USERI2
 70
     0
  9
$USERI3
 70
     0
  9
$USERI4
 70
     0
  9
$USERI5
 70
     0
  9
$USERR1
 40
0.0
  9
$USERR2
 40
0.0
  9
$USERR3
 40
0.0
  9
$USERR4
 40
0.0
  9
$USERR5
 40
0.0
  9
$WORLDVIEW
 70
     1
  9
$SHADEDGE
 70
     3
  9
$SHADEDIF
 70
    70
  9
$TILEMODE
 70
     1
  9
$MAXACTVP
 70
    64
  9
$PLIMCHECK
 70
     0
  9
$PEXTMIN
 10
1.0000000000000000E+20
 20
1.0000000000000000E+20
 30
1.0000000000000000E+20
  9
$PEXTMAX
 10
-1.0000000000000000E+20
 20
-1.0000000000000000E+20
 30
-1.0000000000000000E+20
  9
$PLIMMIN
 10
0.0
 20
0.0
  9
$PLIMMAX
 10
12.0
 20
9.0
  9
$UNITMODE
 70
     0
  9
$VISRETAIN
 70
     1
  9
$PLINEGEN
 70
     0
  9
$PSLTSCALE
 70
     1
  0
ENDSEC
  0
SECTION
  2
TABLES
  0
TABLE
  2
VPORT
 70
     1
  0
VPORT
  2
*ACTIVE
 70
     0
 10
0.0
 20
0.0
 11
1.0
 21
1.0
 12
143.079404605674398
 22
-4.9111150372953603
 13
0.0
 23
0.0
 14
1.0
 24
1.0
 15
0.0
 25
0.0
 16
0.0
 26
0.0
 36
96.5995694866707311
 17
3303.693115234375
 27
195.2615115758877096
 37
0.0
 40
4.0008220026941688
 41
2.8398203592814371
 42
50.0
 43
0.0
 44
0.0
 50
0.0
 51
0.0
 71
     0
 72
   100
 73
     1
 74
     1
 75
     0
 76
     0
 77
     0
 78
     0
  0
ENDTAB
  0
TABLE
  2
LTYPE
 70
     2
  0
LTYPE
  2
CONTINUOUS
 70
     0
  3
Solid line
 72
    65
 73
     0
 40
0.0
  0
LTYPE
  2
PHANTOM2
 70
     0
  3
___ _ _ ___ _ _ ___ _ _ ___ _ _
 72
    65
 73
     6
 40
1.25
 49
0.625
 49
-0.125
 49
0.125
 49
-0.125
 49
0.125
 49
-0.125
  0
ENDTAB
  0
TABLE
  2
LAYER
 70
     2
  0
LAYER
  2
0
 70
     0
 62
   255
  6
CONTINUOUS
  0
LAYER
  2
DEFPOINTS
 70
     0
 62
     7
  6
CONTINUOUS
  0
ENDTAB
  0
TABLE
  2
STYLE
 70
     1
  0
STYLE
  2
STANDARD
 70
     0
 40
0.0
 41
0.8
 50
0.0
 71
     0
 42
0.2
  3
txt
  4

  0
ENDTAB
  0
TABLE
  2
VIEW
 70
     0
  0
ENDTAB
  0
TABLE
  2
UCS
 70
     0
  0
ENDTAB
  0
TABLE
  2
APPID
 70
     9
  0
APPID
  2
ACAD
 70
     0
  0
APPID
  2
ACAD_MLEADERVER
 70
     0
  0
APPID
  2
ACAD_EXEMPT_FROM_CAD_STANDARDS
 70
     0
  0
APPID
  2
ACAD_NAV_VCDISPLAY
 70
     0
  0
APPID
  2
ACAECLAYERSTANDARD
 70
     0
  0
APPID
  2
ACCMTRANSPARENCY
 70
     0
  0
APPID
  2
ACAD_DSTYLE_DIMJAG
 70
     0
  0
APPID
  2
ACAD_DSTYLE_DIMTALN
 70
     0
  0
APPID
  2
ACDBATTR
 70
     0
  0
ENDTAB
  0
TABLE
  2
DIMSTYLE
 70
     1
  0
DIMSTYLE
  2
STANDARD
 70
     0
  3

  4

  5

  6

  7

 40
1.0
 41
0.1875
 42
0.0625
 43
0.38
 44
0.125
 45
0.0
 46
0.0
 47
0.01
 48
0.01
140
0.15625
141
0.09
142
0.0
143
25.3999999999999986
144
1.0
145
0.0
146
1.0
147
0.09
 71
     1
 72
     0
 73
     1
 74
     1
 75
     0
 76
     0
 77
     0
 78
     4
170
     0
171
     2
172
     0
173
     0
174
     0
175
     0
176
     0
177
     0
178
     0
  0
ENDTAB
  0
ENDSEC
  0
SECTION
  2
BLOCKS
  0
BLOCK
  8
0
  2
$MODEL_SPACE
 70
     0
 10
0.0
 20
0.0
 30
0.0
  3
$MODEL_SPACE
  1

  0
ENDBLK
  5
21
  8
0
  0
BLOCK
 67
     1
  8
0
  2
$PAPER_SPACE
 70
     0
 10
0.0
 20
0.0
 30
0.0
  3
$PAPER_SPACE
  1

  0
ENDBLK
  5
1D
 67
     1
  8
0
  0
BLOCK
  8
0
  2
_FILLED
 70
     0
 10
0.0
 20
0.0
 30
0.0
  3
_FILLED
  1

  0
SOLID
  5
9DA1
  8
0
  6
BYBLOCK
 62
     0
 10
0.0
 20
0.0
 30
0.0
 11
-1.0
 21
0.1666666667
 31
0.0
 12
-1.0
 22
-0.1666666667
 32
0.0
 13
-1.0
 23
-0.1666666667
 33
0.0
  0
ENDBLK
  5
9DA2
  8
0
  6
BYBLOCK
 62
     0
  0
ENDSEC
  0
SECTION
  2
ENTITIES
  0
ATTDEF
  5
8DE4
  8
DEFPOINTS
 10
3446.7131787485118366
 20
189.6791741093562962
 30
0.0
 40
0.001
  1
K-28139T-DR
  3

  2
MODELNUMBER
 70
     0
1001
ACDBATTR
1070
     0
1070
     1
  0
ATTDEF
  5
8DE5
  8
DEFPOINTS
 10
3446.7131787485118366
 20
189.6775074426896879
 30
0.0
 40
0.001
  1
COMPONENTS
  3

  2
TRADENAME
 70
     0
1001
ACDBATTR
1070
     0
1070
     1
  0
ATTDEF
  5
8DE6
  8
DEFPOINTS
 10
3446.7131787485118366
 20
189.6758407760229943
 30
0.0
 40
0.001
  1
BATHROOM  FAUCET VALVE
  3

  2
PRODUCT
 70
     0
1001
ACDBATTR
1070
     0
1070
     1
  0
LINE
  5
A97A
  8
0
 10
3449.4293687973408851
 20
191.2494822528425118
 30
0.0
 11
3443.9966056054968249
 21
191.2494822528425118
 31
0.0
  0
ARC
  5
A97B
  8
0
 10
3443.9966056054968249
 20
191.367596593798595
 30
0.0
 40
0.1181143409560512
 50
180.0037690226284894
 51
270.0
  0
LINE
  5
A97C
  8
0
 10
3443.8784912647961391
 20
191.3675888240182132
 30
0.0
 11
3443.8784939439960908
 21
191.6038129610466001
 31
0.0
  0
ARC
  5
A97D
  8
0
 10
3443.7997537864957849
 20
191.6038129615425021
 30
0.0
 40
0.0787401574999942
 50
359.9999994887907064
 51
90.0
  0
LINE
  5
A97E
  8
0
 10
3443.7997537864957849
 20
191.6825531190424954
 30
0.0
 11
3441.2800687471958554
 21
191.6825531190424101
 31
0.0
  0
ARC
  5
A97F
  8
0
 10
3441.2800687471949459
 20
191.6038129615442074
 30
0.0
 40
0.0787401574982365
 50
89.9999999994789022
 51
180.0000000011154953
  0
LINE
  5
A980
  8
0
 10
3441.2013285896969137
 20
191.6038129615425021
 30
0.0
 11
3441.2013285896950947
 21
190.4227105993425084
 31
0.0
  0
ARC
  5
A981
  8
0
 10
3441.2800687471940364
 20
190.4227105993423947
 30
0.0
 40
0.078740157499885
 50
179.9999999999153033
 51
270.0000000013549197
  0
LINE
  5
A982
  8
0
 10
3441.2800687471958554
 20
190.3439704418424867
 30
0.0
 11
3442.0976703039218592
 21
190.3439704418424867
 31
0.0
  0
ARC
  5
A983
  8
0
 10
3441.9493600857599631
 20
190.2258602055659082
 30
0.0
 40
0.1181102362925404
 50
0.0000000371659773
 51
89.9999999822043577
  0
LINE
  5
A984
  8
0
 10
3442.0674703219219737
 20
189.7534192607371892
 30
0.0
 11
3443.4847931565959698
 21
189.7534192607371892
 31
0.0
  0
ARC
  5
A985
  8
0
 10
3442.0989663849868521
 20
189.7416082371462949
 30
0.0
 40
0.0118110235910063
 50
89.9999999563576978
 51
180.0000000180708071
  0
LINE
  5
A986
  8
0
 10
3442.0871553613960714
 20
189.7416082371424864
 30
0.0
 11
3442.087155361412897
 21
189.6864901268425001
 31
0.0
  0
ARC
  5
A987
  8
0
 10
3442.0989663850168654
 20
189.6864901268463086
 30
0.0
 40
0.0118110236037272
 50
180.0000000180675954
 51
269.9999998975774247
  0
LINE
  5
A988
  8
0
 10
3442.098966384995947
 20
189.6746791032425108
 30
0.0
 11
3443.4532830192961228
 21
189.6746791008218054
 31
0.0
  0
ARC
  5
A989
  8
0
 10
3443.4532830193170412
 20
189.6865042071835035
 30
0.0
 40
0.0118251063617105
 50
269.9999998975774247
 51
359.9317769938859897
  0
LINE
  5
A98A
  8
0
 10
3443.4651081172960403
 20
189.6864901268425001
 30
0.0
 11
3443.4651081172960403
 21
189.7416082371424864
 31
0.0
  0
ARC
  5
A98B
  8
0
 10
3443.4532970935338199
 20
189.7416082369753951
 30
0.0
 40
0.0118110237618271
 50
359.9998112640768113
 51
89.9999997003923653
  0
LINE
  5
A98C
  8
0
 10
3442.1462104794959487
 20
189.6746791032425108
 30
0.0
 11
3442.1462104794959487
 21
189.0290098119425011
 31
0.0
  0
LINE
  5
A98D
  8
0
 10
3442.1462104794959487
 20
189.0290098119425011
 30
0.0
 11
3442.1698325266961547
 21
189.0053877646425065
 31
0.0
  0
LINE
  5
A98E
  8
0
 10
3442.1698325266961547
 20
189.0053877646425065
 30
0.0
 11
3443.3824309518959126
 21
189.0053877646425065
 31
0.0
  0
LINE
  5
A98F
  8
0
 10
3443.3824309518959126
 20
189.0053877646425065
 30
0.0
 11
3443.4060529990961186
 21
189.0290098119425011
 31
0.0
  0
LINE
  5
A990
  8
0
 10
3443.4060529990961186
 20
189.0290098119425011
 30
0.0
 11
3443.4060529990961186
 21
189.6746791032425108
 31
0.0
  0
LINE
  5
A991
  8
0
 10
3443.4847931565959698
 20
189.7534192607371892
 30
0.0
 11
3443.4847931565400359
 21
190.2258602056425048
 31
0.0
  0
ARC
  5
A992
  8
0
 10
3443.6029033928361969
 20
190.2258602055472068
 30
0.0
 40
0.1181102362953492
 50
90.0000000191505052
 51
179.9999999537456858
  0
LINE
  5
A993
  8
0
 10
3443.6029033927961791
 20
190.3439704418424867
 30
0.0
 11
3443.8223091190861851
 21
190.3439704418424867
 31
0.0
  0
ARC
  5
A994
  8
0
 10
3443.815564526847993
 20
190.423174784060393
 30
0.0
 40
0.0794909891158286
 50
274.8672415052636211
 51
336.2974560905362864
  0
ARC
  5
A995
  8
0
 10
3443.9967371321699829
 20
190.3437568559556894
 30
0.0
 40
0.1183238951917737
 50
90.0636905014419256
 51
156.3510518397606859
  0
LINE
  5
A996
  8
0
 10
3443.9966056060961819
 20
190.4620806780424971
 30
0.0
 11
3445.9651080668959366
 21
190.4620806781425131
 31
0.0
  0
ARC
  5
A997
  8
0
 10
3445.9651080669018484
 20
190.343970391548595
 30
0.0
 40
0.118110286593998
 50
0.0000041689827334
 51
90.0000000029181848
  0
LINE
  5
A998
  8
0
 10
3446.0832183534957949
 20
190.3439704001424957
 30
0.0
 11
3446.0832183592260662
 21
190.2652302843424934
 31
0.0
  0
LINE
  5
A999
  8
0
 10
3447.362735297495874
 20
190.2652302843424934
 30
0.0
 11
3446.063533314095821
 21
190.2652302843424934
 31
0.0
  0
ARC
  5
A99A
  8
0
 10
3446.063533314095821
 20
190.2553877646425065
 30
0.0
 40
0.0098425196999976
 50
90.0
 51
180.0000000000098055
  0
LINE
  5
A99B
  8
0
 10
3446.0536907943951519
 20
190.2553877646425065
 30
0.0
 11
3446.0536907943960614
 21
190.2357027252425894
 31
0.0
  0
ARC
  5
A99C
  8
0
 10
3446.063533314095821
 20
190.2357027252425894
 30
0.0
 40
0.0098425197000021
 50
180.0000000000048885
 51
269.9999999999478746
  0
LINE
  5
A99D
  8
0
 10
3446.063533314095821
 20
190.2258602055424888
 30
0.0
 11
3447.3627352964958845
 21
190.2258602055416077
 31
0.0
  0
ARC
  5
A99E
  8
0
 10
3447.3627451002689668
 20
190.2357046861309868
 30
0.0
 40
0.0098444806220268
 50
270.0047322915849008
 51
359.9885874494275981
  0
LINE
  5
A99F
  8
0
 10
3447.372589580696058
 20
190.2357027252425894
 30
0.0
 11
3447.3725895806969675
 21
190.2553877646425065
 31
0.0
  0
ARC
  5
A9A0
  8
0
 10
3447.3627450930639498
 20
190.255385801387888
 30
0.0
 40
0.0098444878280628
 50
0.0114263135430063
 51
90.0570110695172019
  0
LINE
  5
A9A1
  8
0
 10
3447.3403022451961988
 20
190.2258602055416077
 30
0.0
 11
3447.3403022451961988
 21
190.0486948512424874
 31
0.0
  0
ARC
  5
A9A2
  8
0
 10
3447.0627164296301999
 20
190.2701223668580042
 30
0.0
 40
0.3550831306544038
 50
312.7376235865772856
 51
321.4209750371038012
  0
LINE
  5
A9A3
  8
0
 10
3447.3036907943960614
 20
190.0093247725424987
 30
0.0
 11
3446.1225925096960054
 21
190.0093247725424987
 31
0.0
  0
ARC
  5
A9A4
  8
0
 10
3446.344585722390093
 20
190.2524749997465108
 30
0.0
 40
0.3292488873829693
 50
218.2376261595707945
 51
227.6037752167574126
  0
LINE
  5
A9A5
  8
0
 10
3446.0859769813960156
 20
190.0486948512424874
 30
0.0
 11
3446.0859769813960156
 21
190.2258602056425048
 31
0.0
  0
ARC
  5
A9A6
  8
0
 10
3446.1324309518959126
 20
189.9994822528425118
 30
0.0
 40
0.0098425196999994
 50
0.0
 51
90.0
  0
LINE
  5
A9A7
  8
0
 10
3446.1422734715961269
 20
189.9994822528425118
 30
0.0
 11
3446.1422734715961269
 21
189.763261780442491
 31
0.0
  0
ARC
  5
A9A8
  8
0
 10
3446.1521159913631891
 20
189.763261780442491
 30
0.0
 40
0.0098425197669876
 50
180.0000000000015916
 51
270.0066847348737724
  0
LINE
  5
A9A9
  8
0
 10
3446.1521171396962018
 20
189.7534192607425041
 30
0.0
 11
3447.2741632353959176
 21
189.7534192607425041
 31
0.0
  0
ARC
  5
A9AA
  8
0
 10
3447.2741632353959176
 20
189.763261780442491
 30
0.0
 40
0.0098425196999958
 50
270.0
 51
0.0000000000211698
  0
LINE
  5
A9AB
  8
0
 10
3447.2840057550961319
 20
189.763261780442491
 30
0.0
 11
3447.2840057550961319
 21
189.9994822528425118
 31
0.0
  0
ARC
  5
A9AC
  8
0
 10
3447.2938482747958915
 20
189.9994822528425971
 30
0.0
 40
0.0098425196999958
 50
90.0000005816020092
 51
180.0000000000212026
  0
ARC
  5
AB1C
  8
0
 10
3442.5505857170510353
 20
191.6019028745295998
 30
0.0
 40
0.0500809674506211
 50
129.5447989744602069
 51
177.8142100633220934
  0
LINE
  5
AB1D
  8
0
 10
3442.5005411881948021
 20
191.6038129615425021
 30
0.0
 11
3442.5005432898960862
 21
191.5250728040425088
 31
0.0
  0
ARC
  5
AB1E
  8
0
 10
3442.6580215030958243
 20
191.5250728040425088
 30
0.0
 40
0.1574782131999939
 50
180.0
 51
225.0000000677084131
  0
ARC
  5
AB1F
  8
0
 10
3442.6580265774869076
 20
191.52507787843399
 30
0.0
 40
0.1574853894732193
 50
225.0000000677084131
 51
269.9981538527902103
  0
LINE
  5
AB20
  8
0
 10
3442.6580215030958243
 20
191.3675924890424938
 30
0.0
 11
3442.8942419753730064
 21
191.3675848777006081
 31
0.0
  0
ARC
  5
AB21
  8
0
 10
3442.894247048384841
 20
191.5250274283988006
 30
0.0
 40
0.1574425507799558
 50
269.9981538527902103
 51
315.0103708954567878
  0
ARC
  5
AB22
  8
0
 10
3442.8941680673351584
 20
191.5251063808607057
 30
0.0
 40
0.1575542266380797
 50
315.0103708954567878
 51
359.987789537461083
  0
LINE
  5
AB23
  8
0
 10
3443.0517222903959009
 20
191.5250728040425088
 30
0.0
 11
3443.0517390709292158
 21
191.6038129594545012
 31
0.0
  0
ARC
  5
AB24
  8
0
 10
3443.0017317880051451
 20
191.6038236166453999
 30
0.0
 40
0.0500072840594627
 50
359.987789537461083
 51
64.4947667338701507
  0
ARC
  5
AB25
  8
0
 10
3442.902234247152137
 20
191.4486962684516129
 30
0.0
 40
0.2339933823306338
 50
58.8528119972836379
 51
91.9573738144009951
  0
ARC
  5
AB26
  8
0
 10
3442.6563272935650275
 20
191.397236307675314
 30
0.0
 40
0.2853218367127022
 50
89.6599380467546609
 51
106.5649796431304992
  0
ARC
  5
AB27
  8
0
 10
3442.6200746240888293
 20
191.5191155167293005
 30
0.0
 40
0.1581652496094774
 50
106.5649796431304992
 51
129.8619911544703882
  0
CIRCLE
  5
AB28
  8
0
 10
3444.3509348888960631
 20
190.8557814654425044
 30
0.0
 40
0.1181102361999997
  0
LINE
  5
AB29
  8
0
 10
3442.0674703220520314
 20
190.2258602056425048
 30
0.0
 11
3442.3073962707958344
 21
190.2258602056425048
 31
0.0
  0
ARC
  5
AB2A
  8
0
 10
3442.1752289744149493
 20
190.3078153226562961
 30
0.0
 40
0.1555147434732281
 50
328.1975196412947184
 51
1.1905693033840721
  0
LINE
  5
AB2B
  8
0
 10
3442.3307101448958747
 20
190.3110465860673912
 30
0.0
 11
3442.3307101448958747
 21
190.3833405205425038
 31
0.0
  0
LINE
  5
AB2C
  8
0
 10
3442.3307102561961983
 20
190.3833405205425038
 30
0.0
 11
3443.2215533337957822
 21
190.3833405205425038
 31
0.0
  0
ARC
  5
AB2D
  8
0
 10
3442.7761317949962176
 20
189.8321384814510111
 30
0.0
 40
0.7086776665915365
 50
51.058626165574168
 51
128.9413738344258036
  0
LINE
  5
AB2E
  8
0
 10
3443.2215533337957822
 20
190.3833405205425038
 30
0.0
 11
3443.2215531767960783
 21
190.3110435891425141
 31
0.0
  0
ARC
  5
AB2F
  8
0
 10
3443.3736966221608782
 20
190.3069018080441879
 30
0.0
 40
0.1521997350563568
 50
178.439500135164792
 51
212.1724104504237971
  0
LINE
  5
AB30
  8
0
 10
3443.244867207596144
 20
190.2258602056425048
 30
0.0
 11
3443.4847931565400359
 21
190.2258602056425048
 31
0.0
  0
ARC
  5
AB31
  8
0
 10
3445.5173608369100293
 20
190.9413142237864918
 30
0.0
 40
0.6558523268749183
 50
313.0546070806511807
 51
352.5063902673576877
  0
ARC
  5
AB32
  8
0
 10
3445.5178206070290798
 20
190.7704882983778134
 30
0.0
 40
0.6553650981880484
 50
7.4779758472448918
 51
46.9602771163170374
  0
LINE
  5
AB33
  8
0
 10
3446.1994449700960104
 20
190.2258602055424035
 30
0.0
 11
3446.1994449700960104
 21
190.0486948512424874
 31
0.0
  0
LINE
  5
AB34
  8
0
 10
3446.1994449700960104
 20
190.0486948512424874
 30
0.0
 11
3446.3485595711958922
 21
190.0486948512424874
 31
0.0
  0
LINE
  5
AB35
  8
0
 10
3446.3485595711958922
 20
190.0486948512424874
 30
0.0
 11
3446.3485595711958922
 21
190.2258602055422898
 31
0.0
  0
LINE
  5
AB36
  8
0
 10
3446.772027869896192
 20
190.2258602055420056
 30
0.0
 11
3446.772027869896192
 21
190.0486948512424874
 31
0.0
  0
LINE
  5
AB37
  8
0
 10
3446.772027869896192
 20
190.0486948512424874
 30
0.0
 11
3446.9757222030962112
 21
190.0486948512424874
 31
0.0
  0
LINE
  5
AB38
  8
0
 10
3446.9757222030962112
 20
190.0486948512424874
 30
0.0
 11
3446.9757222030962112
 21
190.2258602056425048
 31
0.0
  0
LINE
  5
AB39
  8
0
 10
3447.3403022451961988
 20
190.0486948512424874
 30
0.0
 11
3447.2857225130960614
 21
190.0486948512424874
 31
0.0
  0
LINE
  5
AB3A
  8
0
 10
3447.2857225130960614
 20
190.0486948512424874
 30
0.0
 11
3447.2857225130960614
 21
190.2258602055416077
 31
0.0
  0
ARC
  5
AB3B
  8
0
 10
3447.1307223580961363
 20
190.3341279224391087
 30
0.0
 40
0.3248031498965315
 50
241.4964899107592942
 51
298.5035100892407058
  0
ARC
  5
AB3C
  8
0
 10
3446.5602937205458147
 20
190.5983679574856069
 30
0.0
 40
0.5890431849430512
 50
248.9333089443352094
 51
291.066691055664819
  0
ARC
  5
AB3D
  8
0
 10
3446.1544231242560272
 20
190.0791099617698023
 30
0.0
 40
0.0719243713364671
 50
222.9066064186179972
 51
251.7489937191008096
  0
ARC
  5
AB3E
  8
0
 10
3446.142673611238024
 20
190.0488712991650004
 30
0.0
 40
0.0395632263118917
 50
254.1947148498659033
 51
282.4930582789567097
  0
ARC
  5
AB3F
  8
0
 10
3446.1227389757118544
 20
190.0954250745606942
 30
0.0
 40
0.089819392926994
 50
288.4952198608772278
 51
328.6497195324469089
  0
LINE
  5
AB41
  8
0
 10
3442.0674703220520314
 20
190.2258602057891892
 30
0.0
 11
3442.0674703220520314
 21
189.7534192607371892
 31
0.0
  0
ARC
  5
AB42
  8
0
 10
3442.1156171745178654
 20
190.1305801332541989
 30
0.0
 40
0.2141436759831949
 50
26.4191968652691287
 51
94.8074615363916564
  0
ARC
  5
AB43
  8
0
 10
3449.4279361660987888
 20
191.3689866126991035
 30
0.0
 40
0.1195129468174512
 50
270.6868351244798987
 51
359.7359077050684277
  0
LINE
  5
AB44
  8
0
 10
3449.5474478433648073
 20
191.3684357460051046
 30
0.0
 11
3449.5473745820709155
 21
191.6046598716883125
 31
0.0
  0
ARC
  5
AB45
  8
0
 10
3449.6261147360560244
 20
191.6046833991836138
 30
0.0
 40
0.0787401574999942
 50
90.0171195719643009
 51
180.0171200831767919
  0
LINE
  5
AB46
  8
0
 10
3449.6260912090569946
 20
191.683423553168808
 30
0.0
 11
3452.145776135881988
 21
191.6841764171508089
 31
0.0
  0
ARC
  5
AB47
  8
0
 10
3452.1456746444778219
 20
191.6051341867841131
 30
0.0
 40
0.0790422955248496
 50
0.2360224000856219
 51
89.9264314043428357
  0
LINE
  5
AB48
  8
0
 10
3452.2247162693620339
 20
191.605459790165213
 30
0.0
 11
3452.2247162693620339
 21
190.4243574806878883
 31
0.0
  0
ARC
  5
AB49
  8
0
 10
3452.1462770912598899
 20
190.424033581522707
 30
0.0
 40
0.0784398468390806
 50
269.9262279491957202
 51
0.236590312743364
  0
LINE
  5
AB4A
  8
0
 10
3452.146176094871862
 20
190.3455937997032947
 30
0.0
 11
3451.3285745746420616
 21
190.3453495061689011
 31
0.0
  0
ARC
  5
AB4B
  8
0
 10
3451.4769199299407774
 20
190.2272839431726084
 30
0.0
 40
0.1181098822799731
 50
90.0170484553886752
 51
180.0172912984052118
  0
LINE
  5
AB4C
  8
0
 10
3451.3589510077908926
 20
189.7548073749649973
 30
0.0
 11
3449.9416282363840764
 21
189.7543838889750987
 31
0.0
  0
ARC
  5
AB4D
  8
0
 10
3451.3274584751811744
 20
189.742986941101492
 30
0.0
 40
0.0118110235910063
 50
0.0171195538967137
 51
90.0171196156066031
  0
LINE
  5
AB4E
  8
0
 10
3451.3392694982449029
 20
189.7429904701477028
 30
0.0
 11
3451.3392859671271253
 21
189.6878723623080134
 31
0.0
  0
ARC
  5
AB4F
  8
0
 10
3451.3274749440511187
 20
189.6878688332618026
 30
0.0
 40
0.0118110236037272
 50
270.0171196743870041
 51
0.0171195538999706
  0
LINE
  5
AB50
  8
0
 10
3451.3274784731220279
 20
189.6760578101853127
 30
0.0
 11
3449.973161899277784
 21
189.67565314757951
 31
0.0
  0
ARC
  5
AB51
  8
0
 10
3449.9731583659981879
 20
189.6874782534133885
 30
0.0
 40
0.0118251063617105
 50
180.0853425780827024
 51
270.0171196743870041
  0
LINE
  5
AB52
  8
0
 10
3449.9613332727549277
 20
189.6874606398178003
 30
0.0
 11
3449.9613168038549702
 21
189.7425787476574044
 31
0.0
  0
ARC
  5
AB53
  8
0
 10
3449.9731278270887742
 20
189.7425822765403041
 30
0.0
 40
0.0118110237618271
 50
90.017119871571964
 51
180.0173083078894933
  0
LINE
  5
AB54
  8
0
 10
3451.2802343807311445
 20
189.6760436939856902
 30
0.0
 11
3451.2804273021260997
 21
189.030374431507397
 31
0.0
  0
LINE
  5
AB55
  8
0
 10
3451.2804273021260997
 20
189.030374431507397
 30
0.0
 11
3451.2568123140799798
 21
189.0067453271620934
 31
0.0
  0
LINE
  5
AB56
  8
0
 10
3451.2568123140799798
 20
189.0067453271620934
 30
0.0
 11
3450.0442139430087991
 21
189.0063830113707013
 31
0.0
  0
LINE
  5
AB57
  8
0
 10
3450.0442139430087991
 20
189.0063830113707013
 30
0.0
 11
3450.0205848387640799
 21
189.0299979995164108
 31
0.0
  0
LINE
  5
AB58
  8
0
 10
3450.0205848387640799
 20
189.0299979995164108
 30
0.0
 11
3450.0203919173691247
 21
189.6756672619947039
 31
0.0
  0
LINE
  5
AB59
  8
0
 10
3449.9416282363840764
 20
189.7543838889750987
 30
0.0
 11
3449.9414872185520835
 21
190.2268248128343089
 31
0.0
  0
ARC
  5
AB5A
  8
0
 10
3449.8233767415931652
 20
190.2267892761566088
 30
0.0
 40
0.11811048230507
 50
0.0172389583156511
 51
90.0170701205212396
  0
LINE
  5
AB5B
  8
0
 10
3449.823341552959846
 20
190.3448997532198064
 30
0.0
 11
3449.603935836465098
 21
190.3448341963481028
 31
0.0
  0
ARC
  5
AB5C
  8
0
 10
3449.610656762706185
 20
190.4240405502667102
 30
0.0
 40
0.0794909891158286
 50
203.7196634814335141
 51
265.1498780666859716
  0
ARC
  5
AB5D
  8
0
 10
3449.429507894983999
 20
190.3445684926201977
 30
0.0
 40
0.1183238951917737
 50
23.6660677322056685
 51
89.9534290705180553
  0
LINE
  5
AB5E
  8
0
 10
3449.4296040667350098
 20
190.4628923487242957
 30
0.0
 11
3447.4611016938060857
 21
190.4623041742792964
 31
0.0
  0
ARC
  5
AB5F
  8
0
 10
3447.4611369843150896
 20
190.3441938929576054
 30
0.0
 40
0.118110286593998
 50
90.0171195690461161
 51
180.017115402982995
  0
LINE
  5
AB60
  8
0
 10
3447.3430267029898459
 20
190.3441586110373862
 30
0.0
 11
3447.3430502242481452
 21
190.2654184987505062
 31
0.0
  0
ARC
  5
ACD0
  8
0
 10
3450.8752833204598574
 20
191.6031465547970924
 30
0.0
 40
0.0500809674506211
 50
2.2029095086456318
 51
50.4723205975033693
  0
LINE
  5
ACD1
  8
0
 10
3450.925327276362168
 20
191.6050715946743139
 30
0.0
 11
3450.9253487016608233
 21
191.5263314400611989
 31
0.0
  0
ARC
  5
ACD2
  8
0
 10
3450.7678704954910245
 20
191.5262843866902926
 30
0.0
 40
0.1574782131999939
 50
315.0171195042656223
 51
0.017119571967556
  0
ARC
  5
ACD3
  8
0
 10
3450.767865419582904
 20
191.5262894595653904
 30
0.0
 40
0.1574853894732193
 50
270.0189657191872925
 51
315.0171195042656223
  0
LINE
  5
ACD4
  8
0
 10
3450.7679175494899937
 20
191.3688040787199895
 30
0.0
 11
3450.5316970900298656
 21
191.3687258863801901
 31
0.0
  0
ARC
  5
ACD5
  8
0
 10
3450.5316449743049816
 20
191.5261684285345893
 30
0.0
 40
0.1574425507799558
 50
225.0067486765225055
 51
270.0189657191872925
  0
ARC
  5
ACD6
  8
0
 10
3450.5317239317591884
 20
191.5262474045919134
 30
0.0
 40
0.1575542266380796
 50
180.0293300345055911
 51
225.0067486765225055
  0
LINE
  5
ACD7
  8
0
 10
3450.374169725765114
 20
191.526166751693097
 30
0.0
 11
3450.374129418233224
 21
191.6049068985763029
 31
0.0
  0
ARC
  5
ACD8
  8
0
 10
3450.4241366957398895
 20
191.6049324975876118
 30
0.0
 40
0.0500072840594627
 50
115.5223528380962961
 51
180.0293300345072112
  0
ARC
  5
ACD9
  8
0
 10
3450.5236805831009406
 20
191.4498348854764913
 30
0.0
 40
0.2339933823306338
 50
88.0597457575582752
 51
121.1643075746884932
  0
ARC
  5
ACDA
  8
0
 10
3450.7696029015828572
 20
191.3984484022473112
 30
0.0
 40
0.2853218367127022
 50
73.4521399288208556
 51
90.3571815251949317
  0
ARC
  5
ACDB
  8
0
 10
3450.8058191527989038
 20
191.52033843790079
 30
0.0
 40
0.1581652496094774
 50
50.1551284174981404
 51
73.4521399288208556
  0
LINE
  5
ACDC
  8
0
 10
3451.358810053040088
 20
190.2272482987812054
 30
0.0
 11
3451.1188839076298791
 21
190.227176610612787
 31
0.0
  0
ARC
  5
ACDD
  8
0
 10
3451.2510267105049024
 20
190.3091712146170948
 30
0.0
 40
0.155514743473228
 50
178.8265502685837873
 51
211.8195999306610986
  0
LINE
  5
ACDE
  8
0
 10
3451.0955445814847735
 20
190.3123560212152938
 30
0.0
 11
3451.0955229805717863
 21
190.3846499524632918
 31
0.0
  0
LINE
  5
ACDF
  8
0
 10
3451.0955228692719174
 20
190.38464995243001
 30
0.0
 11
3450.2046798314381704
 21
190.3843837748497094
 31
0.0
  0
ARC
  5
ACE0
  8
0
 10
3450.6502660456058038
 20
189.8333148491531972
 30
0.0
 40
0.7086776665915365
 50
51.0757457375474431
 51
128.9584934063921935
  0
LINE
  5
ACE1
  8
0
 10
3450.2046798314381704
 20
190.3843837748497094
 30
0.0
 11
3450.2047015902471685
 21
190.3120868467239006
 31
0.0
  0
ARC
  5
ACE2
  8
0
 10
3450.0525593892079996
 20
190.3078996064303112
 30
0.0
 40
0.1521997350563568
 50
327.8447091215396085
 51
1.577619436802093
  0
LINE
  5
ACE3
  8
0
 10
3450.181413012676785
 20
190.2268965009596116
 30
0.0
 11
3449.9414872185520835
 21
190.2268248128343089
 31
0.0
  0
ARC
  5
ACE4
  8
0
 10
3447.9087057122278566
 20
190.94167148222121
 30
0.0
 40
0.6558523268749182
 50
187.5107293046100096
 51
226.9625124913291927
  0
ARC
  5
ACE5
  8
0
 10
3447.9082969837018027
 20
190.7708454270616869
 30
0.0
 40
0.6553650981880484
 50
133.0568424556489049
 51
172.5391437247230897
  0
LINE
  5
ACE6
  8
0
 10
3451.358810053040088
 20
190.2272482989278899
 30
0.0
 11
3451.3589510077908926
 21
189.7548073749649973
 31
0.0
  0
ARC
  5
ACE7
  8
0
 10
3451.3106914643558412
 20
190.1319538447087041
 30
0.0
 40
0.2141436759831949
 50
85.2096580355624695
 51
153.5979227066989097
  0
ENDSEC
  0
EOF
