  0
SECTION
  2
HEADER
  9
$ACADVER
  1
AC1009
  9
$INSBASE
 10
282.0188230760737724
 20
128.9191448867169072
 30
0.0
  9
$EXTMIN
 10
280.8776061792303267
 20
128.9130851194973957
 30
-0.0000000349181948
  9
$EXTMAX
 10
283.2693420911949147
 20
135.1764069337515082
 30
0.0000000814935746
  9
$LIMMIN
 10
0.0
 20
0.0
  9
$LIMMAX
 10
11.6929133858000007
 20
8.2677165353999982
  9
$ORTHOMODE
 70
     0
  9
$REGENMODE
 70
     1
  9
$FILLMODE
 70
     1
  9
$QTEXTMODE
 70
     0
  9
$MIRRTEXT
 70
     0
  9
$DRAGMODE
 70
     2
  9
$LTSCALE
 40
0.6431102362
  9
$OSMODE
 70
  4095
  9
$ATTMODE
 70
     1
  9
$TEXTSIZE
 40
0.2
  9
$TRACEWID
 40
0.05
  9
$TEXTSTYLE
  7
STANDARD
  9
$CLAYER
  8
0
  9
$CELTYPE
  6
BYLAYER
  9
$CECOLOR
 62
   256
  9
$DIMSCALE
 40
1.0
  9
$DIMASZ
 40
0.1875
  9
$DIMEXO
 40
0.0625
  9
$DIMDLI
 40
0.4443307087
  9
$DIMRND
 40
0.0
  9
$DIMDLE
 40
0.0
  9
$DIMEXE
 40
0.125
  9
$DIMTP
 40
0.01
  9
$DIMTM
 40
0.01
  9
$DIMTXT
 40
0.15625
  9
$DIMCEN
 40
0.1052362205
  9
$DIMTSZ
 40
0.0
  9
$DIMTOL
 70
     1
  9
$DIMLIM
 70
     0
  9
$DIMTIH
 70
     1
  9
$DIMTOH
 70
     1
  9
$DIMSE1
 70
     0
  9
$DIMSE2
 70
     0
  9
$DIMTAD
 70
     0
  9
$DIMZIN
 70
     0
  9
$DIMBLK
  1
_FILLED
  9
$DIMASO
 70
     1
  9
$DIMSHO
 70
     1
  9
$DIMPOST
  1

  9
$DIMAPOST
  1

  9
$DIMALT
 70
     1
  9
$DIMALTD
 70
     2
  9
$DIMALTF
 40
25.3999999999999986
  9
$DIMLFAC
 40
1.0
  9
$DIMTOFL
 70
     0
  9
$DIMTVP
 40
0.0
  9
$DIMTIX
 70
     0
  9
$DIMSOXD
 70
     0
  9
$DIMSAH
 70
     0
  9
$DIMBLK1
  1

  9
$DIMBLK2
  1

  9
$DIMSTYLE
  2
STANDARD
  9
$DIMCLRD
 70
     0
  9
$DIMCLRE
 70
     0
  9
$DIMCLRT
 70
     0
  9
$DIMTFAC
 40
1.0
  9
$DIMGAP
 40
0.09
  9
$LUNITS
 70
     2
  9
$LUPREC
 70
     4
  9
$SKETCHINC
 40
0.1
  9
$FILLETRAD
 40
0.0
  9
$AUNITS
 70
     0
  9
$AUPREC
 70
     0
  9
$MENU
  1
.
  9
$ELEVATION
 40
0.0
  9
$PELEVATION
 40
0.0
  9
$THICKNESS
 40
0.0
  9
$LIMCHECK
 70
     0
  9
$BLIPMODE
 70
     0
  9
$CHAMFERA
 40
0.0
  9
$CHAMFERB
 40
0.0
  9
$SKPOLY
 70
     0
  9
$TDCREATE
 40
2459868.5124768521636724
  9
$TDUPDATE
 40
2460076.5349884261377156
  9
$TDINDWG
 40
0.3968865741
  9
$TDUSRTIMER
 40
0.3968865741
  9
$USRTIMER
 70
     1
  9
$ANGBASE
 50
0.0
  9
$ANGDIR
 70
     0
  9
$PDMODE
 70
     0
  9
$PDSIZE
 40
0.3125
  9
$PLINEWID
 40
0.0
  9
$COORDS
 70
     1
  9
$SPLFRAME
 70
     0
  9
$SPLINETYPE
 70
     6
  9
$SPLINESEGS
 70
     8
  9
$ATTDIA
 70
     1
  9
$ATTREQ
 70
     1
  9
$HANDLING
 70
     1
  9
$HANDSEED
  5
6A7E
  9
$SURFTAB1
 70
     6
  9
$SURFTAB2
 70
     6
  9
$SURFTYPE
 70
     6
  9
$SURFU
 70
     6
  9
$SURFV
 70
     6
  9
$UCSNAME
  2

  9
$UCSORG
 10
0.0
 20
0.0
 30
0.0
  9
$UCSXDIR
 10
1.0
 20
0.0
 30
0.0
  9
$UCSYDIR
 10
0.0
 20
1.0
 30
0.0
  9
$PUCSNAME
  2

  9
$PUCSORG
 10
0.0
 20
0.0
 30
0.0
  9
$PUCSXDIR
 10
1.0
 20
0.0
 30
0.0
  9
$PUCSYDIR
 10
0.0
 20
1.0
 30
0.0
  9
$USERI1
 70
     0
  9
$USERI2
 70
     0
  9
$USERI3
 70
     0
  9
$USERI4
 70
     0
  9
$USERI5
 70
     0
  9
$USERR1
 40
0.0
  9
$USERR2
 40
0.0
  9
$USERR3
 40
0.0
  9
$USERR4
 40
0.0
  9
$USERR5
 40
0.0
  9
$WORLDVIEW
 70
     1
  9
$SHADEDGE
 70
     3
  9
$SHADEDIF
 70
    70
  9
$TILEMODE
 70
     1
  9
$MAXACTVP
 70
    64
  9
$PLIMCHECK
 70
     0
  9
$PEXTMIN
 10
1.0000000000000000E+20
 20
1.0000000000000000E+20
 30
1.0000000000000000E+20
  9
$PEXTMAX
 10
-1.0000000000000000E+20
 20
-1.0000000000000000E+20
 30
-1.0000000000000000E+20
  9
$PLIMMIN
 10
0.0
 20
0.0
  9
$PLIMMAX
 10
12.0
 20
9.0
  9
$UNITMODE
 70
     0
  9
$VISRETAIN
 70
     1
  9
$PLINEGEN
 70
     0
  9
$PSLTSCALE
 70
     1
  0
ENDSEC
  0
SECTION
  2
TABLES
  0
TABLE
  2
VPORT
 70
     1
  0
VPORT
  2
*ACTIVE
 70
     0
 10
0.0
 20
0.0
 11
1.0
 21
1.0
 12
282.0734741352126207
 22
132.0447460266244093
 13
0.0
 23
0.0
 14
1.0
 24
1.0
 15
0.0
 25
0.0
 16
0.0
 26
0.0
 36
1.0
 17
0.0
 27
0.0
 37
0.0
 40
6.3129650518835092
 41
2.5251322751322749
 42
50.0
 43
0.0
 44
0.0
 50
0.0
 51
0.0
 71
     0
 72
   100
 73
     1
 74
     1
 75
     0
 76
     0
 77
     0
 78
     0
  0
ENDTAB
  0
TABLE
  2
LTYPE
 70
     1
  0
LTYPE
  2
CONTINUOUS
 70
     0
  3
Solid line
 72
    65
 73
     0
 40
0.0
  0
ENDTAB
  0
TABLE
  2
LAYER
 70
     2
  0
LAYER
  2
0
 70
     0
 62
     7
  6
CONTINUOUS
  0
LAYER
  2
DEFPOINTS
 70
     0
 62
     7
  6
CONTINUOUS
  0
ENDTAB
  0
TABLE
  2
STYLE
 70
     1
  0
STYLE
  2
STANDARD
 70
     0
 40
0.0
 41
0.8
 50
0.0
 71
     0
 42
0.2
  3
txt
  4

  0
ENDTAB
  0
TABLE
  2
VIEW
 70
     0
  0
ENDTAB
  0
TABLE
  2
UCS
 70
     0
  0
ENDTAB
  0
TABLE
  2
APPID
 70
    12
  0
APPID
  2
ACAD
 70
     0
  0
APPID
  2
ACAD_DSTYLE_DIMRADIAL_EXTENSION
 70
     0
  0
APPID
  2
ACAD_NAV_VCDISPLAY
 70
     0
  0
APPID
  2
ACAD_MLEADERVER
 70
     0
  0
APPID
  2
ACAD_EXEMPT_FROM_CAD_STANDARDS
 70
     0
  0
APPID
  2
ACAECLAYERSTANDARD
 70
     0
  0
APPID
  2
ACCMTRANSPARENCY
 70
     0
  0
APPID
  2
ACAD_DSTYLE_DIMJAG
 70
     0
  0
APPID
  2
ACAD_DSTYLE_DIMTALN
 70
     0
  0
APPID
  2
ACDBATTR
 70
     0
  0
APPID
  2
ACADANNOTATIVE
 70
     0
  0
APPID
  2
DCO15
 70
     0
  0
ENDTAB
  0
TABLE
  2
DIMSTYLE
 70
     1
  0
DIMSTYLE
  2
STANDARD
 70
     0
  3

  4

  5
_FILLED
  6
_FILLED
  7
_FILLED
 40
1.0
 41
0.1875
 42
0.0625
 43
0.38
 44
0.125
 45
0.0
 46
0.0
 47
0.01
 48
0.01
140
0.15625
141
0.09
142
0.0
143
25.3999999999999986
144
1.0
145
0.0
146
1.0
147
0.09
 71
     1
 72
     0
 73
     1
 74
     1
 75
     0
 76
     0
 77
     0
 78
     4
170
     1
171
     2
172
     0
173
     0
174
     0
175
     0
176
     0
177
     0
178
     0
  0
ENDTAB
  0
ENDSEC
  0
SECTION
  2
BLOCKS
  0
BLOCK
  8
0
  2
$MODEL_SPACE
 70
     0
 10
0.0
 20
0.0
 30
0.0
  3
$MODEL_SPACE
  1

  0
ENDBLK
  5
21
  8
0
  0
BLOCK
 67
     1
  8
0
  2
$PAPER_SPACE
 70
     0
 10
0.0
 20
0.0
 30
0.0
  3
$PAPER_SPACE
  1

  0
ENDBLK
  5
1D
 67
     1
  8
0
  0
BLOCK
  8
0
  2
_FILLED
 70
     0
 10
0.0
 20
0.0
 30
0.0
  3
_FILLED
  1

  0
SOLID
  5
212
  8
0
  6
BYBLOCK
 62
     0
 10
0.0
 20
0.0
 30
0.0
 11
-1.0
 21
0.1666666667
 31
0.0
 12
-1.0
 22
-0.1666666667
 32
0.0
 13
-1.0
 23
-0.1666666667
 33
0.0
  0
ENDBLK
  5
213
  8
0
  6
BYBLOCK
 62
     0
  0
ENDSEC
  0
SECTION
  2
ENTITIES
  0
LINE
  5
D45
  8
0
 10
-1.607698385787991
 20
273788.254113320785109
 30
0.0
 11
-1.607698385787991
 21
273788.2541133213089779
 31
0.0
  0
ATTDEF
  5
44DA
  8
DEFPOINTS
 10
282.0198899486214259
 20
128.9169218561434889
 30
0.0
 40
0.001
  1
K-28144K
  3

  2
MODELNUMBER
 70
     0
1001
ACDBATTR
1070
     0
1070
     1
  0
ATTDEF
  5
44DB
  8
DEFPOINTS
 10
282.0197641389651153
 20
128.915255015764302
 30
0.0
 40
0.001
  1
PUREWASH
  3

  2
TRADENAME
 70
     0
1001
ACDBATTR
1070
     0
1070
     1
  0
ATTDEF
  5
44DC
  8
DEFPOINTS
 10
282.0198899486214259
 20
128.913588522810187
 30
0.0
 40
0.001
  1
PORTABLE BIDET
  3

  2
PRODUCT
 70
     0
1001
ACDBATTR
1070
     0
1070
     1
  0
LINE
  5
6859
  8
0
 10
283.0880128735738026
 20
128.9191448867169072
 30
0.0
 11
280.9496332785737991
 21
128.9191448867169072
 31
0.0
  0
LINE
  5
685A
  8
0
 10
282.6714584938737858
 20
135.1632393749169125
 30
0.0
 11
281.0929517863750107
 21
135.1632393749169125
 31
0.0
  0
LINE
  5
68AE
  8
0
 10
280.8906331316737806
 20
128.9506409497168988
 30
0.0
 11
280.8906331316737806
 21
133.6876902690881082
 31
0.0
  0
LINE
  5
68AF
  8
0
 10
283.2618985047737965
 20
131.8831378834242116
 30
0.0
 11
283.2618985047732281
 21
131.9015844690001131
 31
0.0
  0
LINE
  5
68B2
  8
0
 10
281.0026813438736895
 20
134.5923732331168878
 30
0.0
 11
281.0026813438736895
 21
134.6272433685172984
 31
0.0
  0
LINE
  5
68B3
  8
0
 10
281.0597679579740884
 20
134.6349284598778127
 30
0.0
 11
281.0597679579740884
 21
134.7104834693168982
 31
0.0
  0
LINE
  5
68B4
  8
0
 10
282.8352471572359264
 20
134.5924126033897039
 30
0.0
 11
280.9299430177737236
 21
134.5924126033897039
 31
0.0
  0
ARC
  5
68B5
  8
0
 10
282.8352471572359264
 20
134.5727126033897036
 30
0.0
 40
0.0197
 50
0.1516300590374607
 51
90.0
  0
LINE
  5
68B6
  8
0
 10
282.7054372492737002
 20
134.7104834693168982
 30
0.0
 11
281.0597679579736905
 21
134.7104834693168982
 31
0.0
  0
LINE
  5
68B7
  8
0
 10
283.1266079667602185
 20
131.753793198316913
 30
0.0
 11
283.1241032291737838
 21
131.753793198316913
 31
0.0
  0
ARC
  5
68B8
  8
0
 10
280.9086883966738242
 20
128.9506409497168988
 30
0.0
 40
0.0157480314999989
 50
179.9999999999967031
 51
270.0
  0
LINE
  5
68B9
  8
0
 10
280.9496332785737991
 20
128.9191448867169072
 30
0.0
 11
280.9496332785737991
 21
128.9348929182170025
 31
0.0
  0
LINE
  5
68BA
  8
0
 10
283.0880128735738026
 20
128.9191448867169072
 30
0.0
 11
283.0880128735738026
 21
128.9348929182170025
 31
0.0
  0
LINE
  5
68BB
  8
0
 10
282.7054372493736878
 20
134.7104834693168982
 30
0.0
 11
282.7054372493736878
 21
134.698818505766809
 31
0.0
  0
ARC
  5
68BC
  8
0
 10
285.0395412845210785
 20
161.0307641919357877
 30
0.0
 40
26.4351925520932411
 50
264.9344537871883176
 51
265.0584501051608868
  0
ARC
  5
68BD
  8
0
 10
280.930010577010421
 20
134.5726600024835875
 30
0.0
 40
0.0197527164412007
 50
90.1959662957502815
 51
179.7189112706143987
  0
ARC
  5
68BE
  8
0
 10
281.0034155603837007
 20
134.627199267931303
 30
0.0
 40
0.000735539764499
 50
130.9394258157439879
 51
176.5626687974964
  0
ARC
  5
68BF
  8
0
 10
281.0052457138093018
 20
134.6252154707719058
 30
0.0
 40
0.0034343267739804
 50
110.0088562545040958
 51
132.3175710910306861
  0
ARC
  5
68C0
  8
0
 10
281.023080744066192
 20
134.5683566884596871
 30
0.0
 40
0.0630213470165148
 50
95.4815471400350759
 51
107.5564932844659012
  0
ARC
  5
68C1
  8
0
 10
281.0990346540932023
 20
133.9585650977687976
 30
0.0
 40
0.6775022295368919
 50
93.3226125977624719
 51
96.9495007142978835
  0
ARC
  5
68C2
  8
0
 10
281.560492911969277
 20
126.6916574929425963
 30
0.0
 40
7.9590375758448006
 50
90.6985596370053315
 51
93.6070172558028872
  0
ARC
  5
68C3
  8
0
 10
284.0945376968281266
 20
38.1367230199920897
 30
0.0
 40
96.549237179666008
 50
91.3567413960421675
 51
91.5615707077188432
  0
ARC
  5
68C4
  8
0
 10
279.057768474732427
 20
252.2782332796830076
 30
0.0
 40
117.6515015286964996
 50
271.3397183530635175
 51
271.6585100850327876
  0
ARC
  5
68C5
  8
0
 10
282.3292030886029806
 20
140.3466825658728112
 30
0.0
 40
5.672239868956658
 50
271.3504835429442892
 51
274.1584738799394927
  0
ARC
  5
68C6
  8
0
 10
282.7329572733574992
 20
134.7936261425963096
 30
0.0
 40
0.1045246214737827
 50
274.153347783312995
 51
285.7310292697948171
  0
ARC
  5
68C7
  8
0
 10
282.7603627957112167
 20
134.6955135995858939
 30
0.0
 40
0.002665853704043
 50
290.4948557263697921
 51
320.803704703354299
  0
ARC
  5
68C8
  8
0
 10
281.4833720240501975
 20
129.5630324105196962
 30
0.0
 40
5.0895549845041721
 50
91.2720577761875234
 51
94.774255215837087
  0
ARC
  5
68C9
  8
0
 10
283.4118692399084125
 20
70.2480973613272965
 30
0.0
 40
64.4355835777859056
 50
91.4300716862833127
 51
91.8155807440124363
  0
ARC
  5
68CA
  8
0
 10
272.7040391719461923
 20
489.2577281514693937
 30
0.0
 40
354.7108579336452863
 50
271.470021928435699
 51
271.504772553370799
  0
ARC
  5
68CB
  8
0
 10
277.5892513592281716
 20
301.5486333363498943
 30
0.0
 40
166.9382158200870094
 50
271.520476027703296
 51
271.5949264322185854
  0
ARC
  5
68CC
  8
0
 10
282.0947286622297838
 20
143.0933999885926085
 30
0.0
 40
8.4194875093588077
 50
270.9591238548267143
 51
274.0545287356043787
  0
ARC
  5
68CD
  8
0
 10
282.6848339906305227
 20
134.7549893005858905
 30
0.0
 40
0.0602296452595204
 50
274.9543199339365174
 51
288.7027989184117018
  0
ARC
  5
68CE
  8
0
 10
282.7026709964993074
 20
134.7014946399268922
 30
0.0
 40
0.0038488763307217
 50
292.5529653169069206
 51
315.9486554540097245
  0
ARC
  5
68CF
  8
0
 10
281.093792840962692
 20
135.151411797245089
 30
0.0
 40
0.0118574435019638
 50
94.0674347255787353
 51
178.9239124181399916
  0
ARC
  5
68D0
  8
0
 10
732.5965511960863523
 20
127.0497748416088939
 30
0.0
 40
451.5872966780473803
 50
178.9720099013748893
 51
179.0279900907937076
  0
ARC
  5
68D1
  8
0
 10
282.6714584936228221
 20
135.1514283509553991
 30
0.0
 40
0.0118110239615248
 50
1.0000095624225649
 51
89.9999987825720069
  0
ARC
  5
68D2
  8
0
 10
32.0265039104840028
 20
130.5557617412970899
 30
0.0
 40
250.6988936733849016
 50
0.9495810474460903
 51
1.0504189267148161
  0
LINE
  5
68D3
  8
0
 10
282.2136921896737931
 20
135.1632393749169125
 30
0.0
 11
282.2136921897737807
 21
135.1671763827170025
 31
0.0
  0
LINE
  5
68D4
  8
0
 10
282.2136921897737807
 20
135.1671763827170025
 30
0.0
 11
282.2661351348738208
 21
135.1671763827170025
 31
0.0
  0
LINE
  5
68D5
  8
0
 10
282.2661351348738208
 20
135.1671763827170025
 30
0.0
 11
282.2661351348738208
 21
135.1632393749169125
 31
0.0
  0
LINE
  5
68FA
  8
0
 10
283.129005786973778
 20
128.9348929182170025
 30
0.0
 11
280.9086883966738242
 21
128.9348929182170025
 31
0.0
  0
LINE
  5
68FB
  8
0
 10
281.8037588842738046
 20
134.2577989198169064
 30
0.0
 11
283.1287170095732222
 21
134.2577989198169064
 31
0.0
  0
LINE
  5
68FC
  8
0
 10
282.1512772807333818
 20
134.2774152456163961
 30
0.0
 11
283.1090171872737073
 21
134.2774152456169077
 31
0.0
  0
LINE
  5
68FD
  8
0
 10
282.8556765808368141
 20
134.2971152456167943
 30
0.0
 11
282.1442365352925208
 21
134.2971152456167943
 31
0.0
  0
ARC
  5
68FE
  8
0
 10
282.8753765808368144
 20
134.2971152456169079
 30
0.0
 40
0.0197
 50
180.0
 51
270.0
  0
LINE
  5
68FF
  8
0
 10
282.8549470882497872
 20
134.5727647382711893
 30
0.0
 11
282.8556765808368141
 21
134.2971152456169079
 31
0.0
  0
LINE
  5
6900
  8
0
 10
283.1287171872737076
 20
134.1919897903169101
 30
0.0
 11
283.1287171872737076
 21
134.2577152456169074
 31
0.0
  0
LINE
  5
6901
  8
0
 10
283.1287171872737076
 20
134.1919897903169101
 30
0.0
 11
283.1152932780736933
 21
134.1917544721169122
 31
0.0
  0
ARC
  5
6902
  8
0
 10
283.1090171872737073
 20
134.2577152456169074
 30
0.0
 40
0.0197
 50
0.0
 51
89.9999999999967457
  0
ARC
  5
6903
  8
0
 10
282.2783070761211093
 20
131.6421513636360032
 30
0.0
 40
2.6583468781445578
 50
92.8908704205853155
 51
100.2831300973266053
  0
LINE
  5
6904
  8
0
 10
280.9102580982738004
 20
134.5727569074169025
 30
0.0
 11
280.8906331316737806
 21
133.6876902690881082
 31
0.0
  0
ARC
  5
6905
  8
0
 10
283.1149383707737002
 20
134.191757048116898
 30
0.0
 40
0.0118110235999973
 50
271.001950449878791
 51
0.9616094136152561
  0
LINE
  5
6906
  8
0
 10
283.1089413157217223
 20
134.1798395482990998
 30
0.0
 11
283.1089389573207882
 21
134.1798395071338064
 31
0.0
  0
ARC
  5
6907
  8
0
 10
283.1155065178455175
 20
134.1892920757200045
 30
0.0
 40
0.0024716122705744
 50
94.9493794625651617
 51
141.9962856774264139
  0
ARC
  5
6908
  8
0
 10
283.1227983000472932
 20
134.1826411293639865
 30
0.0
 40
0.0123352844349334
 50
138.5053190369906133
 51
161.3815887131871136
  0
ARC
  5
6909
  8
0
 10
283.1570263776432057
 20
134.1680788457989024
 30
0.0
 40
0.0495046780446102
 50
158.0552689797737003
 51
166.2570325781514953
  0
ARC
  5
690A
  8
0
 10
283.2790906742042125
 20
134.1405501326707963
 30
0.0
 40
0.174628925737079
 50
166.9978403694098859
 51
180.2513353822531883
  0
ARC
  5
690B
  8
0
 10
596.7122344123106359
 20
134.0606723143459078
 30
0.0
 40
313.6077809621295955
 50
179.9855463674524003
 51
180.4280712492121097
  0
ARC
  5
690C
  8
0
 10
340.8722695586562281
 20
130.4349371710248988
 30
0.0
 40
57.7443363254921778
 50
178.9270715283659001
 51
181.4729284700013068
  0
ARC
  5
690D
  8
0
 10
283.1241032291737838
 20
131.8915884739172952
 30
0.0
 40
0.1377952756004177
 50
265.3599483922523063
 51
269.9999999999935199
  0
ARC
  5
690E
  8
0
 10
283.1238786925177919
 20
131.8924217154138034
 30
0.0
 40
0.1386553810365039
 50
271.1278754124808188
 51
289.7323458973762058
  0
LINE
  5
690F
  8
0
 10
283.1044546172134915
 20
134.0877261906287004
 30
0.0
 11
283.1183534940471986
 21
134.0864919082841027
 31
0.0
  0
LINE
  5
6910
  8
0
 10
283.1183534940471986
 20
134.0864919082841027
 30
0.0
 11
283.12912419660762
 21
134.0747685535546054
 31
0.0
  0
LINE
  5
6911
  8
0
 10
283.1193871784736871
 20
133.7637039880169993
 30
0.0
 11
283.1045952936534036
 21
133.7623999335947076
 31
0.0
  0
LINE
  5
6912
  8
0
 10
283.1193871784736871
 20
133.7637039880169993
 30
0.0
 11
283.130168805973824
 21
133.7755113766170041
 31
0.0
  0
ARC
  5
6913
  8
0
 10
284.0559383972386058
 20
133.9283733485866037
 30
0.0
 40
0.9383049176728357
 50
171.0239884205007002
 51
189.3760117817647028
  0
ARC
  5
6914
  8
0
 10
142444.9064085843856446
 20
630.1656307186326558
 30
0.0
 40
142162.6428665400017053
 50
180.1999397997396102
 51
180.2000604100302041
  0
ARC
  5
6915
  8
0
 10
284.2125478451516756
 20
133.9286003016700874
 30
0.0
 40
1.1055274928413541
 50
171.7889305688260038
 51
188.5780320640253933
  0
ARC
  5
6916
  8
0
 10
283.1236191717615043
 20
131.8922471837396131
 30
0.0
 40
0.1385790506914728
 50
289.8577080516275259
 51
356.2310244082863733
  0
ARC
  5
6917
  8
0
 10
-4009.0121778002899191
 20
-243.6765486330347983
 30
0.0
 40
4308.6744690432233256
 50
5.0006995921496564
 51
5.0230007083809269
  0
LINE
  5
6918
  8
0
 10
283.1153878823225796
 20
133.5722288233583868
 30
0.0
 11
283.1048279831734931
 21
133.5759942964193954
 31
0.0
  0
ARC
  5
6919
  8
0
 10
283.129005786973778
 20
128.9505929182168984
 30
0.0
 40
0.0157
 50
270.0
 51
0.1752870399174937
  0
LINE
  5
691A
  8
0
 10
280.8906331316737806
 20
128.9506409497168988
 30
0.0
 11
283.147013020473878
 21
128.9506409497168988
 31
0.0
  0
ARC
  5
691B
  8
0
 10
284.1296366471930241
 20
131.7407836881147034
 30
0.0
 40
1.016693703239206
 50
181.3037484025595063
 51
192.76154549143601
  0
LINE
  5
691C
  8
0
 10
282.7054372492737002
 20
134.5924126033897039
 30
0.0
 11
282.7054372492737002
 21
134.6197536557671981
 31
0.0
  0
ARC
  5
691D
  8
0
 10
283.1240174203433071
 20
131.8968757665330997
 30
0.0
 40
0.0643253336617455
 50
259.5598835128448059
 51
268.9195899818907947
  0
ARC
  5
691E
  8
0
 10
283.1235494617533277
 20
131.897538139532287
 30
0.0
 40
0.0649966797339587
 50
271.4358669574137934
 51
281.1297721516805836
  0
ARC
  5
691F
  8
0
 10
283.1241032291738975
 20
131.8915884739168973
 30
0.0
 40
0.0590551180999011
 50
281.7168774135175227
 51
346.8344883297435217
  0
ARC
  5
6920
  8
0
 10
283.1122473742374268
 20
131.8937795053608113
 30
0.0
 40
0.0711006557685788
 50
347.2913270115071782
 51
357.276770797726499
  0
ARC
  5
6921
  8
0
 10
283.1164160536998224
 20
131.8926624289051972
 30
0.0
 40
0.0668612267105891
 50
0.9681395680863758
 51
9.8741342968950843
  0
ARC
  5
6922
  8
0
 10
172.5660259134591001
 20
122.4862655418642987
 30
0.0
 40
111.0164551741326022
 50
4.8664236535420748
 51
5.3036376608271203
  0
LINE
  5
6923
  8
0
 10
281.1753072158737723
 20
134.7104834693168982
 30
0.0
 11
281.1820787632738075
 21
135.1516344820169024
 31
0.0
  0
LINE
  5
6924
  8
0
 10
281.3648143960115249
 20
135.1516344820850009
 30
0.0
 11
281.359788369373689
 21
134.7104834693168982
 31
0.0
  0
LINE
  5
6925
  8
0
 10
281.6100029283451249
 20
135.1516344820329891
 30
0.0
 11
281.6073286353737899
 21
134.7104834693168982
 31
0.0
  0
LINE
  5
6926
  8
0
 10
281.8880710045738169
 20
134.7104834693168982
 30
0.0
 11
281.8880710046071272
 21
135.1516344820277027
 31
0.0
  0
LINE
  5
6927
  8
0
 10
282.1654795110463851
 20
135.1516344820398956
 30
0.0
 11
282.1681538039737802
 21
134.7104834693168982
 31
0.0
  0
LINE
  5
6928
  8
0
 10
282.4087688875760023
 20
135.1516344818168136
 30
0.0
 11
282.413794914273808
 21
134.7104834693168982
 31
0.0
  0
LINE
  5
6929
  8
0
 10
282.5885948449172815
 20
135.1516344820522022
 30
0.0
 11
282.5953663922737746
 21
134.7104834693168982
 31
0.0
  0
ARC
  5
692A
  8
0
 10
281.1955216870691743
 20
135.1517220519216949
 30
0.0
 40
0.0134432090163577
 50
139.4390147707850929
 51
180.3732309325147867
  0
ARC
  5
692B
  8
0
 10
281.1917017315179237
 20
135.1548029227375878
 30
0.0
 40
0.0085389800189798
 50
98.8877339184438569
 51
138.476959712082305
  0
ARC
  5
692C
  8
0
 10
281.3836032015680075
 20
135.1518737600497957
 30
0.0
 40
0.0187903291149305
 50
154.3023514164819119
 51
180.7296302195076976
  0
ARC
  5
692D
  8
0
 10
281.3737103088571985
 20
135.1564129340586931
 30
0.0
 40
0.0079101260342538
 50
120.344859937917704
 51
152.8567827129218983
  0
ARC
  5
692E
  8
0
 10
281.6684167831202217
 20
135.1515733123871996
 30
0.0
 40
0.058413886802902
 50
172.3780423049061881
 51
179.9400012146157053
  0
ARC
  5
692F
  8
0
 10
281.6374423612816145
 20
135.15415542679591
 30
0.0
 40
0.0274144470677996
 50
160.6488855375266951
 51
169.1388673653736987
  0
ARC
  5
6930
  8
0
 10
281.8407980762621037
 20
135.1521166533082123
 30
0.0
 40
0.0472753872905124
 50
359.4156185583574938
 51
11.5754721043152191
  0
ARC
  5
6931
  8
0
 10
281.8843814254200879
 20
135.160904572950102
 30
0.0
 40
0.0028183904584631
 50
14.3451424116593707
 51
55.9364455469200124
  0
ARC
  5
6932
  8
0
 10
282.149112730111483
 20
135.152235699021702
 30
0.0
 40
0.0163778197590631
 50
357.8962438958292864
 51
42.2111324112745905
  0
ARC
  5
6933
  8
0
 10
282.395691057541228
 20
135.1517914989094038
 30
0.0
 40
0.0130787726025263
 50
359.3121194838709016
 51
49.1461442266125772
  0
ARC
  5
6934
  8
0
 10
282.3991888684952869
 20
135.1544987322511133
 30
0.0
 40
0.0087866990786196
 50
54.8598782854659106
 51
84.1310597162560043
  0
ARC
  5
6935
  8
0
 10
282.5764818443003037
 20
135.1515062669209044
 30
0.0
 40
0.0121136791715717
 50
0.606448374564471
 51
75.6000443380440004
  0
LINE
  5
6936
  8
0
 10
282.4350495200238242
 20
135.1632393749169125
 30
0.0
 11
282.4350495201238118
 21
135.1671763827170025
 31
0.0
  0
LINE
  5
6937
  8
0
 10
282.4350495201238118
 20
135.1671763827170025
 30
0.0
 11
282.4874924652237951
 21
135.1671763827170025
 31
0.0
  0
LINE
  5
6938
  8
0
 10
282.4874924652237951
 20
135.1671763827170025
 30
0.0
 11
282.4874924652237951
 21
135.1632393749169125
 31
0.0
  0
LINE
  5
6939
  8
0
 10
282.7624287932940774
 20
134.6938288355100894
 30
0.0
 11
282.7624419145737988
 21
134.6274861451169045
 31
0.0
  0
ARC
  5
693A
  8
0
 10
282.7489417645363119
 20
134.6603146127669959
 30
0.0
 40
0.0358593629314311
 50
277.8945288294946181
 51
290.0870755657339259
  0
ARC
  5
693B
  8
0
 10
282.7603914253866151
 20
134.6290941313347105
 30
0.0
 40
0.0026057869412662
 50
289.4144335766042104
 51
321.8965857314793197
  0
ARC
  5
693C
  8
0
 10
282.6083855004250722
 20
135.787201389899792
 30
0.0
 40
1.171474819996523
 50
274.7521603458724258
 51
277.1337889121115268
  0
ARC
  5
693D
  8
0
 10
282.3356458416553778
 20
138.674506501727393
 30
0.0
 40
4.0715803230405339
 50
270.6177684818982243
 51
275.2109309592657951
  0
ARC
  5
693E
  8
0
 10
281.2192128281587884
 20
170.5204197063401921
 30
0.0
 40
35.9359946516398381
 50
271.6208285103335811
 51
271.8503370552090814
  0
ARC
  5
693F
  8
0
 10
265.5377009011488099
 20
726.7046513413032471
 30
0.0
 40
592.341250865490565
 50
271.5932901645213065
 51
271.6153687120888094
  0
ARC
  5
6940
  8
0
 10
282.2830662918406119
 20
128.8556827950170032
 30
0.0
 40
5.4233339477974027
 50
91.3924455957426716
 51
95.0698669245798698
  0
LINE
  5
6946
  8
0
 10
283.1228045279286221
 20
131.8325618687916858
 30
0.0
 11
283.1251781474463769
 21
131.8325618687916858
 31
0.0
  0
LINE
  5
6947
  8
0
 10
283.1832677356575232
 20
131.8904014120421095
 30
0.0
 11
283.1832677356575232
 21
131.8937921442079926
 31
0.0
  0
LINE
  5
6994
  8
0
 10
283.1151449035648966
 20
134.1799478304168929
 30
0.0
 11
283.108965579143387
 21
134.1799478304168929
 31
0.0
  0
ENDSEC
  0
EOF
