  0
SECTION
  2
HEADER
  9
$ACADVER
  1
AC1009
  9
$INSBASE
 10
3182.1949912877430506
 20
249.9474975156477967
 30
0.0
  9
$EXTMIN
 10
3177.9430227838429346
 20
243.1995991279478062
 30
0.0
  9
$EXTMAX
 10
3192.2339296104719324
 20
249.9474975156477967
 30
0.0
  9
$LIMMIN
 10
0.0
 20
0.0
  9
$LIMMAX
 10
11.6929133858000007
 20
8.2677165353999982
  9
$ORTHOMODE
 70
     0
  9
$REGENMODE
 70
     1
  9
$FILLMODE
 70
     1
  9
$QTEXTMODE
 70
     0
  9
$MIRRTEXT
 70
     0
  9
$DRAGMODE
 70
     2
  9
$LTSCALE
 40
0.6431102362
  9
$OSMODE
 70
  4095
  9
$ATTMODE
 70
     1
  9
$TEXTSIZE
 40
0.2
  9
$TRACEWID
 40
0.05
  9
$TEXTSTYLE
  7
STANDARD
  9
$CLAYER
  8
0
  9
$CELTYPE
  6
BYLAYER
  9
$CECOLOR
 62
   256
  9
$DIMSCALE
 40
1.0
  9
$DIMASZ
 40
0.1875
  9
$DIMEXO
 40
0.0625
  9
$DIMDLI
 40
0.4443307087
  9
$DIMRND
 40
0.0
  9
$DIMDLE
 40
0.0
  9
$DIMEXE
 40
0.125
  9
$DIMTP
 40
0.01
  9
$DIMTM
 40
0.01
  9
$DIMTXT
 40
2.0
  9
$DIMCEN
 40
0.1052362205
  9
$DIMTSZ
 40
0.0
  9
$DIMTOL
 70
     1
  9
$DIMLIM
 70
     0
  9
$DIMTIH
 70
     1
  9
$DIMTOH
 70
     1
  9
$DIMSE1
 70
     0
  9
$DIMSE2
 70
     0
  9
$DIMTAD
 70
     0
  9
$DIMZIN
 70
     0
  9
$DIMBLK
  1

  9
$DIMASO
 70
     1
  9
$DIMSHO
 70
     1
  9
$DIMPOST
  1
\X
  9
$DIMAPOST
  1

  9
$DIMALT
 70
     1
  9
$DIMALTD
 70
     2
  9
$DIMALTF
 40
25.3999999999999986
  9
$DIMLFAC
 40
1.0
  9
$DIMTOFL
 70
     0
  9
$DIMTVP
 40
0.0
  9
$DIMTIX
 70
     0
  9
$DIMSOXD
 70
     0
  9
$DIMSAH
 70
     0
  9
$DIMBLK1
  1

  9
$DIMBLK2
  1

  9
$DIMSTYLE
  2
STANDARD
  9
$DIMCLRD
 70
     0
  9
$DIMCLRE
 70
     0
  9
$DIMCLRT
 70
     0
  9
$DIMTFAC
 40
1.0
  9
$DIMGAP
 40
0.09
  9
$LUNITS
 70
     2
  9
$LUPREC
 70
     4
  9
$SKETCHINC
 40
0.1
  9
$FILLETRAD
 40
0.0
  9
$AUNITS
 70
     0
  9
$AUPREC
 70
     0
  9
$MENU
  1
.
  9
$ELEVATION
 40
0.0
  9
$PELEVATION
 40
0.0
  9
$THICKNESS
 40
0.0
  9
$LIMCHECK
 70
     0
  9
$BLIPMODE
 70
     0
  9
$CHAMFERA
 40
0.0
  9
$CHAMFERB
 40
0.0
  9
$SKPOLY
 70
     0
  9
$TDCREATE
 40
2458060.468368056230247
  9
$TDUPDATE
 40
2459423.6492939819581807
  9
$TDINDWG
 40
0.7036181713
  9
$TDUSRTIMER
 40
0.7036181713
  9
$USRTIMER
 70
     1
  9
$ANGBASE
 50
0.0
  9
$ANGDIR
 70
     0
  9
$PDMODE
 70
     0
  9
$PDSIZE
 40
0.3125
  9
$PLINEWID
 40
0.0
  9
$COORDS
 70
     1
  9
$SPLFRAME
 70
     0
  9
$SPLINETYPE
 70
     6
  9
$SPLINESEGS
 70
     8
  9
$ATTDIA
 70
     1
  9
$ATTREQ
 70
     1
  9
$HANDLING
 70
     1
  9
$HANDSEED
  5
3D8EF
  9
$SURFTAB1
 70
     6
  9
$SURFTAB2
 70
     6
  9
$SURFTYPE
 70
     6
  9
$SURFU
 70
     6
  9
$SURFV
 70
     6
  9
$UCSNAME
  2

  9
$UCSORG
 10
0.0
 20
0.0
 30
0.0
  9
$UCSXDIR
 10
1.0
 20
0.0
 30
0.0
  9
$UCSYDIR
 10
0.0
 20
1.0
 30
0.0
  9
$PUCSNAME
  2

  9
$PUCSORG
 10
0.0
 20
0.0
 30
0.0
  9
$PUCSXDIR
 10
1.0
 20
0.0
 30
0.0
  9
$PUCSYDIR
 10
0.0
 20
1.0
 30
0.0
  9
$USERI1
 70
     0
  9
$USERI2
 70
     0
  9
$USERI3
 70
     0
  9
$USERI4
 70
     0
  9
$USERI5
 70
     0
  9
$USERR1
 40
0.0
  9
$USERR2
 40
0.0
  9
$USERR3
 40
0.0
  9
$USERR4
 40
0.0
  9
$USERR5
 40
0.0
  9
$WORLDVIEW
 70
     1
  9
$SHADEDGE
 70
     3
  9
$SHADEDIF
 70
    70
  9
$TILEMODE
 70
     1
  9
$MAXACTVP
 70
    64
  9
$PLIMCHECK
 70
     0
  9
$PEXTMIN
 10
1.0000000000000000E+20
 20
1.0000000000000000E+20
 30
1.0000000000000000E+20
  9
$PEXTMAX
 10
-1.0000000000000000E+20
 20
-1.0000000000000000E+20
 30
-1.0000000000000000E+20
  9
$PLIMMIN
 10
0.0
 20
0.0
  9
$PLIMMAX
 10
12.0
 20
9.0
  9
$UNITMODE
 70
     0
  9
$VISRETAIN
 70
     1
  9
$PLINEGEN
 70
     0
  9
$PSLTSCALE
 70
     1
  0
ENDSEC
  0
SECTION
  2
TABLES
  0
TABLE
  2
VPORT
 70
     1
  0
VPORT
  2
*ACTIVE
 70
     0
 10
0.0
 20
0.0
 11
1.0
 21
1.0
 12
-118.6967964112719045
 22
51.451725807254391
 13
0.0
 23
0.0
 14
1.0
 24
1.0
 15
0.0
 25
0.0
 16
0.0
 26
0.0
 36
96.5995694866707311
 17
3303.693115234375
 27
195.2615115758877096
 37
0.0
 40
6.8382707829461387
 41
2.8440779610194902
 42
50.0
 43
0.0
 44
0.0
 50
0.0
 51
0.0
 71
     0
 72
   100
 73
     1
 74
     1
 75
     0
 76
     0
 77
     0
 78
     0
  0
ENDTAB
  0
TABLE
  2
LTYPE
 70
     2
  0
LTYPE
  2
CONTINUOUS
 70
     0
  3
Solid line
 72
    65
 73
     0
 40
0.0
  0
LTYPE
  2
PHANTOM2
 70
     0
  3
___ _ _ ___ _ _ ___ _ _ ___ _ _
 72
    65
 73
     6
 40
1.25
 49
0.625
 49
-0.125
 49
0.125
 49
-0.125
 49
0.125
 49
-0.125
  0
ENDTAB
  0
TABLE
  2
LAYER
 70
     2
  0
LAYER
  2
0
 70
     0
 62
   255
  6
CONTINUOUS
  0
LAYER
  2
DEFPOINTS
 70
     0
 62
     7
  6
CONTINUOUS
  0
ENDTAB
  0
TABLE
  2
STYLE
 70
     1
  0
STYLE
  2
STANDARD
 70
     0
 40
0.0
 41
0.8
 50
0.0
 71
     0
 42
0.2
  3
txt
  4

  0
ENDTAB
  0
TABLE
  2
VIEW
 70
     0
  0
ENDTAB
  0
TABLE
  2
UCS
 70
     0
  0
ENDTAB
  0
TABLE
  2
APPID
 70
     9
  0
APPID
  2
ACAD
 70
     0
  0
APPID
  2
ACAD_MLEADERVER
 70
     0
  0
APPID
  2
ACAD_EXEMPT_FROM_CAD_STANDARDS
 70
     0
  0
APPID
  2
ACAD_NAV_VCDISPLAY
 70
     0
  0
APPID
  2
ACAECLAYERSTANDARD
 70
     0
  0
APPID
  2
ACCMTRANSPARENCY
 70
     0
  0
APPID
  2
ACAD_DSTYLE_DIMJAG
 70
     0
  0
APPID
  2
ACAD_DSTYLE_DIMTALN
 70
     0
  0
APPID
  2
ACDBATTR
 70
     0
  0
ENDTAB
  0
TABLE
  2
DIMSTYLE
 70
     1
  0
DIMSTYLE
  2
STANDARD
 70
     0
  3

  4

  5

  6

  7

 40
1.0
 41
0.1875
 42
0.0625
 43
0.38
 44
0.125
 45
0.0
 46
0.0
 47
0.01
 48
0.01
140
0.15625
141
0.09
142
0.0
143
25.3999999999999986
144
1.0
145
0.0
146
1.0
147
0.09
 71
     1
 72
     0
 73
     1
 74
     1
 75
     0
 76
     0
 77
     0
 78
     4
170
     0
171
     2
172
     0
173
     0
174
     0
175
     0
176
     0
177
     0
178
     0
  0
ENDTAB
  0
ENDSEC
  0
SECTION
  2
BLOCKS
  0
BLOCK
  8
0
  2
$MODEL_SPACE
 70
     0
 10
0.0
 20
0.0
 30
0.0
  3
$MODEL_SPACE
  1

  0
ENDBLK
  5
21
  8
0
  0
BLOCK
 67
     1
  8
0
  2
$PAPER_SPACE
 70
     0
 10
0.0
 20
0.0
 30
0.0
  3
$PAPER_SPACE
  1

  0
ENDBLK
  5
1D
 67
     1
  8
0
  0
ENDSEC
  0
SECTION
  2
ENTITIES
  0
ATTDEF
  5
340AC
  8
DEFPOINTS
 10
3182.1904042803189441
 20
249.9439682967160934
 30
0.0
 40
0.001
  1
K-28189T-4
  3

  2
MODELNUMBER
 70
     0
1001
ACDBATTR
1070
     0
1070
     1
  0
ATTDEF
  5
340AD
  8
DEFPOINTS
 10
3182.1904042803189441
 20
249.9423016300493998
 30
0.0
 40
0.001
  1

  3

  2
TRADENAME
 70
     0
1001
ACDBATTR
1070
     0
1070
     1
  0
ATTDEF
  5
340AE
  8
DEFPOINTS
 10
3182.1904042803189441
 20
249.9406349633827062
 30
0.0
 40
0.001
  1
BATH AND SHOWER FAUCET
  3

  2
PRODUCT
 70
     0
1001
ACDBATTR
1070
     0
1070
     1
  0
LINE
  5
3D691
  8
0
 10
3192.2283802600582021
 20
247.5520789967577002
 30
0.0
 11
3192.2339296104719324
 21
246.7588111738290024
 31
0.0
  0
ARC
  5
3D692
  8
0
 10
3190.255705563686206
 20
245.1525889459132088
 30
0.0
 40
3.365378591641317
 50
73.0595708148181444
 51
86.8686894785004569
  0
ARC
  5
3D693
  8
0
 10
3190.7775107368720455
 20
246.519770585646711
 30
0.0
 40
1.908143397306217
 50
50.0492067585406701
 51
76.0876234205543938
  0
ARC
  5
3D694
  8
0
 10
3191.6018278136539266
 20
247.4980693852835998
 30
0.0
 40
0.6288759863647224
 50
4.926789482516722
 51
50.3884812342297366
  0
ARC
  5
3D695
  8
0
 10
3190.6960148203929748
 20
247.923409468044099
 30
0.0
 40
2.046018242376149
 50
281.0670476314746224
 51
310.2557967986401195
  0
ARC
  5
3D696
  8
0
 10
3191.6002107647800585
 20
246.8462844767663
 30
0.0
 40
0.6397274060971156
 50
310.7920049433715235
 51
352.1410255637896967
  0
ARC
  5
3D697
  8
0
 10
3190.4617141737139718
 20
249.2793570881457015
 30
0.0
 40
2.684500414906271
 50
278.2382305410868071
 51
300.9755559744027096
  0
ARC
  5
3D698
  8
0
 10
3191.435696983939124
 20
247.6672074405502997
 30
0.0
 40
0.8010002089941187
 50
300.5927710110840962
 51
351.7362073597864764
  0
LINE
  5
3D699
  8
0
 10
3187.91336573812805
 20
247.5520789967577002
 30
0.0
 11
3187.9078155206798328
 21
246.7588111738290024
 31
0.0
  0
ARC
  5
3D69A
  8
0
 10
3189.8820336703579414
 20
245.1439642122604141
 30
0.0
 40
3.37246757333001
 50
93.3475167438743938
 51
106.8326159483465005
  0
ARC
  5
3D69B
  8
0
 10
3189.3642352613151161
 20
246.519770585646711
 30
0.0
 40
1.908143397306217
 50
103.9123765794456062
 51
129.9507932414593085
  0
ARC
  5
3D69C
  8
0
 10
3188.5399181845318708
 20
247.4980693852835998
 30
0.0
 40
0.6288759863647224
 50
129.6115187657701995
 51
175.0732105174832896
  0
ARC
  5
3D69D
  8
0
 10
3189.4457311777928226
 20
247.923409468044099
 30
0.0
 40
2.046018242376149
 50
229.744203201357692
 51
258.9329523685253776
  0
ARC
  5
3D69E
  8
0
 10
3188.5415405109952189
 20
246.8462887307950098
 30
0.0
 40
0.6397340746924595
 50
187.8592766077813963
 51
229.2078861163402053
  0
ARC
  5
3D69F
  8
0
 10
3189.6800318244731898
 20
249.2793570881457015
 30
0.0
 40
2.684500414906271
 50
239.0244440255972904
 51
261.7617694589131929
  0
ARC
  5
3D6A0
  8
0
 10
3188.7060490142471281
 20
247.6672074405502997
 30
0.0
 40
0.8010002089941187
 50
188.2637926402119035
 51
239.4072289889157901
  0
ARC
  5
3D6A1
  8
0
 10
3190.0708729990928987
 20
251.1350547123770127
 30
0.0
 40
4.578648809753151
 50
260.2486092431608995
 51
279.7513907568388163
  0
ARC
  5
3D6A2
  8
0
 10
3190.0708729990928987
 20
250.3114689204074068
 30
0.0
 40
4.512334915559574
 50
256.9630395638876053
 51
283.0369604361123947
  0
LINE
  5
3D6A3
  8
0
 10
3189.109765537667954
 20
249.9474975156477967
 30
0.0
 11
3191.031980669101813
 21
249.9474975156477967
 31
0.0
  0
ARC
  5
3D6A4
  8
0
 10
3193.1610987907570234
 20
248.9382654151104077
 30
0.0
 40
4.0446972777605108
 50
180.3472196289067142
 51
187.1400742284446892
  0
LINE
  5
3D6A5
  8
0
 10
3189.116475783774149
 20
248.9137541910087066
 30
0.0
 11
3189.109765537667954
 21
249.9474975156477967
 31
0.0
  0
ARC
  5
3D6A6
  8
0
 10
3186.9903989289919082
 20
248.9395127967000008
 30
0.0
 40
4.0351644224719747
 50
352.8315985637142944
 51
359.6377416973519985
  0
LINE
  5
3D6A7
  8
0
 10
3191.0254826983341445
 20
248.9140002356018897
 30
0.0
 11
3191.031980669101813
 21
249.9474975156477967
 31
0.0
  0
LINE
  5
3D6A8
  8
0
 10
3189.9626053507681718
 20
249.8372612951478118
 30
0.0
 11
3190.179140783866842
 21
249.8372612951478118
 31
0.0
  0
ARC
  5
3D6A9
  8
0
 10
3190.179140783866842
 20
249.8274187755478124
 30
0.0
 40
0.0098425195999994
 50
359.999999417863819
 51
90.0
  0
LINE
  5
3D6AA
  8
0
 10
3190.1889833034679214
 20
249.8274187754477964
 30
0.0
 11
3190.1889833016680313
 21
249.6502534211477951
 31
0.0
  0
ARC
  5
3D6AB
  8
0
 10
3190.1791407818682274
 20
249.650253421247811
 30
0.0
 40
0.0098425198000029
 50
270.0000116426970749
 51
359.9999994178622273
  0
LINE
  5
3D6AC
  8
0
 10
3190.179140783866842
 20
249.6404109014478081
 30
0.0
 11
3189.9626053507681718
 21
249.6404108574469944
 31
0.0
  0
ARC
  5
3D6AD
  8
0
 10
3189.9626053487668287
 20
249.6502533751470878
 30
0.0
 40
0.0098425177000794
 50
179.9997322182734081
 51
270.0000116427232228
  0
LINE
  5
3D6AE
  8
0
 10
3189.952762831067048
 20
249.6502534211477951
 30
0.0
 11
3189.9527636590801194
 21
249.8274187754458069
 31
0.0
  0
ARC
  5
3D6AF
  8
0
 10
3189.9626062248221388
 20
249.8274187294449007
 30
0.0
 40
0.0098425657416615
 50
90.0050880667091633
 51
179.999732218276705
  0
ARC
  5
3D6B0
  8
0
 10
3189.4810188018818735
 20
248.7174970735254078
 30
0.0
 40
0.0196747733120345
 50
89.9711618826862747
 51
179.7304916911861028
  0
ARC
  5
3D6B1
  8
0
 10
3190.6606088440530584
 20
248.7172202274032884
 30
0.0
 40
0.0199519108540368
 50
0.1256417365705114
 51
89.6890054744422827
  0
LINE
  5
3D6B2
  8
0
 10
3189.4613442462291459
 20
248.7175896195275016
 30
0.0
 11
3189.4601313703092273
 21
248.4899373117301877
 31
0.0
  0
LINE
  5
3D6B3
  8
0
 10
3189.4810287045897894
 20
248.7371718443453972
 30
0.0
 11
3190.6607171400678453
 21
248.737171844347813
 31
0.0
  0
LINE
  5
3D6B4
  8
0
 10
3190.6805607069359212
 20
248.7172639791550068
 30
0.0
 11
3190.6815826626220769
 21
248.4909121420222107
 31
0.0
  0
LINE
  5
3D6B5
  8
0
 10
3190.6732352833678306
 20
248.7326685857937036
 30
0.0
 11
3190.6732352833678306
 21
248.4919664325504982
 31
0.0
  0
ARC
  5
3D6B6
  8
0
 10
3190.6690084888241472
 20
248.6753975926793885
 30
0.0
 40
0.012329182141412
 50
18.0260571989492
 51
69.9507067869610921
  0
LINE
  5
3D6B7
  8
0
 10
3189.4685401741771784
 20
248.4909868685593892
 30
0.0
 11
3189.4685108726671388
 21
248.7326841868664928
 31
0.0
  0
ARC
  5
3D6B8
  8
0
 10
3190.0685499003579935
 20
248.1750470400718029
 30
0.0
 40
0.5018022586984385
 50
42.3272811337955304
 51
137.5798343973810915
  0
ARC
  5
3D6B9
  8
0
 10
3189.7311441700471732
 20
248.497116237871893
 30
0.0
 40
0.0338803496105067
 50
91.2210460444576654
 51
148.7232898545813953
  0
ARC
  5
3D6BA
  8
0
 10
3189.661931200863819
 20
248.6467274692371916
 30
0.0
 40
0.1380101497128975
 50
279.6680966481292785
 51
285.1976282561611811
  0
ARC
  5
3D6BB
  8
0
 10
3189.6947903848999886
 20
248.5329271344662061
 30
0.0
 40
0.0196654737043577
 50
279.7197956040263875
 51
292.0957252198772949
  0
ARC
  5
3D6BC
  8
0
 10
3190.4118616760788427
 20
248.5029892965443139
 30
0.0
 40
0.0280047729659478
 50
59.2890482181721197
 51
91.0997678864015938
  0
LINE
  5
3D6BD
  8
0
 10
3189.7304221911890636
 20
248.5309888940446115
 30
0.0
 11
3190.4113241694940371
 21
248.5309889107477943
 31
0.0
  0
ARC
  5
3D6BE
  8
0
 10
3189.9962399308919885
 20
248.1364738936497929
 30
0.0
 40
0.531495414397825
 50
92.6549074921657052
 51
135.9877929804482903
  0
ARC
  5
3D6BF
  8
0
 10
3189.9949743672750628
 20
248.1199097063096133
 30
0.0
 40
0.5784179152965149
 50
67.8011473771137076
 51
138.7869038816862997
  0
LINE
  5
3D6C0
  8
0
 10
3189.9724478817679483
 20
249.8372612951478118
 30
0.0
 11
3189.97244792176798
 21
249.640410859447087
 31
0.0
  0
LINE
  5
3D6C1
  8
0
 10
3190.1692982754670993
 20
249.8372612951478118
 30
0.0
 11
3190.1692983154680405
 21
249.6404108994478008
 31
0.0
  0
LINE
  5
3D6C2
  8
0
 10
3189.9724478849680054
 20
249.8215132637477893
 30
0.0
 11
3190.1692982786680659
 21
249.8215133037485032
 31
0.0
  0
LINE
  5
3D6C3
  8
0
 10
3190.1692982800777827
 20
249.8145711951478063
 30
0.0
 11
3189.9724478863781769
 21
249.8145711551470924
 31
0.0
  0
LINE
  5
3D6C4
  8
0
 10
3189.9724478951097808
 20
249.7716007905478079
 30
0.0
 11
3190.1692982888098413
 21
249.7716007905478079
 31
0.0
  0
LINE
  5
3D6C5
  8
0
 10
3189.9724479173128202
 20
249.6623386250477949
 30
0.0
 11
3190.1692982754670993
 21
249.6623386250477949
 31
0.0
  0
ARC
  5
3D6C6
  8
0
 10
3189.4727157505758441
 20
248.6754112912713026
 30
0.0
 40
0.0123042089261323
 50
109.9556519396489023
 51
160.1612613627264068
  0
LINE
  5
3D6C7
  8
0
 10
3178.6516842011428707
 20
248.1994660196477867
 30
0.0
 11
3178.6516842011428707
 21
247.2042792837478089
 31
0.0
  0
LINE
  5
3D6C8
  8
0
 10
3181.591316747043038
 20
243.2192991279478065
 30
0.0
 11
3181.591316747043038
 21
246.3772752836921995
 31
0.0
  0
LINE
  5
3D6C9
  8
0
 10
3180.54144798064317
 20
249.199495940747795
 30
0.0
 11
3180.54144798064317
 21
249.9277975156477964
 31
0.0
  0
LINE
  5
3D6CA
  8
0
 10
3177.9627227838432191
 20
249.9474975156477967
 30
0.0
 11
3180.5217479806428855
 21
249.9474975156477967
 31
0.0
  0
LINE
  5
3D6CB
  8
0
 10
3180.5020479806430558
 20
249.1600959407477944
 30
0.0
 11
3177.9824227838439583
 21
249.1600959407477944
 31
0.0
  0
LINE
  5
3D6CC
  8
0
 10
3177.9430227838429346
 20
249.199495940747795
 30
0.0
 11
3177.9430227838429346
 21
249.9277975156477964
 31
0.0
  0
ARC
  5
3D6CD
  8
0
 10
3180.5020479806430558
 20
249.199495940747795
 30
0.0
 40
0.0394
 50
270.0
 51
0.0
  0
ARC
  5
3D6CE
  8
0
 10
3177.9824227838439583
 20
249.199495940747795
 30
0.0
 40
0.0394
 50
180.0
 51
270.0
  0
ARC
  5
3D6CF
  8
0
 10
3177.9627227838432191
 20
249.9277975156477964
 30
0.0
 40
0.0197
 50
90.0000000000260485
 51
179.9999999999575948
  0
ARC
  5
3D6D0
  8
0
 10
3180.5217479806428855
 20
249.9277975156477964
 30
0.0
 40
0.0197
 50
0.0000000000211698
 51
89.9999999999739515
  0
LINE
  5
3D6D1
  8
0
 10
3178.6713842011431552
 20
247.1845792837478086
 30
0.0
 11
3180.946894020291893
 21
247.1845792837478086
 31
0.0
  0
LINE
  5
3D6D2
  8
0
 10
3178.6516842011428707
 20
248.1994660196477867
 30
0.0
 11
3179.8544155195440908
 21
248.1994660196477867
 31
0.0
  0
LINE
  5
3D6D3
  8
0
 10
3184.53556705594292
 20
248.1994660196477867
 30
0.0
 11
3185.7382983743427758
 21
248.1994660196477867
 31
0.0
  0
ARC
  5
3D6D4
  8
0
 10
3178.6713842011431552
 20
247.2042792837478089
 30
0.0
 40
0.0197
 50
180.0000000000194973
 51
270.0
  0
LINE
  5
3D6D5
  8
0
 10
3179.8131015238432155
 20
248.376631373947788
 30
0.0
 11
3178.6713692404428002
 21
248.376631373947788
 31
0.0
  0
LINE
  5
3D6D6
  8
0
 10
3179.8524716025440284
 20
248.4160014526478051
 30
0.0
 11
3179.8524716025440284
 21
248.8884423975478057
 31
0.0
  0
LINE
  5
3D6D7
  8
0
 10
3179.8131015238432155
 20
248.376631373947788
 30
0.0
 11
3179.8524716025440284
 21
248.4160014526478051
 31
0.0
  0
ARC
  5
3D6D8
  8
0
 10
3179.7366199629927905
 20
248.5479650111126944
 30
0.0
 40
0.1704095185295924
 50
230.7498303932345891
 51
309.2501696067654962
  0
ARC
  5
3D6D9
  8
0
 10
3179.2422353820929857
 20
249.0035572965414019
 30
0.0
 40
0.6258769549090194
 50
249.8463640996866104
 51
290.1536359003122243
  0
LINE
  5
3D6DA
  8
0
 10
3179.8524716025440284
 20
248.4160014526478051
 30
0.0
 11
3179.8444393640429553
 21
248.4160014526478051
 31
0.0
  0
LINE
  5
3D6DB
  8
0
 10
3179.8444393640429553
 20
248.4160014526478051
 30
0.0
 11
3179.8444393640429553
 21
248.8884423975478057
 31
0.0
  0
LINE
  5
3D6DC
  8
0
 10
3179.6288005619430805
 20
248.4160014526478051
 30
0.0
 11
3179.4578741842428826
 21
248.4160014526478051
 31
0.0
  0
LINE
  5
3D6DD
  8
0
 10
3179.4578741842428826
 20
248.4160014526478051
 30
0.0
 11
3179.4578741842428826
 21
248.8884423975478057
 31
0.0
  0
LINE
  5
3D6DE
  8
0
 10
3179.6288005619430805
 20
248.4160014526478051
 30
0.0
 11
3179.6288005619430805
 21
248.8884423975478057
 31
0.0
  0
LINE
  5
3D6DF
  8
0
 10
3178.6713692404428002
 20
248.376631373947788
 30
0.0
 11
3178.6319991617428968
 21
248.4160014526478051
 31
0.0
  0
ARC
  5
3D6E0
  8
0
 10
3178.7478508012932252
 20
248.5479650111126944
 30
0.0
 40
0.1704095185295924
 50
230.7498303932345891
 51
309.2501696067654962
  0
LINE
  5
3D6E1
  8
0
 10
3178.6319991617428968
 20
248.4160014526478051
 30
0.0
 11
3178.6400314002430605
 21
248.4160014526478051
 31
0.0
  0
LINE
  5
3D6E2
  8
0
 10
3178.8556702023429352
 20
248.4160014526478051
 30
0.0
 11
3179.0265965799430887
 21
248.4160014526478051
 31
0.0
  0
LINE
  5
3D6E3
  8
0
 10
3178.6319991617428968
 20
248.4160014526478051
 30
0.0
 11
3178.6319991617428968
 21
248.8884423975478057
 31
0.0
  0
LINE
  5
3D6E4
  8
0
 10
3178.6400314002430605
 20
248.4160014526478051
 30
0.0
 11
3178.6400314002430605
 21
248.8884423975478057
 31
0.0
  0
LINE
  5
3D6E5
  8
0
 10
3179.0265965800431331
 20
248.4160014526478051
 30
0.0
 11
3179.0265965800431331
 21
248.8884423975844982
 31
0.0
  0
LINE
  5
3D6E6
  8
0
 10
3178.8556702023429352
 20
248.4160014526478051
 30
0.0
 11
3178.8556702023429352
 21
248.8884423975478057
 31
0.0
  0
LINE
  5
3D6E7
  8
0
 10
3179.8131015238432155
 20
248.9278124762477944
 30
0.0
 11
3178.6713692404428002
 21
248.9278124762477944
 31
0.0
  0
LINE
  5
3D6E8
  8
0
 10
3179.8131015238432155
 20
248.9278124762477944
 30
0.0
 11
3179.8524716025440284
 21
248.8884423975478057
 31
0.0
  0
ARC
  5
3D6E9
  8
0
 10
3179.7366199629927905
 20
248.7564788390830017
 30
0.0
 40
0.1704095185295924
 50
50.7498303932345465
 51
129.2501696067654109
  0
ARC
  5
3D6EA
  8
0
 10
3179.2422353820929857
 20
248.3008865536542089
 30
0.0
 40
0.6258769549090194
 50
69.8463640996872073
 51
110.1536359003133043
  0
LINE
  5
3D6EB
  8
0
 10
3179.8524716025440284
 20
248.8884423975478057
 30
0.0
 11
3179.8444393640429553
 21
248.8884423975478057
 31
0.0
  0
LINE
  5
3D6EC
  8
0
 10
3179.6288005619430805
 20
248.8884423975478057
 30
0.0
 11
3179.4578741842428826
 21
248.8884423975478057
 31
0.0
  0
LINE
  5
3D6ED
  8
0
 10
3178.6713692404428002
 20
248.9278124762477944
 30
0.0
 11
3178.6319991617428968
 21
248.8884423975478057
 31
0.0
  0
ARC
  5
3D6EE
  8
0
 10
3178.7478508012932252
 20
248.7564788390830017
 30
0.0
 40
0.1704095185295924
 50
50.7498303932345465
 51
129.2501696067654109
  0
LINE
  5
3D6EF
  8
0
 10
3178.6319991617428968
 20
248.8884423975478057
 30
0.0
 11
3178.6400314002430605
 21
248.8884423975478057
 31
0.0
  0
LINE
  5
3D6F0
  8
0
 10
3178.8556702023429352
 20
248.8884423975478057
 30
0.0
 11
3179.0265965799430887
 21
248.8884423975478057
 31
0.0
  0
LINE
  5
3D6F1
  8
0
 10
3179.6634952246431567
 20
248.3451353109477964
 30
0.0
 11
3179.6634952246431567
 21
248.2467101140478007
 31
0.0
  0
LINE
  5
3D6F2
  8
0
 10
3179.6634952246431567
 20
248.3451353109477964
 30
0.0
 11
3179.6508967994432169
 21
248.376631373947788
 31
0.0
  0
LINE
  5
3D6F3
  8
0
 10
3179.75798341364316
 20
249.1600959407477944
 30
0.0
 11
3179.75798341364316
 21
248.9278124762477944
 31
0.0
  0
LINE
  5
3D6F4
  8
0
 10
3178.8209755396428591
 20
248.3451353109477964
 30
0.0
 11
3178.8209755396428591
 21
248.2467101142478896
 31
0.0
  0
LINE
  5
3D6F5
  8
0
 10
3178.8209755396428591
 20
248.3451353109477964
 30
0.0
 11
3178.8335739648427989
 21
248.376631373947788
 31
0.0
  0
LINE
  5
3D6F6
  8
0
 10
3178.7264873506428557
 20
249.1600959407477944
 30
0.0
 11
3178.7264873506428557
 21
248.9278124762477944
 31
0.0
  0
LINE
  5
3D6F7
  8
0
 10
3178.8209755396428591
 20
248.3451353109477964
 30
0.0
 11
3179.6634952246431567
 21
248.3451353109477964
 31
0.0
  0
LINE
  5
3D6F8
  8
0
 10
3179.6556212090440567
 20
248.2388360983478037
 30
0.0
 11
3178.8288495554429574
 21
248.2388360983478037
 31
0.0
  0
LINE
  5
3D6F9
  8
0
 10
3178.8288495554429574
 20
248.2388360983478037
 30
0.0
 11
3178.8209755396428591
 21
248.2467101142478896
 31
0.0
  0
LINE
  5
3D6FA
  8
0
 10
3179.6556212090440567
 20
248.2388360983478037
 30
0.0
 11
3179.6634952246431567
 21
248.2467101140478007
 31
0.0
  0
LINE
  5
3D6FB
  8
0
 10
3178.9213692405428446
 20
248.2191360983478035
 30
0.0
 11
3178.9213692405428446
 21
248.1994660196477867
 31
0.0
  0
LINE
  5
3D6FC
  8
0
 10
3179.5631015239428052
 20
248.2191360983478035
 30
0.0
 11
3179.5631015239428052
 21
248.1994660196477867
 31
0.0
  0
ARC
  5
3D6FD
  8
0
 10
3179.5828015239439992
 20
248.2191360983478035
 30
0.0
 40
0.0197
 50
90.0
 51
180.0
  0
ARC
  5
3D6FE
  8
0
 10
3178.9016692405430149
 20
248.2191360983478035
 30
0.0
 40
0.0197
 50
0.0000000000618809
 51
89.9999999999739515
  0
LINE
  5
3D6FF
  8
0
 10
3178.8209755396428591
 20
248.2467101142478896
 30
0.0
 11
3179.6634952246431567
 21
248.2467101140478007
 31
0.0
  0
ARC
  5
3D700
  8
0
 10
3182.1949912884429068
 20
247.6878979441478066
 30
0.0
 40
0.9055118116999999
 50
310.7568649368116098
 51
229.243134986204808
  0
ARC
  5
3D701
  8
0
 10
3183.0929948844668615
 20
246.645965947492698
 30
0.0
 40
0.47
 50
130.7568649368116098
 51
180.0
  0
LINE
  5
3D702
  8
0
 10
3181.6110167470428678
 20
243.1995991279478062
 30
0.0
 11
3182.7789658284427787
 21
243.1995991279478062
 31
0.0
  0
ARC
  5
3D703
  8
0
 10
3181.6110167470428678
 20
243.2192991279478065
 30
0.0
 40
0.0197
 50
180.0
 51
270.0
  0
ARC
  5
3D704
  8
0
 10
3180.8114184749251763
 20
246.4667662782891
 30
0.0
 40
0.7304855468783944
 50
37.5825708326930226
 51
79.3120717032785052
  0
ARC
  5
3D705
  8
0
 10
3180.615357519133795
 20
246.3158740056998965
 30
0.0
 40
0.97788881345493
 50
3.5999490042452278
 51
37.5825708326930226
  0
LINE
  5
3D706
  8
0
 10
3185.7382983743427758
 20
248.1994660196477867
 30
0.0
 11
3185.7382983743427758
 21
247.2042792837478089
 31
0.0
  0
LINE
  5
3D707
  8
0
 10
3182.7986658284430632
 20
243.2192991279478065
 30
0.0
 11
3182.7986658284430632
 21
246.3772752836921995
 31
0.0
  0
LINE
  5
3D708
  8
0
 10
3183.8485345948429313
 20
249.199495940747795
 30
0.0
 11
3183.8485345948429313
 21
249.9277975156477964
 31
0.0
  0
LINE
  5
3D709
  8
0
 10
3186.4272597916428822
 20
249.9474975156477967
 30
0.0
 11
3183.8682345948432157
 21
249.9474975156477967
 31
0.0
  0
LINE
  5
3D70A
  8
0
 10
3183.8879345948430455
 20
249.1600959407477944
 30
0.0
 11
3186.4075597916430524
 21
249.1600959407477944
 31
0.0
  0
LINE
  5
3D70B
  8
0
 10
3186.4469597916440762
 20
249.199495940747795
 30
0.0
 11
3186.4469597916440762
 21
249.9277975156477964
 31
0.0
  0
ARC
  5
3D70C
  8
0
 10
3183.8879345948430455
 20
249.199495940747795
 30
0.0
 40
0.0394
 50
180.0
 51
270.0
  0
ARC
  5
3D70D
  8
0
 10
3186.4075597916430524
 20
249.199495940747795
 30
0.0
 40
0.0394
 50
270.0
 51
0.0
  0
ARC
  5
3D70E
  8
0
 10
3186.4272597916428822
 20
249.9277975156477964
 30
0.0
 40
0.0197
 50
0.0000000000423395
 51
89.9999999999739515
  0
ARC
  5
3D70F
  8
0
 10
3183.8682345948432157
 20
249.9277975156477964
 30
0.0
 40
0.0197
 50
90.0000000000260485
 51
179.9999999999787974
  0
LINE
  5
3D710
  8
0
 10
3185.718598374342946
 20
247.1845792837478086
 30
0.0
 11
3183.4430885551942083
 21
247.1845792837478086
 31
0.0
  0
ARC
  5
3D711
  8
0
 10
3185.718598374342946
 20
247.2042792837478089
 30
0.0
 40
0.0197
 50
270.0
 51
359.9999999999789111
  0
LINE
  5
3D712
  8
0
 10
3184.5768810516428857
 20
248.376631373947788
 30
0.0
 11
3185.7186133350428463
 21
248.376631373947788
 31
0.0
  0
LINE
  5
3D713
  8
0
 10
3184.5375109729429823
 20
248.4160014526478051
 30
0.0
 11
3184.5375109729429823
 21
248.8884423975478057
 31
0.0
  0
LINE
  5
3D714
  8
0
 10
3184.5768810516428857
 20
248.376631373947788
 30
0.0
 11
3184.5375109729429823
 21
248.4160014526478051
 31
0.0
  0
ARC
  5
3D715
  8
0
 10
3184.653362612492856
 20
248.5479650111126944
 30
0.0
 40
0.1704095185295924
 50
230.7498303932345891
 51
309.2501696067654962
  0
ARC
  5
3D716
  8
0
 10
3185.1477471933931156
 20
249.0035572965414019
 30
0.0
 40
0.6258769549090194
 50
249.8463640996876904
 51
290.153635900313418
  0
LINE
  5
3D717
  8
0
 10
3184.5375109729429823
 20
248.4160014526478051
 30
0.0
 11
3184.545543211443146
 21
248.4160014526478051
 31
0.0
  0
LINE
  5
3D718
  8
0
 10
3184.545543211443146
 20
248.4160014526478051
 30
0.0
 11
3184.545543211443146
 21
248.8884423975478057
 31
0.0
  0
LINE
  5
3D719
  8
0
 10
3184.7611820135430207
 20
248.4160014526478051
 30
0.0
 11
3184.9321083912432186
 21
248.4160014526478051
 31
0.0
  0
LINE
  5
3D71A
  8
0
 10
3184.9321083912432186
 20
248.4160014526478051
 30
0.0
 11
3184.9321083912432186
 21
248.8884423975478057
 31
0.0
  0
LINE
  5
3D71B
  8
0
 10
3184.7611820135430207
 20
248.4160014526478051
 30
0.0
 11
3184.7611820135430207
 21
248.8884423975478057
 31
0.0
  0
LINE
  5
3D71C
  8
0
 10
3185.7186133350428463
 20
248.376631373947788
 30
0.0
 11
3185.7579834137432044
 21
248.4160014526478051
 31
0.0
  0
ARC
  5
3D71D
  8
0
 10
3185.642131774192876
 20
248.5479650111126944
 30
0.0
 40
0.1704095185295924
 50
230.7498303932345891
 51
309.2501696067654962
  0
LINE
  5
3D71E
  8
0
 10
3185.7579834137432044
 20
248.4160014526478051
 30
0.0
 11
3185.7499511752430408
 21
248.4160014526478051
 31
0.0
  0
LINE
  5
3D71F
  8
0
 10
3185.534312373143166
 20
248.4160014526478051
 30
0.0
 11
3185.3633859955430125
 21
248.4160014526478051
 31
0.0
  0
LINE
  5
3D720
  8
0
 10
3185.7579834137432044
 20
248.4160014526478051
 30
0.0
 11
3185.7579834137432044
 21
248.8884423975478057
 31
0.0
  0
LINE
  5
3D721
  8
0
 10
3185.7499511752430408
 20
248.4160014526478051
 30
0.0
 11
3185.7499511752430408
 21
248.8884423975478057
 31
0.0
  0
LINE
  5
3D722
  8
0
 10
3185.3633859954429681
 20
248.4160014526478051
 30
0.0
 11
3185.3633859954429681
 21
248.8884423975844982
 31
0.0
  0
LINE
  5
3D723
  8
0
 10
3185.534312373143166
 20
248.4160014526478051
 30
0.0
 11
3185.534312373143166
 21
248.8884423975478057
 31
0.0
  0
LINE
  5
3D724
  8
0
 10
3184.5768810516428857
 20
248.9278124762477944
 30
0.0
 11
3185.7186133350428463
 21
248.9278124762477944
 31
0.0
  0
LINE
  5
3D725
  8
0
 10
3184.5768810516428857
 20
248.9278124762477944
 30
0.0
 11
3184.5375109729429823
 21
248.8884423975478057
 31
0.0
  0
ARC
  5
3D726
  8
0
 10
3184.653362612492856
 20
248.7564788390830017
 30
0.0
 40
0.1704095185295924
 50
50.7498303932345465
 51
129.2501696067654109
  0
ARC
  5
3D727
  8
0
 10
3185.1477471933931156
 20
248.3008865536542089
 30
0.0
 40
0.6258769549090194
 50
69.8463640996866388
 51
110.1536359003128069
  0
LINE
  5
3D728
  8
0
 10
3184.5375109729429823
 20
248.8884423975478057
 30
0.0
 11
3184.545543211443146
 21
248.8884423975478057
 31
0.0
  0
LINE
  5
3D729
  8
0
 10
3184.7611820135430207
 20
248.8884423975478057
 30
0.0
 11
3184.9321083912432186
 21
248.8884423975478057
 31
0.0
  0
LINE
  5
3D72A
  8
0
 10
3185.7186133350428463
 20
248.9278124762477944
 30
0.0
 11
3185.7579834137432044
 21
248.8884423975478057
 31
0.0
  0
ARC
  5
3D72B
  8
0
 10
3185.642131774192876
 20
248.7564788390830017
 30
0.0
 40
0.1704095185295924
 50
50.7498303932345465
 51
129.2501696067654109
  0
LINE
  5
3D72C
  8
0
 10
3185.7579834137432044
 20
248.8884423975478057
 30
0.0
 11
3185.7499511752430408
 21
248.8884423975478057
 31
0.0
  0
LINE
  5
3D72D
  8
0
 10
3185.534312373143166
 20
248.8884423975478057
 30
0.0
 11
3185.3633859955430125
 21
248.8884423975478057
 31
0.0
  0
LINE
  5
3D72E
  8
0
 10
3184.7264873508429446
 20
248.3451353109477964
 30
0.0
 11
3184.7264873508429446
 21
248.2467101140478007
 31
0.0
  0
LINE
  5
3D72F
  8
0
 10
3184.7264873508429446
 20
248.3451353109477964
 30
0.0
 11
3184.7390857760428844
 21
248.376631373947788
 31
0.0
  0
LINE
  5
3D730
  8
0
 10
3184.6319991618429412
 20
249.1600959407477944
 30
0.0
 11
3184.6319991618429412
 21
248.9278124762477944
 31
0.0
  0
LINE
  5
3D731
  8
0
 10
3185.5690070358427874
 20
248.3451353109477964
 30
0.0
 11
3185.5690070358427874
 21
248.2467101142478896
 31
0.0
  0
LINE
  5
3D732
  8
0
 10
3185.5690070358427874
 20
248.3451353109477964
 30
0.0
 11
3185.5564086106428476
 21
248.376631373947788
 31
0.0
  0
LINE
  5
3D733
  8
0
 10
3185.6634952248427908
 20
249.1600959407477944
 30
0.0
 11
3185.6634952248427908
 21
248.9278124762477944
 31
0.0
  0
LINE
  5
3D734
  8
0
 10
3185.5690070358427874
 20
248.3451353109477964
 30
0.0
 11
3184.7264873508429446
 21
248.3451353109477964
 31
0.0
  0
LINE
  5
3D735
  8
0
 10
3184.734361366442954
 20
248.2388360983478037
 30
0.0
 11
3185.5611330200431439
 21
248.2388360983478037
 31
0.0
  0
LINE
  5
3D736
  8
0
 10
3185.5611330200431439
 20
248.2388360983478037
 30
0.0
 11
3185.5690070358427874
 21
248.2467101142478896
 31
0.0
  0
LINE
  5
3D737
  8
0
 10
3184.734361366442954
 20
248.2388360983478037
 30
0.0
 11
3184.7264873508429446
 21
248.2467101140478007
 31
0.0
  0
LINE
  5
3D738
  8
0
 10
3185.4686133349428019
 20
248.2191360983478035
 30
0.0
 11
3185.4686133349428019
 21
248.1994660196477867
 31
0.0
  0
LINE
  5
3D739
  8
0
 10
3184.8268810515428413
 20
248.2191360983478035
 30
0.0
 11
3184.8268810515428413
 21
248.1994660196477867
 31
0.0
  0
ARC
  5
3D73A
  8
0
 10
3184.8071810515430116
 20
248.2191360983478035
 30
0.0
 40
0.0197
 50
0.0
 51
89.9999999999739515
  0
ARC
  5
3D73B
  8
0
 10
3185.4883133349430864
 20
248.2191360983478035
 30
0.0
 40
0.0197
 50
90.0000000000260485
 51
179.9999999999380975
  0
LINE
  5
3D73C
  8
0
 10
3185.5690070358427874
 20
248.2467101142478896
 30
0.0
 11
3184.7264873508429446
 21
248.2467101140478007
 31
0.0
  0
ARC
  5
3D73D
  8
0
 10
3182.7789658284427787
 20
243.2192991279478065
 30
0.0
 40
0.0197
 50
270.0
 51
0.0
  0
ARC
  5
3D73E
  8
0
 10
3183.5785641005618345
 20
246.4667662782891
 30
0.0
 40
0.7304855468783944
 50
100.6879282967214948
 51
142.4174291673068922
  0
ARC
  5
3D73F
  8
0
 10
3183.7746250563532158
 20
246.3158740056998965
 30
0.0
 40
0.97788881345493
 50
142.4174291673068922
 51
176.4000509957546967
  0
LINE
  5
3D740
  8
0
 10
3179.892159923555937
 20
248.2191510589478014
 30
0.0
 11
3181.3049251768338763
 21
248.2191510589478014
 31
0.0
  0
LINE
  5
3D741
  8
0
 10
3183.0850574000528468
 20
248.2191510589478014
 30
0.0
 11
3184.4980276270121067
 21
248.2191510589478014
 31
0.0
  0
ARC
  5
3D742
  8
0
 10
3179.8903659363268162
 20
248.1765625016348906
 30
0.0
 40
0.0426263252492573
 50
87.5879162837629934
 51
147.4993463253078119
  0
ARC
  5
3D743
  8
0
 10
3184.4997129026451148
 20
248.1767284632504129
 30
0.0
 40
0.0424560570431159
 50
32.381562399665377
 51
92.2749299674098609
  0
ARC
  5
3D744
  8
0
 10
3183.0850574000528468
 20
248.5591510589478901
 30
0.0
 40
0.34
 50
224.3880357905605933
 51
270.0
  0
ARC
  5
3D745
  8
0
 10
3181.3049251768338763
 20
248.5591510589478901
 30
0.0
 40
0.34
 50
270.0
 51
315.6119642094394067
  0
ARC
  5
3D746
  8
0
 10
3199.4103520034359462
 20
215.2150087831005862
 30
0.0
 40
34.3938935218221786
 50
116.1602173394393986
 51
118.8804469890517055
  0
ARC
  5
3D747
  8
0
 10
3193.8053806213038115
 20
226.6258080325440858
 30
0.0
 40
21.6808276561219913
 50
111.9421172410145999
 51
116.1602173394393986
  0
ARC
  5
3D748
  8
0
 10
3191.1234875920299601
 20
233.2830817227381033
 30
0.0
 40
14.5036525010479096
 50
107.1373816877301977
 51
111.9421172410145999
  0
ARC
  5
3D749
  8
0
 10
3194.1514505436562104
 20
223.4633352791483105
 30
0.0
 40
24.7796429570968115
 50
104.5824320294724998
 51
107.1373816877301977
  0
ARC
  5
3D74A
  8
0
 10
3192.434473153262843
 20
229.4868806438325066
 30
0.0
 40
19.1000143540550091
 50
102.2785933802856988
 51
104.8767493917782048
  0
ARC
  5
3D74B
  8
0
 10
3192.4125155678439114
 20
229.5695382886092943
 30
0.0
 40
19.0144899610583415
 50
104.8767493917782048
 51
108.8618046382648004
  0
ARC
  5
3D74C
  8
0
 10
3191.9595009076188035
 20
230.8955697221335868
 30
0.0
 40
17.6132113859443002
 50
108.8618046382648004
 51
110.683918803799699
  0
ARC
  5
3D74D
  8
0
 10
3191.9595009076188035
 20
230.8955697221335868
 30
0.0
 40
17.6132113859443002
 50
112.3591189523099985
 51
115.1670296213020066
  0
ARC
  5
3D74E
  8
0
 10
3198.7387884704889984
 20
216.4673052519852092
 30
0.0
 40
33.5547782938936194
 50
115.1670296213020066
 51
118.3624604522003949
  0
ARC
  5
3D750
  8
0
 10
3182.1787623129907843
 20
247.0318455990970108
 30
0.0
 40
2.4972302452858779
 50
267.7158732342817871
 51
270.3723558555748241
  0
ARC
  5
3D751
  8
0
 10
3182.111001972817121
 20
245.3330236925461065
 30
0.0
 40
0.7970575088035901
 50
258.9763520583679792
 51
267.7158732342817871
  0
ARC
  5
3D752
  8
0
 10
3182.0189466433780581
 20
244.8604814375912042
 30
0.0
 40
0.3156321600775278
 50
243.357008883979006
 51
258.9763520583679792
  0
ARC
  5
3D753
  8
0
 10
3181.9631457968921495
 20
244.7492582469361082
 30
0.0
 40
0.1911961017661614
 50
216.4764174203760945
 51
243.357008883979006
  0
ARC
  5
3D754
  8
0
 10
3181.9566445502900933
 20
244.7444517172758935
 30
0.0
 40
0.1831109960305197
 50
188.9578369494838057
 51
216.4764174203747871
  0
ARC
  5
3D755
  8
0
 10
3182.3649842944701049
 20
244.8088183862564904
 30
0.0
 40
0.5964926777155382
 50
183.6437991936583103
 51
188.9578369494838057
  0
ARC
  5
3D756
  8
0
 10
3183.6560590605749894
 20
244.8910368293871045
 30
0.0
 40
1.890182719442969
 50
181.9648636670175961
 51
183.6437991936599019
  0
LINE
  5
3D757
  8
0
 10
3181.7669876910190396
 20
244.8262288545448087
 30
0.0
 11
3181.7669876910190396
 21
246.6459659486993985
 31
0.0
  0
ARC
  5
3D758
  8
0
 10
3181.2969876910178755
 20
246.6459659486993985
 30
0.0
 40
0.47
 50
0.0000000000016284
 51
49.243134986182973
  0
ARC
  5
3D759
  8
0
 10
3182.2112202624948623
 20
247.0318455990970108
 30
0.0
 40
2.4972302452858779
 50
269.6276441444251759
 51
272.2841267657182129
  0
ARC
  5
3D75A
  8
0
 10
3182.2789806026689803
 20
245.3330236925461065
 30
0.0
 40
0.7970575088035901
 50
272.2841267657182129
 51
281.0236479416320208
  0
ARC
  5
3D75B
  8
0
 10
3182.3710359321080432
 20
244.8604814375912042
 30
0.0
 40
0.3156321600775278
 50
281.0236479416320208
 51
296.6429911160211077
  0
ARC
  5
3D75C
  8
0
 10
3182.4268367785939517
 20
244.7492582469361082
 30
0.0
 40
0.1911961017661614
 50
296.6429911160211077
 51
323.5235825796239055
  0
ARC
  5
3D75D
  8
0
 10
3182.4333380251969174
 20
244.7444517172758935
 30
0.0
 40
0.1831109960305197
 50
323.5235825796252129
 51
351.0421630505161943
  0
ARC
  5
3D75E
  8
0
 10
3182.0249982810169058
 20
244.8088183862564904
 30
0.0
 40
0.5964926777155382
 50
351.0421630505161943
 51
356.3562008063400981
  0
ARC
  5
3D75F
  8
0
 10
3180.7339235149111119
 20
244.8910368293871045
 30
0.0
 40
1.890182719442969
 50
356.3562008063400981
 51
358.0351363329806986
  0
LINE
  5
3D760
  8
0
 10
3182.6229948844679711
 20
244.8262288545448087
 30
0.0
 11
3182.6229948844679711
 21
246.645965947492698
 31
0.0
  0
LINE
  5
3D761
  8
0
 10
3180.289479476743054
 20
248.2191510589478014
 30
0.0
 11
3180.289479476743054
 21
248.2388360982477877
 31
0.0
  0
LINE
  5
3D762
  8
0
 10
3180.289479476743054
 20
248.2388360982477877
 30
0.0
 11
3180.5256999491430179
 21
248.2388360982477877
 31
0.0
  0
LINE
  5
3D763
  8
0
 10
3180.5256999491430179
 20
248.2388360982477877
 30
0.0
 11
3180.5256999491430179
 21
248.2191510589478014
 31
0.0
  0
ENDSEC
  0
EOF
