  0
SECTION
  2
HEADER
  9
$ACADVER
  1
AC1009
  9
$INSBASE
 10
3122.3883809292278784
 20
231.3047502086712086
 30
0.0
  9
$EXTMIN
 10
3115.5291907604741937
 20
222.2614103000339014
 30
-0.0000000349181948
  9
$EXTMAX
 10
3122.4379736244550259
 20
257.4371858317696251
 30
0.0000000814935746
  9
$LIMMIN
 10
0.0
 20
0.0
  9
$LIMMAX
 10
11.6929133858000007
 20
8.2677165353999982
  9
$ORTHOMODE
 70
     0
  9
$REGENMODE
 70
     1
  9
$FILLMODE
 70
     1
  9
$QTEXTMODE
 70
     0
  9
$MIRRTEXT
 70
     0
  9
$DRAGMODE
 70
     2
  9
$LTSCALE
 40
0.6431102362
  9
$OSMODE
 70
  4095
  9
$ATTMODE
 70
     1
  9
$TEXTSIZE
 40
0.2
  9
$TRACEWID
 40
0.05
  9
$TEXTSTYLE
  7
STANDARD
  9
$CLAYER
  8
0
  9
$CELTYPE
  6
BYLAYER
  9
$CECOLOR
 62
   256
  9
$DIMSCALE
 40
1.0
  9
$DIMASZ
 40
0.1875
  9
$DIMEXO
 40
0.0625
  9
$DIMDLI
 40
0.4443307087
  9
$DIMRND
 40
0.0
  9
$DIMDLE
 40
0.0
  9
$DIMEXE
 40
0.125
  9
$DIMTP
 40
0.01
  9
$DIMTM
 40
0.01
  9
$DIMTXT
 40
2.0
  9
$DIMCEN
 40
0.1052362205
  9
$DIMTSZ
 40
0.0
  9
$DIMTOL
 70
     1
  9
$DIMLIM
 70
     0
  9
$DIMTIH
 70
     1
  9
$DIMTOH
 70
     1
  9
$DIMSE1
 70
     0
  9
$DIMSE2
 70
     0
  9
$DIMTAD
 70
     0
  9
$DIMZIN
 70
     0
  9
$DIMBLK
  1

  9
$DIMASO
 70
     1
  9
$DIMSHO
 70
     1
  9
$DIMPOST
  1
\X
  9
$DIMAPOST
  1

  9
$DIMALT
 70
     1
  9
$DIMALTD
 70
     2
  9
$DIMALTF
 40
25.3999999999999986
  9
$DIMLFAC
 40
1.0
  9
$DIMTOFL
 70
     0
  9
$DIMTVP
 40
0.0
  9
$DIMTIX
 70
     0
  9
$DIMSOXD
 70
     0
  9
$DIMSAH
 70
     0
  9
$DIMBLK1
  1

  9
$DIMBLK2
  1

  9
$DIMSTYLE
  2
STANDARD
  9
$DIMCLRD
 70
     0
  9
$DIMCLRE
 70
     0
  9
$DIMCLRT
 70
     0
  9
$DIMTFAC
 40
1.0
  9
$DIMGAP
 40
0.09
  9
$LUNITS
 70
     2
  9
$LUPREC
 70
     4
  9
$SKETCHINC
 40
0.1
  9
$FILLETRAD
 40
0.0
  9
$AUNITS
 70
     0
  9
$AUPREC
 70
     0
  9
$MENU
  1
.
  9
$ELEVATION
 40
0.0
  9
$PELEVATION
 40
0.0
  9
$THICKNESS
 40
0.0
  9
$LIMCHECK
 70
     0
  9
$BLIPMODE
 70
     0
  9
$CHAMFERA
 40
0.0
  9
$CHAMFERB
 40
0.0
  9
$SKPOLY
 70
     0
  9
$TDCREATE
 40
2458060.468368056230247
  9
$TDUPDATE
 40
2459423.7067129630595446
  9
$TDINDWG
 40
0.7009677083
  9
$TDUSRTIMER
 40
0.7009677083
  9
$USRTIMER
 70
     1
  9
$ANGBASE
 50
0.0
  9
$ANGDIR
 70
     0
  9
$PDMODE
 70
     0
  9
$PDSIZE
 40
0.3125
  9
$PLINEWID
 40
0.0
  9
$COORDS
 70
     1
  9
$SPLFRAME
 70
     0
  9
$SPLINETYPE
 70
     6
  9
$SPLINESEGS
 70
     8
  9
$ATTDIA
 70
     1
  9
$ATTREQ
 70
     1
  9
$HANDLING
 70
     1
  9
$HANDSEED
  5
3C635
  9
$SURFTAB1
 70
     6
  9
$SURFTAB2
 70
     6
  9
$SURFTYPE
 70
     6
  9
$SURFU
 70
     6
  9
$SURFV
 70
     6
  9
$UCSNAME
  2

  9
$UCSORG
 10
0.0
 20
0.0
 30
0.0
  9
$UCSXDIR
 10
1.0
 20
0.0
 30
0.0
  9
$UCSYDIR
 10
0.0
 20
1.0
 30
0.0
  9
$PUCSNAME
  2

  9
$PUCSORG
 10
0.0
 20
0.0
 30
0.0
  9
$PUCSXDIR
 10
1.0
 20
0.0
 30
0.0
  9
$PUCSYDIR
 10
0.0
 20
1.0
 30
0.0
  9
$USERI1
 70
     0
  9
$USERI2
 70
     0
  9
$USERI3
 70
     0
  9
$USERI4
 70
     0
  9
$USERI5
 70
     0
  9
$USERR1
 40
0.0
  9
$USERR2
 40
0.0
  9
$USERR3
 40
0.0
  9
$USERR4
 40
0.0
  9
$USERR5
 40
0.0
  9
$WORLDVIEW
 70
     1
  9
$SHADEDGE
 70
     3
  9
$SHADEDIF
 70
    70
  9
$TILEMODE
 70
     1
  9
$MAXACTVP
 70
    64
  9
$PLIMCHECK
 70
     0
  9
$PEXTMIN
 10
1.0000000000000000E+20
 20
1.0000000000000000E+20
 30
1.0000000000000000E+20
  9
$PEXTMAX
 10
-1.0000000000000000E+20
 20
-1.0000000000000000E+20
 30
-1.0000000000000000E+20
  9
$PLIMMIN
 10
0.0
 20
0.0
  9
$PLIMMAX
 10
12.0
 20
9.0
  9
$UNITMODE
 70
     0
  9
$VISRETAIN
 70
     1
  9
$PLINEGEN
 70
     0
  9
$PSLTSCALE
 70
     1
  0
ENDSEC
  0
SECTION
  2
TABLES
  0
TABLE
  2
VPORT
 70
     1
  0
VPORT
  2
*ACTIVE
 70
     0
 10
0.0
 20
0.0
 11
1.0
 21
1.0
 12
-184.7095330419105892
 22
44.5877864900139684
 13
0.0
 23
0.0
 14
1.0
 24
1.0
 15
0.0
 25
0.0
 16
0.0
 26
0.0
 36
96.5995694866707311
 17
3303.693115234375
 27
195.2615115758877096
 37
0.0
 40
35.4917256113621633
 41
2.8440779610194902
 42
50.0
 43
0.0
 44
0.0
 50
0.0
 51
0.0
 71
     0
 72
   100
 73
     1
 74
     1
 75
     0
 76
     0
 77
     0
 78
     0
  0
ENDTAB
  0
TABLE
  2
LTYPE
 70
     2
  0
LTYPE
  2
CONTINUOUS
 70
     0
  3
Solid line
 72
    65
 73
     0
 40
0.0
  0
LTYPE
  2
PHANTOM2
 70
     0
  3
___ _ _ ___ _ _ ___ _ _ ___ _ _
 72
    65
 73
     6
 40
1.25
 49
0.625
 49
-0.125
 49
0.125
 49
-0.125
 49
0.125
 49
-0.125
  0
ENDTAB
  0
TABLE
  2
LAYER
 70
     2
  0
LAYER
  2
0
 70
     0
 62
   255
  6
CONTINUOUS
  0
LAYER
  2
DEFPOINTS
 70
     0
 62
     7
  6
CONTINUOUS
  0
ENDTAB
  0
TABLE
  2
STYLE
 70
     1
  0
STYLE
  2
STANDARD
 70
     0
 40
0.0
 41
0.8
 50
0.0
 71
     0
 42
0.2
  3
txt
  4

  0
ENDTAB
  0
TABLE
  2
VIEW
 70
     0
  0
ENDTAB
  0
TABLE
  2
UCS
 70
     0
  0
ENDTAB
  0
TABLE
  2
APPID
 70
     9
  0
APPID
  2
ACAD
 70
     0
  0
APPID
  2
ACAD_MLEADERVER
 70
     0
  0
APPID
  2
ACAD_EXEMPT_FROM_CAD_STANDARDS
 70
     0
  0
APPID
  2
ACAD_NAV_VCDISPLAY
 70
     0
  0
APPID
  2
ACAECLAYERSTANDARD
 70
     0
  0
APPID
  2
ACCMTRANSPARENCY
 70
     0
  0
APPID
  2
ACAD_DSTYLE_DIMJAG
 70
     0
  0
APPID
  2
ACAD_DSTYLE_DIMTALN
 70
     0
  0
APPID
  2
ACDBATTR
 70
     0
  0
ENDTAB
  0
TABLE
  2
DIMSTYLE
 70
     1
  0
DIMSTYLE
  2
STANDARD
 70
     0
  3

  4

  5

  6

  7

 40
1.0
 41
0.1875
 42
0.0625
 43
0.38
 44
0.125
 45
0.0
 46
0.0
 47
0.01
 48
0.01
140
0.15625
141
0.09
142
0.0
143
25.3999999999999986
144
1.0
145
0.0
146
1.0
147
0.09
 71
     1
 72
     0
 73
     1
 74
     1
 75
     0
 76
     0
 77
     0
 78
     4
170
     0
171
     2
172
     0
173
     0
174
     0
175
     0
176
     0
177
     0
178
     0
  0
ENDTAB
  0
ENDSEC
  0
SECTION
  2
BLOCKS
  0
BLOCK
  8
0
  2
$MODEL_SPACE
 70
     0
 10
0.0
 20
0.0
 30
0.0
  3
$MODEL_SPACE
  1

  0
ENDBLK
  5
21
  8
0
  0
BLOCK
 67
     1
  8
0
  2
$PAPER_SPACE
 70
     0
 10
0.0
 20
0.0
 30
0.0
  3
$PAPER_SPACE
  1

  0
ENDBLK
  5
1D
 67
     1
  8
0
  0
ENDSEC
  0
SECTION
  2
ENTITIES
  0
ATTDEF
  5
340AC
  8
DEFPOINTS
 10
3122.3915642751030646
 20
231.305686078081294
 30
0.0
 40
0.001
  1
K-28190T-4
  3

  2
MODELNUMBER
 70
     0
1001
ACDBATTR
1070
     0
1070
     1
  0
ATTDEF
  5
340AD
  8
DEFPOINTS
 10
3122.3915642751030646
 20
231.3040194114146004
 30
0.0
 40
0.001
  1

  3

  2
TRADENAME
 70
     0
1001
ACDBATTR
1070
     0
1070
     1
  0
ATTDEF
  5
340AE
  8
DEFPOINTS
 10
3122.3915642751030646
 20
231.3023527447479069
 30
0.0
 40
0.001
  1
BATH AND SHOWER FAUCET
  3

  2
PRODUCT
 70
     0
1001
ACDBATTR
1070
     0
1070
     1
  0
LINE
  5
3C01B
  8
0
 10
3118.9625855106519339
 20
257.4256895662704778
 30
0.0
 11
3118.2218884438520945
 21
257.0558337545704717
 31
0.0
  0
LINE
  5
3C01C
  8
0
 10
3120.0997310150710291
 20
248.0297206633711937
 30
0.0
 11
3121.0539724837772155
 21
248.0297206633711937
 31
0.0
  0
LINE
  5
3C01D
  8
0
 10
3121.0831628345158606
 20
248.6311617884761915
 30
0.0
 11
3121.0834976127521259
 21
248.0592482223705133
 31
0.0
  0
ARC
  5
3C01E
  8
0
 10
3121.0515236351920976
 20
248.0616944394986945
 30
0.0
 40
0.0320674167847265
 50
274.3796923812108162
 51
355.6250230734497109
  0
ARC
  5
3C01F
  8
0
 10
3084.9498067351028112
 20
237.6470006593287962
 30
0.0
 40
39.3734642794632208
 50
24.1794601182915585
 51
30.1353296062084191
  0
ARC
  5
3C020
  8
0
 10
3120.2494884637999348
 20
253.4737292605238963
 30
0.0
 40
0.6884665815198482
 50
357.9591710369006137
 51
25.8780150566988993
  0
ARC
  5
3C021
  8
0
 10
3118.2350906434071476
 20
257.0294130310368246
 30
0.0
 40
0.0295356175680754
 50
116.5508890187516045
 51
194.2839820169135123
  0
ARC
  5
3C022
  8
0
 10
3118.2590611591440393
 20
256.9434352948724722
 30
0.0
 40
0.018929489456881
 50
154.672285722661087
 51
189.6845237751855109
  0
ARC
  5
3C023
  8
0
 10
3116.8492733795560525
 20
256.3250323358072933
 30
0.0
 40
1.5210953845966471
 50
17.0474790187633083
 51
23.8571417282805918
  0
LINE
  5
3C024
  8
0
 10
3120.1709741483518883
 20
252.9584883089704874
 30
0.0
 11
3120.1713963807519576
 21
252.8966553904704995
 31
0.0
  0
ARC
  5
3C025
  8
0
 10
3120.1571609745092246
 20
252.8962005361019862
 30
0.0
 40
0.0142426712171791
 50
279.443333356697508
 51
1.8301108872234479
  0
ARC
  5
3C026
  8
0
 10
3119.8427451014740655
 20
243.0819940561694068
 30
0.0
 40
9.8052743956928765
 50
88.1487768702262571
 51
89.9407312568819179
  0
ARC
  5
3C027
  8
0
 10
3119.853277252548196
 20
252.9089481974882005
 30
0.0
 40
0.0216884847558882
 50
179.8300562992195069
 51
268.9716746994059235
  0
LINE
  5
3C028
  8
0
 10
3119.8315888631959751
 20
252.90901252711231
 30
0.0
 11
3119.829610189988216
 21
253.6467899421176071
 31
0.0
  0
ARC
  5
3C029
  8
0
 10
3119.4803361414501524
 20
252.9712619921259886
 30
0.0
 40
0.6907561245180968
 50
358.9404077257078143
 51
23.7646476282787518
  0
ARC
  5
3C02A
  8
0
 10
3120.1307432343560322
 20
253.2567085719886961
 30
0.0
 40
0.0195502748858029
 50
126.7170580181840052
 51
201.2482609210333919
  0
ARC
  5
3C02B
  8
0
 10
-466.8718336851974868
 20
252.3965454705436002
 30
0.0
 40
3587.8095064654548878
 50
359.9456226210625118
 51
0.0168106306165944
  0
ARC
  5
3C02C
  8
0
 10
3121.3840585522111724
 20
248.9760144134820052
 30
0.0
 40
0.4482685896939009
 50
178.0223430649020884
 51
225.9661991041953968
  0
LINE
  5
3C02D
  8
0
 10
3120.0677346376110108
 20
252.3398709428344091
 30
0.0
 11
3120.0703310204780792
 21
248.0591028316081861
 31
0.0
  0
ARC
  5
3C02E
  8
0
 10
3120.0997310150710291
 20
248.0591206633712034
 30
0.0
 40
0.0294
 50
180.0347511844177859
 51
270.0
  0
ARC
  5
3C02F
  8
0
 10
3119.5909420959392264
 20
252.9681865338762918
 30
0.0
 40
0.6094561047013732
 50
1.026457990256721
 51
29.9419879119423307
  0
ARC
  5
3C030
  8
0
 10
3120.0977506930721574
 20
252.3397824522683095
 30
0.0
 40
0.0300161859006003
 50
133.9069176950511064
 51
179.8310863569872993
  0
ARC
  5
3C031
  8
0
 10
3119.7506226280697774
 20
252.6717588815762952
 30
0.0
 40
0.4503301252340076
 50
316.4361304526129857
 51
1.932570201383329
  0
LINE
  5
3C032
  8
0
 10
3120.2006966087519686
 20
252.6869455074705115
 30
0.0
 11
3120.2003004008520293
 21
252.9791043995705024
 31
0.0
  0
ARC
  5
3C033
  8
0
 10
3121.0535103911561237
 20
248.6309445961456106
 30
0.0
 40
0.0296532387729632
 50
0.4196612467850613
 51
50.24240931761517
  0
ARC
  5
3C034
  8
0
 10
3118.9755697110767869
 20
257.3976964759268071
 30
0.0
 40
0.0308577796944902
 50
32.3682887926938605
 51
114.8835633477132063
  0
ARC
  5
3C035
  8
0
 10
3463.4771363264558204
 20
430.7674527605461776
 30
0.0
 40
386.5220213287223032
 50
206.7122194054437045
 51
207.3361912671730067
  0
ARC
  5
3C036
  8
0
 10
3119.5050769515719367
 20
255.2818199314802996
 30
0.0
 40
0.4760028772711133
 50
202.8174304105797034
 51
207.2785554224007001
  0
ARC
  5
3C037
  8
0
 10
3119.208167253972988
 20
255.1569042873742035
 30
0.0
 40
0.1538859937173968
 50
192.7241543677999971
 51
202.8174304105841941
  0
ARC
  5
3C038
  8
0
 10
3119.0734471759228654
 20
255.1264841220842072
 30
0.0
 40
0.0157741336685405
 50
165.1730301040834945
 51
192.7241543677984055
  0
ARC
  5
3C039
  8
0
 10
3119.0724857087329838
 20
255.1267386369023882
 30
0.0
 40
0.0147795498609997
 50
121.3603418572020018
 51
165.1730301040803965
  0
LINE
  5
3C03A
  8
0
 10
3119.0647941544748392
 20
255.1393590603184123
 30
0.0
 11
3119.1149876652648345
 21
255.1663363612900923
 31
0.0
  0
ARC
  5
3C03B
  8
0
 10
3118.9174252609827818
 20
254.9812173556067023
 30
0.0
 40
0.2655356843020727
 50
26.8942715706397415
 51
37.1441290410298492
  0
ARC
  5
3C03C
  8
0
 10
3118.847714172994074
 20
254.9978567013504005
 30
0.0
 40
0.3159438486253768
 50
27.0532288994015993
 51
32.2258663198587314
  0
ARC
  5
3C03D
  8
0
 10
3118.9664121795040046
 20
255.0054356113793972
 30
0.0
 40
0.1399908709702603
 50
26.7943874702272709
 51
34.2985899267527614
  0
ARC
  5
3C03E
  8
0
 10
3119.0635588359668873
 20
255.0717007654353097
 30
0.0
 40
0.0223960432619965
 50
34.2992209983426122
 51
44.4208353857406308
  0
ARC
  5
3C03F
  8
0
 10
3119.075564091554952
 20
255.0834657355667048
 30
0.0
 40
0.0055870967181137
 50
44.4208353857774796
 51
57.1120041808976495
  0
ARC
  5
3C040
  8
0
 10
3119.0782082703772176
 20
255.0875548920141966
 30
0.0
 40
0.0007175092511611
 50
57.1120041807115513
 51
111.4145415186495001
  0
ARC
  5
3C041
  8
0
 10
3119.0783114763039521
 20
255.0877549366348092
 30
0.0
 40
0.0005935600035988
 50
127.9688808631329948
 51
172.1845316094112093
  0
ARC
  5
3C042
  8
0
 10
3119.0870810931351116
 20
255.0875562482428904
 30
0.0
 40
0.0093618336440673
 50
178.2897623024888105
 51
199.0765573487335018
  0
ARC
  5
3C043
  8
0
 10
3119.1949818308789872
 20
255.1238348632165867
 30
0.0
 40
0.1231978308978852
 50
198.6212289034901914
 51
208.0618676327775916
  0
ARC
  5
3C044
  8
0
 10
3119.5030365472248377
 20
255.2857321551728091
 30
0.0
 40
0.4760028772711133
 50
207.8096643211999037
 51
212.2707893330043021
  0
ARC
  5
3C045
  8
0
 10
3119.230675722496926
 20
255.1137470749368958
 30
0.0
 40
0.1538859937173968
 50
212.2707893330014883
 51
222.3640653758224062
  0
ARC
  5
3C046
  8
0
 10
3119.1286278933898757
 20
255.0206819017475937
 30
0.0
 40
0.0157741336685405
 50
222.3640653758224062
 51
249.9151896395165977
  0
ARC
  5
3C047
  8
0
 10
3119.1282863426490621
 20
255.0197478032297056
 30
0.0
 40
0.0147795498609997
 50
249.9151896395165977
 51
293.7278778863973798
  0
LINE
  5
3C048
  8
0
 10
3119.1342335338199518
 20
255.0062176143445924
 30
0.0
 11
3119.1850823172908349
 21
255.031938510765201
 31
0.0
  0
ARC
  5
3C049
  8
0
 10
3118.9202105710510295
 20
254.9758768670635902
 30
0.0
 40
0.2655356843020727
 50
17.9440907025866387
 51
28.1939481729748493
  0
ARC
  5
3C04A
  8
0
 10
3118.8939587383720209
 20
254.909188450555007
 30
0.0
 40
0.3159438486253768
 50
22.8623534237734702
 51
28.0349908441913414
  0
ARC
  5
3C04B
  8
0
 10
3119.1372206065339014
 20
255.0108960311256965
 30
0.0
 40
0.0522831646512264
 50
6.7672037043321041
 51
23.7327702081825009
  0
ARC
  5
3C04C
  8
0
 10
3119.1818731868679606
 20
255.0163372992992947
 30
0.0
 40
0.0073018735138627
 50
337.399005713957024
 51
5.655275529231055
  0
ARC
  5
3C04D
  8
0
 10
3119.1869054531521215
 20
255.0145318723016032
 30
0.0
 40
0.0019803277503879
 50
275.3840623160502901
 51
329.6451698796140022
  0
ARC
  5
3C04E
  8
0
 10
3119.2066864622352114
 20
255.050457497543988
 30
0.0
 40
0.0426634566966164
 50
216.0409254972672954
 51
242.6582547743832095
  0
ARC
  5
3C04F
  8
0
 10
3118.9681062926529194
 20
255.0021873580097065
 30
0.0
 40
0.1399908711282217
 50
20.7896298189612914
 51
28.2938322882829887
  0
ARC
  5
3C050
  8
0
 10
3119.0780444258730313
 20
255.0439264332916025
 30
0.0
 40
0.0223960432619965
 50
10.6673843578733294
 51
20.7889987452875715
  0
ARC
  5
3C051
  8
0
 10
3119.0945628857180054
 20
255.047037890870314
 30
0.0
 40
0.0055870967181137
 50
357.9762155627212223
 51
10.6673843578316898
  0
ARC
  5
3C052
  8
0
 10
3119.099429435796992
 20
255.046865924517391
 30
0.0
 40
0.0007175092511611
 50
303.673678224974708
 51
357.9762155628832261
  0
ARC
  5
3C053
  8
0
 10
3119.0996525454788753
 20
255.046836068474903
 30
0.0
 40
0.0005935600035988
 50
242.903688134178708
 51
287.1193388804617257
  0
ARC
  5
3C054
  8
0
 10
3119.1045085929649758
 20
255.0541411666430918
 30
0.0
 40
0.0093618336440673
 50
216.0116623948881909
 51
236.7984574411038068
  0
ARC
  5
3C055
  8
0
 10
3119.1960114542871452
 20
255.1218606873136991
 30
0.0
 40
0.1231978308978852
 50
207.0263521108448117
 51
216.4669908401126008
  0
ARC
  5
3C056
  8
0
 10
3118.5625475091778753
 20
254.788716644283312
 30
0.0
 40
0.5596021019569619
 50
28.0252228263460488
 51
31.7678821773248892
  0
ARC
  5
3C057
  8
0
 10
3118.793169021614176
 20
254.9660484250775028
 30
0.0
 40
0.2717582853553022
 50
25.5682698031916011
 51
29.6599070398643789
  0
ARC
  5
3C058
  8
0
 10
3117.1083201719920908
 20
254.1204216069313873
 30
0.0
 40
2.1593320493211352
 50
24.0505340180971601
 51
25.5474394847929496
  0
ARC
  5
3C059
  8
0
 10
3119.0377577197859864
 20
254.9780301939267986
 30
0.0
 40
0.0479891457032359
 50
6.512235136844124
 51
27.8389998523115594
  0
ARC
  5
3C05A
  8
0
 10
3119.3739676310469804
 20
255.1937456554379935
 30
0.0
 40
0.3591323464650185
 50
213.2088652144479966
 51
215.81894682235
  0
LINE
  5
3C05B
  8
0
 10
3119.080192760717182
 20
255.0004405800569032
 30
0.0
 11
3119.0383465423519738
 21
254.9795455521704923
 31
0.0
  0
LINE
  5
3C05C
  8
0
 10
3119.0293209931801357
 20
255.1005282078880896
 30
0.0
 11
3118.9879568032538373
 21
255.0782949885714004
 31
0.0
  0
ARC
  5
3C05D
  8
0
 10
3118.9953940580348899
 20
255.0657239152914997
 30
0.0
 40
0.0146063219902665
 50
120.6092606995501058
 51
142.6369463142883944
  0
ARC
  5
3C05E
  8
0
 10
3118.994870336697204
 20
255.0671686676834042
 30
0.0
 40
0.0133391744862587
 50
146.2063769733408947
 51
186.2828526067559096
  0
ARC
  5
3C05F
  8
0
 10
3119.08590026148795
 20
255.0970109414743092
 30
0.0
 40
0.1088853120153429
 50
196.7069941921388079
 51
206.0396990665568921
  0
ARC
  5
3C060
  8
0
 10
3119.7201376666321266
 20
255.3910822148330908
 30
0.0
 40
0.8079617027680566
 50
205.0322317140347934
 51
207.1662372258628011
  0
ARC
  5
3C061
  8
0
 10
3119.7646886908391934
 20
255.4118357805812991
 30
0.0
 40
0.8570756940478911
 50
207.0407804984131985
 51
208.9384346958721892
  0
ARC
  5
3C062
  8
0
 10
3119.192412306767892
 20
255.0957093231295119
 30
0.0
 40
0.2032898508357634
 50
209.0095049652015859
 51
213.1678235615422921
  0
ARC
  5
3C063
  8
0
 10
3119.0340931160558284
 20
254.9921302583730949
 30
0.0
 40
0.014098207834788
 50
212.8112177405776038
 51
246.6017034434312905
  0
ARC
  5
3C064
  8
0
 10
3119.0330181212762
 20
254.9905616629806104
 30
0.0
 40
0.0122371062162519
 50
248.3047181652441964
 51
295.8127517861225897
  0
ARC
  5
3C065
  8
0
 10
3119.7483545427789977
 20
254.8341866611986006
 30
0.0
 40
0.4760028772711133
 50
207.8096645920012122
 51
212.2707896038253068
  0
ARC
  5
3C066
  8
0
 10
3119.4759937188641743
 20
254.6622015796756102
 30
0.0
 40
0.1538859937173968
 50
212.2707896037935029
 51
222.364065646605809
  0
ARC
  5
3C067
  8
0
 10
3119.3739458901968646
 20
254.5691364060039064
 30
0.0
 40
0.0157741336685405
 50
222.364065646605809
 51
249.9151899103086976
  0
ARC
  5
3C068
  8
0
 10
3119.3736043394601438
 20
254.568202307484313
 30
0.0
 40
0.0147795498609997
 50
249.9151899103086976
 51
293.7278781572038042
  0
LINE
  5
3C069
  8
0
 10
3119.3795515306951529
 20
254.5546721186273089
 30
0.0
 11
3119.4304003140450732
 21
254.5803930152883083
 31
0.0
  0
ARC
  5
3C06A
  8
0
 10
3119.1655285680699308
 20
254.5243313703348065
 30
0.0
 40
0.2655356843020727
 50
17.9440909733817016
 51
28.1939484437610091
  0
ARC
  5
3C06B
  8
0
 10
3119.139276735706062
 20
254.4576429537021909
 30
0.0
 40
0.3159438486253768
 50
22.8623536945683483
 51
28.0349911149886992
  0
ARC
  5
3C06C
  8
0
 10
3119.3825386033868199
 20
254.5593505354225954
 30
0.0
 40
0.0522831646512264
 50
6.7672039751199611
 51
23.7327704789796883
  0
ARC
  5
3C06D
  8
0
 10
3119.4271911836949585
 20
254.5647918038071964
 30
0.0
 40
0.0073018735138627
 50
337.3990059847474186
 51
5.6552758000251666
  0
ARC
  5
3C06E
  8
0
 10
3119.4322234499882143
 20
254.5629863768332939
 30
0.0
 40
0.0019803277503879
 50
275.3840625868369898
 51
329.6451701504336143
  0
ARC
  5
3C06F
  8
0
 10
3119.4520044589021381
 20
254.5989120021691861
 30
0.0
 40
0.0426634566966164
 50
216.0409257680641986
 51
242.6582550451759914
  0
ARC
  5
3C070
  8
0
 10
3119.2134242896931937
 20
254.5506418615682094
 30
0.0
 40
0.1399908709702603
 50
20.7896300876337889
 51
28.2938325441651806
  0
ARC
  5
3C071
  8
0
 10
3119.3233624225699714
 20
254.5923809373088034
 30
0.0
 40
0.0223960432619965
 50
10.6673846286564409
 51
20.7889990160611404
  0
ARC
  5
3C072
  8
0
 10
3119.3398808823999389
 20
254.5954923949655893
 30
0.0
 40
0.0055870967181137
 50
357.9762158335162781
 51
10.6673846286292395
  0
ARC
  5
3C073
  8
0
 10
3119.344747432479835
 20
254.5953204286356879
 30
0.0
 40
0.0007175092511611
 50
303.6736784957608961
 51
357.9762158336782818
  0
ARC
  5
3C074
  8
0
 10
3119.3449705421621729
 20
254.5952905725941946
 30
0.0
 40
0.0005935600035988
 50
242.9036884049903051
 51
287.1193391512654216
  0
ARC
  5
3C075
  8
0
 10
3119.3498265896141675
 20
254.602595670785405
 30
0.0
 40
0.0093618336440673
 50
216.0116626656617882
 51
236.7984577119146934
  0
ARC
  5
3C076
  8
0
 10
3119.4413294506161947
 20
254.6703151918885055
 30
0.0
 40
0.1231978308978852
 50
207.0263523816491897
 51
216.4669911108983058
  0
ARC
  5
3C077
  8
0
 10
3119.7503949471451961
 20
254.8302744375158113
 30
0.0
 40
0.4760028772711133
 50
202.8174306813899932
 51
207.278555693186604
  0
ARC
  5
3C078
  8
0
 10
3119.4534852501369642
 20
254.7053587920063933
 30
0.0
 40
0.1538859937173968
 50
192.7241546385926938
 51
202.8174306813930059
  0
ARC
  5
3C079
  8
0
 10
3119.318765172230087
 20
254.6749386260796086
 30
0.0
 40
0.0157741336685405
 50
165.173030374887901
 51
192.7241546385911022
  0
ARC
  5
3C07A
  8
0
 10
3119.3178037050388411
 20
254.675193140893299
 30
0.0
 40
0.0147795498609997
 50
121.3603421280020029
 51
165.1730303748832114
  0
LINE
  5
3C07B
  8
0
 10
3119.3101121507220341
 20
254.6878135642728864
 30
0.0
 11
3119.3603056613837907
 21
254.7147908654818877
 31
0.0
  0
ARC
  5
3C07C
  8
0
 10
3119.1627432579771266
 20
254.5296718588647877
 30
0.0
 40
0.2655356843020727
 50
26.894271841425951
 51
37.1441293118379932
  0
ARC
  5
3C07D
  8
0
 10
3119.0930321699088381
 20
254.5463112042789078
 30
0.0
 40
0.3159438486253768
 50
27.0532291701968184
 51
32.2258665906462625
  0
ARC
  5
3C07E
  8
0
 10
3119.3156581575831297
 20
254.6875855404458946
 30
0.0
 40
0.0522831646512264
 50
31.3554498062202711
 51
48.3210163100608128
  0
ARC
  5
3C07F
  8
0
 10
3119.3456755021979916
 20
254.7210880679936906
 30
0.0
 40
0.0073018735138627
 50
49.4329444851657129
 51
77.6892143004294837
  0
ARC
  5
3C080
  8
0
 10
3119.3470750291508011
 20
254.7262479705995872
 30
0.0
 40
0.0019803277503879
 50
85.443050134773074
 51
139.7041576983698121
  0
ARC
  5
3C081
  8
0
 10
3119.3878562294371477
 20
254.7219083193853919
 30
0.0
 40
0.0426634566966164
 50
172.4299652400113132
 51
199.0472945171457866
  0
ARC
  5
3C082
  8
0
 10
3119.2117301762500574
 20
254.5538901147843092
 30
0.0
 40
0.1399908711282217
 50
26.7943877261071783
 51
34.2985901954350183
  0
ARC
  5
3C083
  8
0
 10
3119.3088768325342244
 20
254.6201552693840995
 30
0.0
 40
0.0223960432619965
 50
34.2992212691155984
 51
44.4208356565224634
  0
ARC
  5
3C084
  8
0
 10
3119.320882088064991
 20
254.6319202395721106
 30
0.0
 40
0.0055870967181137
 50
44.4208356565575571
 51
57.112004451677862
  0
ARC
  5
3C085
  8
0
 10
3119.3235262668690666
 20
254.6360093960321933
 30
0.0
 40
0.0007175092511611
 50
57.1120044515225018
 51
111.4145417894262948
  0
ARC
  5
3C086
  8
0
 10
3119.3236294727948916
 20
254.636209440653289
 30
0.0
 40
0.0005935600035988
 50
127.9688811339147065
 51
172.1845318802135125
  0
ARC
  5
3C087
  8
0
 10
3119.3323990896260511
 20
254.6360107523028091
 30
0.0
 40
0.0093618336440673
 50
178.2897625732827009
 51
199.0765576195310018
  0
ARC
  5
3C088
  8
0
 10
3119.4402998271989418
 20
254.6722893677865045
 30
0.0
 40
0.1231978308978852
 50
198.6212291742716047
 51
208.0618679035671903
  0
ARC
  5
3C089
  8
0
 10
3118.7042949779101946
 20
254.5700526096348142
 30
0.0
 40
0.5110278861040093
 50
22.5481420979463891
 51
28.2010871823119409
  0
ARC
  5
3C08A
  8
0
 10
3119.0371626623777956
 20
254.7481516414252951
 30
0.0
 40
0.1399908709702603
 50
20.7896300876337889
 51
28.2938325441651806
  0
ARC
  5
3C08B
  8
0
 10
3119.1471007952550281
 20
254.7898907171660028
 30
0.0
 40
0.0223960432619965
 50
10.6673846286564409
 51
20.7889990160611404
  0
ARC
  5
3C08C
  8
0
 10
3119.1636192550849955
 20
254.7930021748227034
 30
0.0
 40
0.0055870967181137
 50
357.9762158335162781
 51
10.6673846286292395
  0
ARC
  5
3C08D
  8
0
 10
3119.1684858051639821
 20
254.7928302084928021
 30
0.0
 40
0.0007175092511611
 50
303.6736784957608961
 51
357.9762158336782818
  0
ARC
  5
3C08E
  8
0
 10
3119.1687089148467749
 20
254.7928003524513088
 30
0.0
 40
0.0005935600035988
 50
242.9036884049903051
 51
287.1193391512654216
  0
ARC
  5
3C08F
  8
0
 10
3119.1735649622978599
 20
254.8001054506424907
 30
0.0
 40
0.0093618336440673
 50
216.0116626656617882
 51
236.7984577119146934
  0
ARC
  5
3C090
  8
0
 10
3119.2650678233007966
 20
254.8678249717457049
 30
0.0
 40
0.1231978308978852
 50
207.0263523816491897
 51
216.4669911108983058
  0
ARC
  5
3C091
  8
0
 10
3119.0354685489342046
 20
254.7513998946413949
 30
0.0
 40
0.1399908711282217
 50
26.7943877261071783
 51
34.2985901954350183
  0
ARC
  5
3C092
  8
0
 10
3119.1326152052170073
 20
254.8176650492412136
 30
0.0
 40
0.0223960432619965
 50
34.2992212691155984
 51
44.4208356565224634
  0
ARC
  5
3C093
  8
0
 10
3119.1446204607500476
 20
254.8294300194293101
 30
0.0
 40
0.0055870967181137
 50
44.4208356565575571
 51
57.112004451677862
  0
ARC
  5
3C094
  8
0
 10
3119.1472646395532138
 20
254.8335191758893075
 30
0.0
 40
0.0007175092511611
 50
57.1120044515225018
 51
111.4145417894262948
  0
ARC
  5
3C095
  8
0
 10
3119.1473678454790388
 20
254.8337192205104031
 30
0.0
 40
0.0005935600035988
 50
127.9688811339147065
 51
172.1845318802135125
  0
ARC
  5
3C096
  8
0
 10
3119.1561374623101983
 20
254.8335205321598949
 30
0.0
 40
0.0093618336440673
 50
178.2897625732827009
 51
199.0765576195310018
  0
ARC
  5
3C097
  8
0
 10
3119.264038199883089
 20
254.8697991476437039
 30
0.0
 40
0.1231978308978852
 50
198.6212291742716047
 51
208.0618679035671903
  0
ARC
  5
3C098
  8
0
 10
3118.9727116046701667
 20
254.1083406021550957
 30
0.0
 40
0.5754752159633983
 50
26.1304595962918711
 51
30.1210437872369887
  0
ARC
  5
3C099
  8
0
 10
3119.31912616517684
 20
254.2576013367423116
 30
0.0
 40
0.1995944934806548
 50
22.2002889288836904
 51
31.4664126149057317
  0
ARC
  5
3C09A
  8
0
 10
3119.4930023735851137
 20
254.3273227495027982
 30
0.0
 40
0.0123174160695262
 50
355.647174192755017
 51
27.5362419474790912
  0
ARC
  5
3C09B
  8
0
 10
3119.5038900578438188
 20
254.3264940046825018
 30
0.0
 40
0.0013982363158355
 50
271.4637643447886717
 51
355.6471741930492954
  0
ARC
  5
3C09C
  8
0
 10
3119.5089301827288182
 20
254.3357043839428968
 30
0.0
 40
0.011729328046824
 50
225.3205775391404018
 51
244.7443687558566126
  0
ARC
  5
3C09D
  8
0
 10
3119.6910929335481342
 20
254.5154977352516141
 30
0.0
 40
0.2676755994166819
 50
220.2418211867357059
 51
224.6554231186921982
  0
ARC
  5
3C09E
  8
0
 10
3118.9449750456019501
 20
254.084042319495893
 30
0.0
 40
0.6117011841006881
 50
30.7859228168093111
 51
36.0454915634117015
  0
ARC
  5
3C09F
  8
0
 10
3119.3806260705378008
 20
254.4035041576678964
 30
0.0
 40
0.0715020705897464
 50
34.4812221985009799
 51
49.8182445234914226
  0
ARC
  5
3C0A0
  8
0
 10
3119.4216826105061955
 20
254.4524420515959946
 30
0.0
 40
0.0076260146396362
 50
48.2539751586797792
 51
74.6367782325601752
  0
ARC
  5
3C0A1
  8
0
 10
3119.4224254686100721
 20
254.4551457585168066
 30
0.0
 40
0.0048221121313219
 50
74.6367782325601752
 51
93.4880884989367757
  0
ARC
  5
3C0A2
  8
0
 10
3119.4226898724518833
 20
254.4577201034767882
 30
0.0
 40
0.0023072718272709
 50
103.9899304771358999
 51
129.1311690286480882
  0
ARC
  5
3C0A3
  8
0
 10
3119.4222054527858745
 20
254.4589406695000093
 30
0.0
 40
0.0011261306639196
 50
149.6393972962974885
 51
182.0798351809683879
  0
ARC
  5
3C0A4
  8
0
 10
3119.5584951149880908
 20
254.4949783572251079
 30
0.0
 40
0.1420723707693409
 50
194.7110758860318072
 51
203.7419295331615103
  0
LINE
  5
3C0A5
  8
0
 10
3119.4396129486008249
 20
254.4439196674503876
 30
0.0
 11
3119.3937475908810484
 21
254.4186909703958861
 31
0.0
  0
LINE
  5
3C0A6
  8
0
 10
3119.497161267465799
 20
254.3478313992542894
 30
0.0
 11
3119.4483065059430373
 21
254.3231207259115081
 31
0.0
  0
ARC
  5
3C0A7
  8
0
 10
3119.4422542442339363
 20
254.3364141366963054
 30
0.0
 40
0.0146063219902665
 50
272.4512737001173832
 51
294.4789593148502149
  0
ARC
  5
3C0A8
  8
0
 10
3119.4431392573360426
 20
254.3351578145550036
 30
0.0
 40
0.0133391744862587
 50
228.8053674076591051
 51
268.8818430410532869
  0
ARC
  5
3C0A9
  8
0
 10
3119.4919236519422157
 20
254.381454041465787
 30
0.0
 40
0.080546660450082
 50
211.8939344413003028
 51
224.3781984023895006
  0
ARC
  5
3C0AA
  8
0
 10
3119.8305390545251612
 20
254.6082737782082859
 30
0.0
 40
0.4880718031401406
 50
210.0063388425481889
 51
213.4988119620875864
  0
ARC
  5
3C0AB
  8
0
 10
3119.8222036976171694
 20
254.6065297256895121
 30
0.0
 40
0.4799888006447148
 50
206.8627841883239
 51
210.3236447029545957
  0
ARC
  5
3C0AC
  8
0
 10
3119.4803913148539323
 20
254.4348620019906946
 30
0.0
 40
0.0975007498520388
 50
199.1264439622945872
 51
207.6305576778437114
  0
ARC
  5
3C0AD
  8
0
 10
3119.4016427859442047
 20
254.4076122679153968
 30
0.0
 40
0.0141709434811737
 50
163.2961415005410117
 51
199.3560216891440007
  0
ARC
  5
3C0AE
  8
0
 10
3119.3999619080418597
 20
254.407850892196393
 30
0.0
 40
0.012495000326272
 50
119.8244551330833048
 51
162.1287250163719875
  0
ARC
  5
3C0AF
  8
0
 10
3119.1564933022391415
 20
254.2171510702721946
 30
0.0
 40
0.2960478481578903
 50
28.0872171922157392
 51
30.2805790892766602
  0
ARC
  5
3C0B0
  8
0
 10
3119.2730525829811086
 20
254.2793545154524963
 30
0.0
 40
0.1639292101115726
 50
25.7815349400611886
 51
28.0872171922157392
  0
ARC
  5
3C0B1
  8
0
 10
3119.3773056450490913
 20
254.3297109712725046
 30
0.0
 40
0.0481515197156614
 50
20.8077040975176111
 51
25.7815349400633913
  0
ARC
  5
3C0B2
  8
0
 10
3119.4156786537428161
 20
254.344293414409492
 30
0.0
 40
0.0071011184508354
 50
8.7357867734475381
 51
20.807704097490209
  0
ARC
  5
3C0B3
  8
0
 10
3119.422375697095049
 20
254.3453224873580893
 30
0.0
 40
0.0003254722975166
 50
312.6520975265619882
 51
8.735786773939056
  0
ARC
  5
3C0B4
  8
0
 10
3119.4225150198221854
 20
254.3452528393137015
 30
0.0
 40
0.0001881538474914
 50
265.3603377238999883
 51
295.5665104960128247
  0
ARC
  5
3C0B5
  8
0
 10
3119.4226387482208338
 20
254.3456912901847886
 30
0.0
 40
0.0006412236066324
 50
226.7082926762795978
 51
257.4851939207489977
  0
ARC
  5
3C0B6
  8
0
 10
3119.4332324560409688
 20
254.3570370962762865
 30
0.0
 40
0.0161639093224561
 50
215.3064271656056121
 51
226.9532425671384033
  0
ARC
  5
3C0B7
  8
0
 10
3119.5843298054969637
 20
254.4645298237005022
 30
0.0
 40
0.2015960611527888
 50
209.4821056297998894
 51
215.4187755602443985
  0
ARC
  5
3C0B8
  8
0
 10
3119.6109135690599032
 20
254.4837274239571911
 30
0.0
 40
0.2342137179315194
 50
206.2359880412901134
 51
210.3697694892942991
  0
ARC
  5
3C0B9
  8
0
 10
3119.4423159869479605
 20
254.4004704421685972
 30
0.0
 40
0.0461797888915376
 50
199.8697385565295122
 51
206.0522403801668077
  0
ARC
  5
3C0BA
  8
0
 10
3119.400110209873219
 20
254.3854225824904063
 30
0.0
 40
0.0013856122598902
 50
160.0438556847124971
 51
207.8761687637716022
  0
ARC
  5
3C0BB
  8
0
 10
3119.3989122541102006
 20
254.3856864404496037
 30
0.0
 40
0.0002336965613697
 50
53.9725112301279282
 51
116.5496837185789047
  0
ARC
  5
3C0BC
  8
0
 10
3119.3887994012261515
 20
254.3741875594220971
 30
0.0
 40
0.0155459101473967
 50
33.9863533702132301
 51
48.749136391230401
  0
ARC
  5
3C0BD
  8
0
 10
3119.2251781277041118
 20
254.2590743707023933
 30
0.0
 40
0.2156004583445092
 50
29.8632765468572217
 51
35.0454116533738826
  0
ARC
  5
3C0BE
  8
0
 10
3119.069310118301928
 20
253.8706052139395126
 30
0.0
 40
0.5754752159633983
 50
26.1304595962918711
 51
30.1210437872369887
  0
ARC
  5
3C0BF
  8
0
 10
3119.4157246788090561
 20
254.0198659485267001
 30
0.0
 40
0.1995944934806548
 50
22.2002889288836904
 51
31.4664126149057317
  0
ARC
  5
3C0C0
  8
0
 10
3119.589600887216875
 20
254.0895873612871867
 30
0.0
 40
0.0123174160695262
 50
355.647174192755017
 51
27.5362419474790912
  0
ARC
  5
3C0C1
  8
0
 10
3119.6004885714760348
 20
254.0887586164668903
 30
0.0
 40
0.0013982363158355
 50
271.4637643447886717
 51
355.6471741930492954
  0
ARC
  5
3C0C2
  8
0
 10
3119.6055286963610342
 20
254.0979689957273138
 30
0.0
 40
0.011729328046824
 50
225.3205775391404018
 51
244.7443687558566126
  0
ARC
  5
3C0C3
  8
0
 10
3119.787691447180805
 20
254.2777623470360027
 30
0.0
 40
0.2676755994166819
 50
220.2418211866933007
 51
224.6554231186921982
  0
ARC
  5
3C0C4
  8
0
 10
3119.0415735592341662
 20
253.84630693128031
 30
0.0
 40
0.6117011841006881
 50
30.7859228168093111
 51
36.0454915634117015
  0
ARC
  5
3C0C5
  8
0
 10
3119.4772245841700169
 20
254.1657687694521996
 30
0.0
 40
0.0715020705897464
 50
34.4812221985009799
 51
49.8182445234914226
  0
ARC
  5
3C0C6
  8
0
 10
3119.5182811241379568
 20
254.2147066633804968
 30
0.0
 40
0.0076260146396362
 50
48.2539751586797792
 51
74.6367782325601752
  0
ARC
  5
3C0C7
  8
0
 10
3119.5190239822418334
 20
254.2174103703011099
 30
0.0
 40
0.0048221121313219
 50
74.6367782325601752
 51
93.4880884989367757
  0
ARC
  5
3C0C8
  8
0
 10
3119.5192883860840993
 20
254.2199847152612051
 30
0.0
 40
0.0023072718272709
 50
103.9899304771358999
 51
129.1311690286480882
  0
ARC
  5
3C0C9
  8
0
 10
3119.5188039664180906
 20
254.2212052812843979
 30
0.0
 40
0.0011261306639196
 50
149.6393972962974885
 51
182.0798351809683879
  0
ARC
  5
3C0CA
  8
0
 10
3119.6550936286198521
 20
254.2572429690094964
 30
0.0
 40
0.1420723707693409
 50
194.7110758860318072
 51
203.7417997018773121
  0
LINE
  5
3C0CB
  8
0
 10
3119.5362114622339504
 20
254.2061842792348045
 30
0.0
 11
3119.4903461045128097
 21
254.1809555821803031
 31
0.0
  0
LINE
  5
3C0CC
  8
0
 10
3119.5937597810980151
 20
254.1100960110387916
 30
0.0
 11
3119.5449050195747986
 21
254.0853853376958966
 31
0.0
  0
ARC
  5
3C0CD
  8
0
 10
3119.5388527578670619
 20
254.0986787484808076
 30
0.0
 40
0.0146063219902665
 50
272.4512737001173832
 51
294.4789593148502149
  0
ARC
  5
3C0CE
  8
0
 10
3119.539737770967804
 20
254.0974224263393069
 30
0.0
 40
0.0133391744862587
 50
228.8053674076591051
 51
268.8818430410532869
  0
ARC
  5
3C0CF
  8
0
 10
3119.588522165573977
 20
254.1437186532502039
 30
0.0
 40
0.080546660450082
 50
211.8939344413003028
 51
224.3781984023895006
  0
ARC
  5
3C0D0
  8
0
 10
3119.927137568157832
 20
254.3705383899927028
 30
0.0
 40
0.4880718031401406
 50
210.0063388425481889
 51
213.4988119620875864
  0
ARC
  5
3C0D1
  8
0
 10
3119.9188022112498402
 20
254.3687943374739007
 30
0.0
 40
0.4799888006447148
 50
206.8627841883239
 51
210.3236447029545957
  0
ARC
  5
3C0D2
  8
0
 10
3119.5769898284870578
 20
254.1971266137751115
 30
0.0
 40
0.0975007498520388
 50
199.1264439622945872
 51
207.6305576778437114
  0
ARC
  5
3C0D3
  8
0
 10
3119.498241299575966
 20
254.1698768796998138
 30
0.0
 40
0.0141709434811737
 50
163.2961415005410117
 51
199.3560216891440007
  0
ARC
  5
3C0D4
  8
0
 10
3119.4965604216749853
 20
254.1701155039808953
 30
0.0
 40
0.012495000326272
 50
119.8244551330833048
 51
162.1287250163719875
  0
ARC
  5
3C0D5
  8
0
 10
3119.2530918158718123
 20
253.9794156820566968
 30
0.0
 40
0.2960478481578903
 50
28.0872171922157392
 51
30.2805790892766602
  0
ARC
  5
3C0D6
  8
0
 10
3119.3696510966128699
 20
254.0416191272369133
 30
0.0
 40
0.1639292101115726
 50
25.7815349400611886
 51
28.0872171922157392
  0
ARC
  5
3C0D7
  8
0
 10
3119.4739041586808526
 20
254.0919755830568079
 30
0.0
 40
0.0481515197156614
 50
20.8077040975176111
 51
25.7815349400633913
  0
ARC
  5
3C0D8
  8
0
 10
3119.5122771673750321
 20
254.106558026193909
 30
0.0
 40
0.0071011184508354
 50
8.7357867734475381
 51
20.807704097490209
  0
ARC
  5
3C0D9
  8
0
 10
3119.5189742107268103
 20
254.1075870991425063
 30
0.0
 40
0.0003254722975166
 50
312.6520975265619882
 51
8.735786773939056
  0
ARC
  5
3C0DA
  8
0
 10
3119.5191135334539467
 20
254.1075174510982038
 30
0.0
 40
0.0001881538474914
 50
265.3603377238999883
 51
295.5665104960128247
  0
ARC
  5
3C0DB
  8
0
 10
3119.5192372618530499
 20
254.1079559019692056
 30
0.0
 40
0.0006412236066324
 50
226.7082926762795978
 51
257.4851939207489977
  0
ARC
  5
3C0DC
  8
0
 10
3119.5298309696740944
 20
254.1193017080607035
 30
0.0
 40
0.0161639093224561
 50
215.3064271656056121
 51
226.9532425671384033
  0
ARC
  5
3C0DD
  8
0
 10
3119.6809283191291797
 20
254.2267944354848908
 30
0.0
 40
0.2015960611527888
 50
209.4821056297998894
 51
215.4187755602443985
  0
ARC
  5
3C0DE
  8
0
 10
3119.7075120826930288
 20
254.2459920357416081
 30
0.0
 40
0.2342137179315194
 50
206.2359880412901134
 51
210.3697694892942991
  0
ARC
  5
3C0DF
  8
0
 10
3119.538914500581086
 20
254.1627350539530141
 30
0.0
 40
0.0461797888915376
 50
199.8697385565295122
 51
206.0522403801668077
  0
ARC
  5
3C0E0
  8
0
 10
3119.4967087235058898
 20
254.1476871942747948
 30
0.0
 40
0.0013856122598902
 50
160.0438556847124971
 51
207.8761687637716022
  0
ARC
  5
3C0E1
  8
0
 10
3119.4955107677428714
 20
254.1479510522341059
 30
0.0
 40
0.0002336965613697
 50
53.9725112301279282
 51
116.5496837185789047
  0
ARC
  5
3C0E2
  8
0
 10
3119.4853979148579128
 20
254.1364521712065141
 30
0.0
 40
0.0155459101473967
 50
33.9863533702132301
 51
48.749136391230401
  0
ARC
  5
3C0E3
  8
0
 10
3119.3217766413367826
 20
254.0213389824868102
 30
0.0
 40
0.2156004583445092
 50
29.8632765468572217
 51
35.0454116533738826
  0
ARC
  5
3C0E4
  8
0
 10
3119.0025899274878611
 20
253.5121433414778096
 30
0.0
 40
0.8653517575981272
 50
28.2317933338365599
 51
30.6989711792712399
  0
ARC
  5
3C0E5
  8
0
 10
3119.4372541098418878
 20
253.7378834535167869
 30
0.0
 40
0.3756709437902321
 50
24.4824518932027502
 51
29.2578390849617698
  0
ARC
  5
3C0E6
  8
0
 10
3119.7287040526839519
 20
253.8666796596340873
 30
0.0
 40
0.057162048013625
 50
10.7061074666696907
 51
28.0582916828383517
  0
ARC
  5
3C0E7
  8
0
 10
3120.1057684592510668
 20
254.1245073013448064
 30
0.0
 40
0.4067313969324628
 50
215.1010403732286989
 51
217.7187588004057091
  0
ARC
  5
3C0E8
  8
0
 10
3119.055362023249927
 20
253.5501004296044982
 30
0.0
 40
0.8006171949558361
 50
30.2913197111675494
 51
34.0327284050829491
  0
ARC
  5
3C0E9
  8
0
 10
3119.6709915536462177
 20
254.0033704980357072
 30
0.0
 40
0.0371996609358259
 50
34.9850161870455665
 51
58.8851685462163772
  0
ARC
  5
3C0EA
  8
0
 10
3119.6879155390838605
 20
254.0318949619785087
 30
0.0
 40
0.0040411632486422
 50
55.3246142169140995
 51
114.3584713240063024
  0
ARC
  5
3C0EB
  8
0
 10
3119.7580048009049278
 20
254.0516398617770903
 30
0.0
 40
0.0744213081321145
 50
194.4350057460382004
 51
205.7970518702088896
  0
LINE
  5
3C0EC
  8
0
 10
3119.7014693108521897
 20
254.0246993772705082
 30
0.0
 11
3119.6535877983528735
 21
253.9993100619705046
 31
0.0
  0
LINE
  5
3C0ED
  8
0
 10
3119.7791478168519461
 20
253.893566950120487
 30
0.0
 11
3119.7329550618887879
 21
253.8714690148345881
 31
0.0
  0
ARC
  5
3C0EE
  8
0
 10
3119.7258922393261855
 20
253.8825768603707047
 30
0.0
 40
0.0131631187420527
 50
249.0293424331543974
 51
302.4498696944551739
  0
ARC
  5
3C0EF
  8
0
 10
3119.729299353271017
 20
253.8890954696300071
 30
0.0
 40
0.0204869100251319
 50
209.8442293872207927
 51
246.6556730444418122
  0
ARC
  5
3C0F0
  8
0
 10
3119.7986851230489265
 20
253.9658384966772076
 30
0.0
 40
0.1231031059419114
 50
214.9707615218995045
 51
224.9284093248799934
  0
ARC
  5
3C0F1
  8
0
 10
3122.5603000126448023
 20
255.7887966748398014
 30
0.0
 40
3.4320922220400192
 50
212.9822829930126886
 51
213.4843283310835886
  0
ARC
  5
3C0F2
  8
0
 10
3120.2846751806100656
 20
254.30417908722481
 30
0.0
 40
0.7150438682522664
 50
210.0937384906397938
 51
212.4573392131428875
  0
ARC
  5
3C0F3
  8
0
 10
3120.3174235473738918
 20
254.3147499586247875
 30
0.0
 40
0.7487137060789412
 50
207.7786986520619905
 51
209.5370381896539129
  0
ARC
  5
3C0F4
  8
0
 10
3119.74308397461391
 20
254.0098357207295976
 30
0.0
 40
0.0984790221718947
 50
192.5928490782627023
 51
206.5575202472834917
  0
ARC
  5
3C0F5
  8
0
 10
3119.6599768470841809
 20
253.9879784905878068
 30
0.0
 40
0.0130086299701945
 50
119.4154885312462966
 51
178.2965855311881
  0
ARC
  5
3C0F6
  8
0
 10
3119.4306727187117758
 20
253.776024422253613
 30
0.0
 40
0.2960478481578903
 50
28.0872171922157392
 51
30.2805790892766602
  0
ARC
  5
3C0F7
  8
0
 10
3119.5472319994528334
 20
253.8382278674338863
 30
0.0
 40
0.1639292101115726
 50
25.7815349400611886
 51
28.0872171922157392
  0
ARC
  5
3C0F8
  8
0
 10
3119.6514850615208161
 20
253.8885843232538093
 30
0.0
 40
0.0481515197156614
 50
20.8077040975176111
 51
25.7815349400633913
  0
ARC
  5
3C0F9
  8
0
 10
3119.6898580702140862
 20
253.9031667663907967
 30
0.0
 40
0.0071011184508354
 50
8.7357867734475381
 51
20.807704097490209
  0
ARC
  5
3C0FA
  8
0
 10
3119.6965551135667738
 20
253.9041958393395078
 30
0.0
 40
0.0003254722975166
 50
312.6520975265619882
 51
8.735786773939056
  0
ARC
  5
3C0FB
  8
0
 10
3119.6966944362930008
 20
253.9041261912950915
 30
0.0
 40
0.0001881538474914
 50
265.3603377238999883
 51
295.5665104960128247
  0
ARC
  5
3C0FC
  8
0
 10
3119.6968181646930134
 20
253.904564642166207
 30
0.0
 40
0.0006412236066324
 50
226.7082926762795978
 51
257.4851939207489977
  0
ARC
  5
3C0FD
  8
0
 10
3119.7074118725131484
 20
253.915910448257705
 30
0.0
 40
0.0161639093224561
 50
215.3064271656056121
 51
226.9532425671384033
  0
ARC
  5
3C0FE
  8
0
 10
3119.858509221967779
 20
254.0234031756818069
 30
0.0
 40
0.2015960611527888
 50
209.4821056297998894
 51
215.4187755602443985
  0
ARC
  5
3C0FF
  8
0
 10
3120.1639425039770686
 20
254.1950053427752039
 30
0.0
 40
0.5519337154265748
 50
206.691957452833492
 51
209.3847113143438037
  0
ARC
  5
3C100
  8
0
 10
3119.7123135528881903
 20
253.9673619767526986
 30
0.0
 40
0.0461797888915376
 50
199.8697385565295122
 51
206.0522403801668077
  0
ARC
  5
3C101
  8
0
 10
3119.6702219522121595
 20
253.9521359762640031
 30
0.0
 40
0.0013856122598902
 50
160.0438556847124971
 51
207.8761687637716022
  0
ARC
  5
3C102
  8
0
 10
3119.6690239964500506
 20
253.9523998342233142
 30
0.0
 40
0.0002336965613697
 50
53.9725112301279282
 51
116.5496837185789047
  0
ARC
  5
3C103
  8
0
 10
3119.6589111435650921
 20
253.9409009531958077
 30
0.0
 40
0.0155459101473967
 50
33.9863533702132301
 51
48.749136391230401
  0
ARC
  5
3C104
  8
0
 10
3119.283471126951099
 20
253.7008228840138031
 30
0.0
 40
0.461178887418722
 50
29.1272459476142593
 51
32.6703112295816567
  0
ARC
  5
3C105
  8
0
 10
3119.3553383661301268
 20
253.4325359393342012
 30
0.0
 40
0.5754752159633983
 50
26.1304595962918711
 51
30.1210437872369887
  0
ARC
  5
3C106
  8
0
 10
3119.7017529266381644
 20
253.5817966739213887
 30
0.0
 40
0.1995944934806548
 50
22.2002889288836904
 51
31.4664126149057317
  0
ARC
  5
3C107
  8
0
 10
3119.8756291350450738
 20
253.6515180866819037
 30
0.0
 40
0.0123174160695262
 50
355.647174192755017
 51
27.5362419474790912
  0
ARC
  5
3C108
  8
0
 10
3119.8865168193028694
 20
253.6506893418616073
 30
0.0
 40
0.0013982363158355
 50
271.4637643447886717
 51
355.6471741930492954
  0
ARC
  5
3C109
  8
0
 10
3119.8915569441887783
 20
253.6598997211218887
 30
0.0
 40
0.011729328046824
 50
225.3205775391404018
 51
244.7443687558566126
  0
ARC
  5
3C10A
  8
0
 10
3120.0737196950090038
 20
253.8396930724306912
 30
0.0
 40
0.2676755994166819
 50
220.2418211867326079
 51
224.6554231186921982
  0
ARC
  5
3C10B
  8
0
 10
3118.7134430451178559
 20
253.0698802146833941
 30
0.0
 40
1.3127116629978619
 50
29.7528341134040595
 51
33.3430020593618082
  0
ARC
  5
3C10C
  8
0
 10
3119.751135897021868
 20
253.7509322231549902
 30
0.0
 40
0.0715020705897464
 50
34.4812221985009799
 51
49.8182445234914226
  0
ARC
  5
3C10D
  8
0
 10
3119.7921924369898079
 20
253.7998701170832021
 30
0.0
 40
0.0076260146396362
 50
48.2539751586797792
 51
74.6367782325601752
  0
ARC
  5
3C10E
  8
0
 10
3119.7929352950950488
 20
253.8025738240039004
 30
0.0
 40
0.0048221121313219
 50
74.6367782325601752
 51
93.4880884989367757
  0
ARC
  5
3C10F
  8
0
 10
3119.7931996989359504
 20
253.8051481689639957
 30
0.0
 40
0.0023072718272709
 50
103.9899304771358999
 51
129.1311690286480882
  0
ARC
  5
3C110
  8
0
 10
3119.7927152792699417
 20
253.8063687349871884
 30
0.0
 40
0.0011261306639196
 50
149.6393972962974885
 51
182.0798351809683879
  0
ARC
  5
3C111
  8
0
 10
3119.929004941472158
 20
253.8424064227122017
 30
0.0
 40
0.1420723707693409
 50
194.7110758860318072
 51
203.7419295332196896
  0
LINE
  5
3C112
  8
0
 10
3119.8101227750858015
 20
253.7913477329375098
 30
0.0
 11
3119.7642574173651155
 21
253.7661190358830936
 31
0.0
  0
LINE
  5
3C113
  8
0
 10
3119.8797880289271234
 20
253.6720267364333949
 30
0.0
 11
3119.8309332674029974
 21
253.6473160630906136
 31
0.0
  0
ARC
  5
3C114
  8
0
 10
3119.8248810056938964
 20
253.6606094738754109
 30
0.0
 40
0.0146063219902665
 50
272.4512737001173832
 51
294.4789593148502149
  0
ARC
  5
3C115
  8
0
 10
3119.8257660187960028
 20
253.6593531517341091
 30
0.0
 40
0.0133391744862587
 50
228.8053674076591051
 51
268.8818430410532869
  0
ARC
  5
3C116
  8
0
 10
3119.8745504134008115
 20
253.7056493786448925
 30
0.0
 40
0.080546660450082
 50
211.8939344413003028
 51
224.3781984023895006
  0
ARC
  5
3C117
  8
0
 10
3120.2131658159860308
 20
253.9324691153873914
 30
0.0
 40
0.4880718031401406
 50
210.0063388425481889
 51
213.4988119620875864
  0
ARC
  5
3C118
  8
0
 10
3121.3118000453559944
 20
254.5317940815843087
 30
0.0
 40
1.7394421837757781
 50
207.1861641771671998
 51
209.0041173718900893
  0
ARC
  5
3C119
  8
0
 10
3119.8509011413389089
 20
253.7822900674779021
 30
0.0
 40
0.0975007498520388
 50
199.1264439622945872
 51
207.6305576778437114
  0
ARC
  5
3C11A
  8
0
 10
3119.7721526124278171
 20
253.7550403334026043
 30
0.0
 40
0.0141709434811737
 50
163.2961415005410117
 51
199.3560216891440007
  0
ARC
  5
3C11B
  8
0
 10
3119.7704717345259269
 20
253.7552789576836005
 30
0.0
 40
0.012495000326272
 50
119.8244551330833048
 51
162.1287250163719875
  0
ARC
  5
3C11C
  8
0
 10
3119.5391200637000111
 20
253.5413464074514138
 30
0.0
 40
0.2960478481578903
 50
28.0872171922157392
 51
30.2805790892766602
  0
ARC
  5
3C11D
  8
0
 10
3119.6556793444410687
 20
253.6035498526316019
 30
0.0
 40
0.1639292101115726
 50
25.7815349400611886
 51
28.0872171922157392
  0
ARC
  5
3C11E
  8
0
 10
3119.7599324065090514
 20
253.6539063084514964
 30
0.0
 40
0.0481515197156614
 50
20.8077040975176111
 51
25.7815349400633913
  0
ARC
  5
3C11F
  8
0
 10
3119.7983054152018667
 20
253.6684887515885976
 30
0.0
 40
0.0071011184508354
 50
8.7357867734475381
 51
20.807704097490209
  0
ARC
  5
3C120
  8
0
 10
3119.8050024585550091
 20
253.6695178245371949
 30
0.0
 40
0.0003254722975166
 50
312.6520975265619882
 51
8.735786773939056
  0
ARC
  5
3C121
  8
0
 10
3119.8051417812821455
 20
253.6694481764928923
 30
0.0
 40
0.0001881538474914
 50
265.3603377238999883
 51
295.5665104960128247
  0
ARC
  5
3C122
  8
0
 10
3119.8052655096807939
 20
253.6698866273638941
 30
0.0
 40
0.0006412236066324
 50
226.7082926762795978
 51
257.4851939207489977
  0
ARC
  5
3C123
  8
0
 10
3119.8158592175018384
 20
253.6812324334553921
 30
0.0
 40
0.0161639093224561
 50
215.3064271656056121
 51
226.9532425671384033
  0
ARC
  5
3C124
  8
0
 10
3119.9669565669569238
 20
253.7887251608796078
 30
0.0
 40
0.2015960611527888
 50
209.4821056297998894
 51
215.4187755602443985
  0
ARC
  5
3C125
  8
0
 10
3121.1285399268381298
 20
254.4200774897956023
 30
0.0
 40
1.5236464283916309
 50
207.0312229677055882
 51
208.651881976761814
  0
ARC
  5
3C126
  8
0
 10
3119.8128258134329371
 20
253.747898507655691
 30
0.0
 40
0.0461797888915376
 50
199.8697385565295122
 51
206.0522403801668077
  0
ARC
  5
3C127
  8
0
 10
3119.7706200363568314
 20
253.7328506479775001
 30
0.0
 40
0.0013856122598902
 50
160.0438556847124971
 51
207.8761687637716022
  0
ARC
  5
3C128
  8
0
 10
3119.769422080593813
 20
253.7331145059368112
 30
0.0
 40
0.0002336965613697
 50
53.9725112301279282
 51
116.5496837185789047
  0
ARC
  5
3C129
  8
0
 10
3119.7593092277102187
 20
253.7216156249093046
 30
0.0
 40
0.0155459101473967
 50
33.9863533702132301
 51
48.749136391230401
  0
ARC
  5
3C12A
  8
0
 10
3118.7562056485840003
 20
253.1259727595046911
 30
0.0
 40
1.182142847318191
 50
28.5320753071935016
 51
30.7450086514824683
  0
LINE
  5
3C12B
  8
0
 10
3119.9287281299630195
 20
253.5645510584668898
 30
0.0
 11
3119.8850717330428779
 21
253.5411857286653969
 31
0.0
  0
LINE
  5
3C12C
  8
0
 10
3120.0125555958238692
 20
253.4378832089439868
 30
0.0
 11
3119.9665102730368744
 21
253.4145935459737018
 31
0.0
  0
ARC
  5
3C12D
  8
0
 10
3119.9604580113291377
 20
253.4278869567584991
 30
0.0
 40
0.0146063219902665
 50
272.4512737001173832
 51
294.4789593148502149
  0
ARC
  5
3C12E
  8
0
 10
3119.961672068012831
 20
253.4262950656053022
 30
0.0
 40
0.0130144163426928
 50
225.1914075649216898
 51
267.4045164053140979
  0
ARC
  5
3C12F
  8
0
 10
3120.0100701082419619
 20
253.4733954356912022
 30
0.0
 40
0.080546660450082
 50
211.8939344413003028
 51
224.3781984023895006
  0
ARC
  5
3C130
  8
0
 10
3122.5823190114979298
 20
255.27888663991979
 30
0.0
 40
3.2230785837769571
 50
214.4735230215412969
 51
214.9862420467619017
  0
ARC
  5
3C131
  8
0
 10
3121.3725142749299266
 20
254.4473932575826041
 30
0.0
 40
1.755084079765616
 50
212.1669907865193068
 51
214.4509028980453991
  0
ARC
  5
3C132
  8
0
 10
3119.9889993237147792
 20
253.5792258796267049
 30
0.0
 40
0.1217475255754643
 50
206.1977743513882899
 51
212.9501077343867905
  0
ARC
  5
3C133
  8
0
 10
3119.891369492243939
 20
253.5303226925367142
 30
0.0
 40
0.0125814620304107
 50
162.1458319651960096
 51
202.648436429102702
  0
ARC
  5
3C134
  8
0
 10
3119.8912860502050535
 20
253.5303456504659039
 30
0.0
 40
0.012495000326272
 50
119.8244551330833048
 51
162.1287250163719875
  0
ARC
  5
3C135
  8
0
 10
3119.6624774473971229
 20
253.3248848316846136
 30
0.0
 40
0.2960478481578903
 50
28.0872171922157392
 51
30.2805790892766602
  0
ARC
  5
3C136
  8
0
 10
3119.7790367281381805
 20
253.3870882768648869
 30
0.0
 40
0.1639292101115726
 50
25.7815349400611886
 51
28.0872171922157392
  0
ARC
  5
3C137
  8
0
 10
3119.8832897902070727
 20
253.4374447326848099
 30
0.0
 40
0.0481515197156614
 50
20.8077040975176111
 51
25.7815349400633913
  0
ARC
  5
3C138
  8
0
 10
3119.921662798899888
 20
253.4520271758217973
 30
0.0
 40
0.0071011184508354
 50
8.7357867734475381
 51
20.807704097490209
  0
ARC
  5
3C139
  8
0
 10
3119.9283598422521209
 20
253.4530562487705083
 30
0.0
 40
0.0003254722975166
 50
312.6520975265619882
 51
8.735786773939056
  0
ARC
  5
3C13A
  8
0
 10
3119.9284991649788026
 20
253.4529866007260921
 30
0.0
 40
0.0001881538474914
 50
265.3603377238999883
 51
295.5665104960128247
  0
ARC
  5
3C13B
  8
0
 10
3119.9286228933779057
 20
253.4534250515970939
 30
0.0
 40
0.0006412236066324
 50
226.7082926762795978
 51
257.4851939207489977
  0
ARC
  5
3C13C
  8
0
 10
3119.9392166011998597
 20
253.4647708576887055
 30
0.0
 40
0.0161639093224561
 50
215.3064271656056121
 51
226.9532425671384033
  0
ARC
  5
3C13D
  8
0
 10
3120.0903139506549451
 20
253.5722635851128075
 30
0.0
 40
0.2015960611527888
 50
209.4821056297998894
 51
215.4187755602443985
  0
ARC
  5
3C13E
  8
0
 10
3120.1168977142178846
 20
253.5914611853696101
 30
0.0
 40
0.2342137179315194
 50
206.2359880412901134
 51
210.3697694892942991
  0
ARC
  5
3C13F
  8
0
 10
3119.9483001321059419
 20
253.5082042035809877
 30
0.0
 40
0.0461797888915376
 50
199.8697385565295122
 51
206.0522403801668077
  0
ARC
  5
3C140
  8
0
 10
3119.9060943550312004
 20
253.4931563439027116
 30
0.0
 40
0.0013856122598902
 50
160.0438556847124971
 51
207.8761687637716022
  0
ARC
  5
3C141
  8
0
 10
3119.904896399268182
 20
253.4934202018619942
 30
0.0
 40
0.0002336965613697
 50
53.9725112301279282
 51
116.5496837185789047
  0
ARC
  5
3C142
  8
0
 10
3119.8947835463841329
 20
253.4819213208344877
 30
0.0
 40
0.0155459101473967
 50
33.9863533702132301
 51
48.749136391230401
  0
ARC
  5
3C143
  8
0
 10
3119.7311622728620932
 20
253.3668081321146985
 30
0.0
 40
0.2156004583445092
 50
29.8632765468572217
 51
35.0454116533738826
  0
ARC
  5
3C144
  8
0
 10
3118.8064906520380646
 20
254.3160174120133092
 30
0.0
 40
0.5754752159633983
 50
26.1304595962918711
 51
30.1210437872369887
  0
ARC
  5
3C145
  8
0
 10
3119.1529052125461021
 20
254.4652781466006104
 30
0.0
 40
0.1995944934806548
 50
22.2002889288836904
 51
31.4664126149057317
  0
ARC
  5
3C146
  8
0
 10
3119.3267814209530115
 20
254.5349995593610117
 30
0.0
 40
0.0123174160695262
 50
355.647174192755017
 51
27.5362419474790912
  0
ARC
  5
3C147
  8
0
 10
3119.3376691052121714
 20
254.5341708145406869
 30
0.0
 40
0.0013982363158355
 50
271.4637643447886717
 51
355.6471741930492954
  0
ARC
  5
3C148
  8
0
 10
3119.3427092300971708
 20
254.5433811938011104
 30
0.0
 40
0.011729328046824
 50
225.3205775391404018
 51
244.7443687558566126
  0
ARC
  5
3C149
  8
0
 10
3119.5248719809169415
 20
254.723174545109913
 30
0.0
 40
0.2676755994166819
 50
220.2419155420350023
 51
224.6554231186921982
  0
ARC
  5
3C14A
  8
0
 10
3118.7787540929712122
 20
254.2917191293541066
 30
0.0
 40
0.6117011841006881
 50
30.7859228168093111
 51
36.0454915634117015
  0
ARC
  5
3C14B
  8
0
 10
3119.214405117907063
 20
254.61118096752611
 30
0.0
 40
0.0715020705897464
 50
34.4812221985009799
 51
49.8182445234914226
  0
ARC
  5
3C14C
  8
0
 10
3119.2554616578750029
 20
254.6601188614542082
 30
0.0
 40
0.0076260146396362
 50
48.2539751586797792
 51
74.6367782325601752
  0
ARC
  5
3C14D
  8
0
 10
3119.2562045159788795
 20
254.6628225683749918
 30
0.0
 40
0.0048221121313219
 50
74.6367782325601752
 51
93.4880884989367757
  0
ARC
  5
3C14E
  8
0
 10
3119.2564689198211454
 20
254.6653969133350017
 30
0.0
 40
0.0023072718272709
 50
103.9899304771358999
 51
129.1311690286480882
  0
ARC
  5
3C14F
  8
0
 10
3119.2559845001551366
 20
254.6666174793583082
 30
0.0
 40
0.0011261306639196
 50
149.6393972962974885
 51
182.0798351809683879
  0
ARC
  5
3C150
  8
0
 10
3119.3922741623568982
 20
254.7026551670834067
 30
0.0
 40
0.1420723707693409
 50
194.7110758860318072
 51
203.7417997018773121
  0
LINE
  5
3C151
  8
0
 10
3119.273391995970087
 20
254.6515964773086012
 30
0.0
 11
3119.2275266382498558
 21
254.6263677802542134
 31
0.0
  0
LINE
  5
3C152
  8
0
 10
3119.3309400253438071
 20
254.5555080626890003
 30
0.0
 11
3119.2820855533118447
 21
254.5307975357696932
 31
0.0
  0
ARC
  5
3C153
  8
0
 10
3119.2760332916031984
 20
254.5440909465546042
 30
0.0
 40
0.0146063219902665
 50
272.4512737001173832
 51
294.4789593148502149
  0
ARC
  5
3C154
  8
0
 10
3119.2769183047039405
 20
254.5428346244131887
 30
0.0
 40
0.0133391744862587
 50
228.8053674076591051
 51
268.8818430410532869
  0
ARC
  5
3C155
  8
0
 10
3119.3257026993101135
 20
254.5891308513240006
 30
0.0
 40
0.080546660450082
 50
211.8939344413003028
 51
224.3781984023895006
  0
ARC
  5
3C156
  8
0
 10
3119.6643181018939686
 20
254.8159505880664994
 30
0.0
 40
0.4880718031401406
 50
210.0063388425481889
 51
213.4988119620875864
  0
ARC
  5
3C157
  8
0
 10
3119.6559827449859768
 20
254.8142065355476973
 30
0.0
 40
0.4799888006447148
 50
206.8627841883239
 51
210.3236447029545957
  0
ARC
  5
3C158
  8
0
 10
3119.3141703622231944
 20
254.6425388118489082
 30
0.0
 40
0.0975007498520388
 50
199.1264439622960936
 51
207.6305576778437114
  0
ARC
  5
3C159
  8
0
 10
3119.235421833313012
 20
254.6152890777736957
 30
0.0
 40
0.0141709434811737
 50
163.2961415005410117
 51
199.3560216891440007
  0
ARC
  5
3C15A
  8
0
 10
3119.2337409554111218
 20
254.6155277020546919
 30
0.0
 40
0.012495000326272
 50
119.8244551330833048
 51
162.1287250163719875
  0
ARC
  5
3C15B
  8
0
 10
3118.9902723496079489
 20
254.4248278801304934
 30
0.0
 40
0.2960478481578903
 50
28.0872171922157392
 51
30.2805790892766602
  0
ARC
  5
3C15C
  8
0
 10
3119.1068316303499159
 20
254.4870313253107099
 30
0.0
 40
0.1639292101115726
 50
25.7815349400611886
 51
28.0872171922157392
  0
ARC
  5
3C15D
  8
0
 10
3119.2110846924178986
 20
254.5373877811306897
 30
0.0
 40
0.0481515197156614
 50
20.8077040975176111
 51
25.7815349400633913
  0
ARC
  5
3C15E
  8
0
 10
3119.2494577011111687
 20
254.5519702242677056
 30
0.0
 40
0.0071011184508354
 50
8.7357867734475381
 51
20.807704097490209
  0
ARC
  5
3C15F
  8
0
 10
3119.2561547444629468
 20
254.5529992972163882
 30
0.0
 40
0.0003254722975166
 50
312.6520975265619882
 51
8.735786773939056
  0
ARC
  5
3C160
  8
0
 10
3119.2562940671900833
 20
254.5529296491720004
 30
0.0
 40
0.0001881538474914
 50
265.3603377238999883
 51
295.5665104960128247
  0
ARC
  5
3C161
  8
0
 10
3119.2564177955891864
 20
254.5533681000430022
 30
0.0
 40
0.0006412236066324
 50
226.7082926762795978
 51
257.4851939207489977
  0
ARC
  5
3C162
  8
0
 10
3119.2670115034097762
 20
254.5647139061346138
 30
0.0
 40
0.0161639093224561
 50
215.3064271656056121
 51
226.9532425671384033
  0
ARC
  5
3C163
  8
0
 10
3119.4181088528662258
 20
254.6722066335586874
 30
0.0
 40
0.2015960611527888
 50
209.4821056297998894
 51
215.4187755602443985
  0
ARC
  5
3C164
  8
0
 10
3119.4446926164291654
 20
254.69140423381549
 30
0.0
 40
0.2342137179315194
 50
206.2359880412901134
 51
210.3697694892942991
  0
ARC
  5
3C165
  8
0
 10
3119.2760950343172226
 20
254.6081472520268107
 30
0.0
 40
0.0461797888915376
 50
199.8697385565295122
 51
206.0522403801668077
  0
ARC
  5
3C166
  8
0
 10
3119.2338892572411169
 20
254.5930993923485914
 30
0.0
 40
0.0013856122598902
 50
160.0438556847124971
 51
207.8761687637716022
  0
ARC
  5
3C167
  8
0
 10
3119.232691301479008
 20
254.5933632503079025
 30
0.0
 40
0.0002336965613697
 50
53.9725112301279282
 51
116.5496837185789047
  0
ARC
  5
3C168
  8
0
 10
3119.2225784485949589
 20
254.581864369280396
 30
0.0
 40
0.0155459101473967
 50
33.9863533702132301
 51
48.749136391230401
  0
ARC
  5
3C169
  8
0
 10
3119.0589571750720097
 20
254.4667511805606068
 30
0.0
 40
0.2156004583445092
 50
29.8632765468572217
 51
35.0454116533738826
  0
ARC
  5
3C16A
  8
0
 10
3118.1632926497381959
 20
253.661138888702709
 30
0.0
 40
1.426066390531094
 50
28.0220222790122406
 51
29.5259710641938611
  0
ARC
  5
3C16B
  8
0
 10
3162.4304796006040306
 20
281.3717130327016775
 30
0.0
 40
50.8004388144722085
 50
212.0534314142734047
 51
212.1166465698096886
  0
LINE
  5
3C16C
  8
0
 10
3119.8168370207299631
 20
253.6494628249508025
 30
0.0
 11
3119.798553572075889
 21
253.6402139428749933
 31
0.0
  0
ARC
  5
3C16D
  8
0
 10
3119.7932223685597819
 20
253.6507528150258111
 30
0.0
 40
0.0118105697207404
 50
212.6294066190563115
 51
296.8330654736355996
  0
LINE
  5
3C16E
  8
0
 10
3119.7832757929581931
 20
253.6443845192638946
 30
0.0
 11
3119.7365362884461319
 21
253.7173864702770913
 31
0.0
  0
ARC
  5
3C16F
  8
0
 10
3119.7464778852668132
 20
253.7237515783733102
 30
0.0
 40
0.0118046579116614
 50
118.8241228294818939
 51
212.6294066190604042
  0
LINE
  5
3C170
  8
0
 10
3119.7407865931791093
 20
253.7340936837098013
 30
0.0
 11
3119.7607728898078676
 21
253.7450974002194926
 31
0.0
  0
LINE
  5
3C171
  8
0
 10
3119.7097830026341398
 20
253.880686939567596
 30
0.0
 11
3119.664385922008023
 21
253.8577581802194914
 31
0.0
  0
ARC
  5
3C172
  8
0
 10
3119.6589153572108444
 20
253.8687435587360994
 30
0.0
 40
0.0122721481555543
 50
213.5944930927344956
 51
296.4726622492515276
  0
ARC
  5
3C173
  8
0
 10
3120.409436279199781
 20
254.3941724203833132
 30
0.0
 40
0.9284328936067113
 50
209.4851234519983052
 51
214.9767958967142079
  0
ARC
  5
3C174
  8
0
 10
3119.6120080117489124
 20
253.9421740818258115
 30
0.0
 40
0.0118486716704183
 50
116.309906222400798
 51
204.6116758052648095
  0
LINE
  5
3C175
  8
0
 10
3119.6067563702267762
 20
253.952795347366191
 30
0.0
 11
3119.6505461108781674
 21
253.976148014022499
 31
0.0
  0
LINE
  5
3C176
  8
0
 10
3119.539477466560129
 20
254.0840857919218081
 30
0.0
 11
3119.5163289303718557
 21
254.0719730501735967
 31
0.0
  0
ARC
  5
3C177
  8
0
 10
3119.5111558801190768
 20
254.0848206295517002
 30
0.0
 40
0.0138499366354074
 50
227.4525184888373985
 51
291.932075132906391
  0
LINE
  5
3C178
  8
0
 10
3119.501790539618014
 20
254.0746171427886964
 30
0.0
 11
3119.4575453626857779
 21
254.1502347025522113
 31
0.0
  0
ARC
  5
3C179
  8
0
 10
3119.4677401505477974
 20
254.1561994549439021
 30
0.0
 40
0.0118113220729689
 50
118.3351971488453955
 51
210.3309516527505991
  0
LINE
  5
3C17A
  8
0
 10
3119.4621341545380346
 20
254.1665956147083136
 30
0.0
 11
3119.5250806829230896
 21
254.2000616831581965
 31
0.0
  0
LINE
  5
3C17B
  8
0
 10
3119.3168966189950879
 20
254.492195117067098
 30
0.0
 11
3119.276082874480835
 21
254.4713143144923038
 31
0.0
  0
ARC
  5
3C17C
  8
0
 10
3119.2709675092710313
 20
254.4828724939123958
 30
0.0
 40
0.0126395598315314
 50
204.2920834175830862
 51
293.872999892643179
  0
LINE
  5
3C17D
  8
0
 10
3119.2594470544609067
 20
254.4776727252917965
 30
0.0
 11
3119.1112331818080747
 21
254.7450805882608051
 31
0.0
  0
ARC
  5
3C17E
  8
0
 10
3119.1239499227449414
 20
254.7526590705423928
 30
0.0
 40
0.0148178885612017
 50
168.8041917800194085
 51
211.2793729964076022
  0
LINE
  5
3C17F
  8
0
 10
3119.2345235882748966
 20
254.6523070227202936
 30
0.0
 11
3119.1896603768041132
 21
254.628620880192301
 31
0.0
  0
ARC
  5
3C180
  8
0
 10
3119.1835075058761504
 20
254.6402748483000096
 30
0.0
 40
0.0131784973846382
 50
228.708708529438411
 51
297.8324229100580851
  0
LINE
  5
3C181
  8
0
 10
3119.230367391397067
 20
254.5923038101614964
 30
0.0
 11
3119.2135282919612109
 21
254.5834133786426037
 31
0.0
  0
ARC
  5
3C182
  8
0
 10
3119.2082385342450834
 20
254.593432549925808
 30
0.0
 40
0.0113298424477255
 50
209.734627746559795
 51
297.8324229100874732
  0
LINE
  5
3C183
  8
0
 10
3119.2730053641789709
 20
254.5302526994406094
 30
0.0
 11
3119.2493824049311115
 21
254.5179322411044893
 31
0.0
  0
ARC
  5
3C184
  8
0
 10
3119.2441251829700377
 20
254.5304594769444009
 30
0.0
 40
0.0135856549543153
 50
235.2082247213670883
 51
292.7660082338779262
  0
LINE
  5
3C185
  8
0
 10
3119.2445042032532001
 20
254.6357064590625896
 30
0.0
 11
3119.1950750094579234
 21
254.7179210801095053
 31
0.0
  0
ARC
  5
3C186
  8
0
 10
3118.6404264837201481
 20
254.4708485433000931
 30
0.0
 40
0.6117492322380553
 50
22.8294655806815889
 51
28.8481241216781186
  0
ARC
  5
3C187
  8
0
 10
3118.9068876674032254
 20
254.5883782598143057
 30
0.0
 40
0.3205993519425521
 50
20.8378046356483715
 51
21.9468122341687497
  0
ARC
  5
3C188
  8
0
 10
3119.2018540301528446
 20
254.7006482327961976
 30
0.0
 40
0.0049893045948908
 50
355.847570718693305
 51
20.8378046357025291
  0
ARC
  5
3C189
  8
0
 10
3119.2062273130500216
 20
254.7003307293213084
 30
0.0
 40
0.0006045113547757
 50
246.1828045528955897
 51
355.8475707189778063
  0
LINE
  5
3C18A
  8
0
 10
3119.1991603492870127
 20
254.7199541245566934
 30
0.0
 11
3119.1553236072181789
 21
254.6980459632771954
 31
0.0
  0
ARC
  5
3C18B
  8
0
 10
3119.1503427906050092
 20
254.7099306651059862
 30
0.0
 40
0.0128862202249832
 50
205.8923629622699991
 51
292.7383038165029916
  0
LINE
  5
3C18C
  8
0
 10
3119.1387501408030403
 20
254.7043034862176114
 30
0.0
 11
3119.1094140280429201
 21
254.7555361500699007
 31
0.0
  0
LINE
  5
3C18D
  8
0
 10
3119.1094140280429201
 20
254.7555361500699007
 30
0.0
 11
3119.0613110790209248
 21
254.8603058456230031
 31
0.0
  0
ARC
  5
3C18E
  8
0
 10
3119.0719097427058841
 20
254.8697210665619934
 30
0.0
 40
0.0141766729962654
 50
126.0032856565818946
 51
221.6159786855563993
  0
LINE
  5
3C18F
  8
0
 10
3119.063576245700915
 20
254.8811897580698087
 30
0.0
 11
3119.1016856539831679
 21
254.9011494277955876
 31
0.0
  0
ARC
  5
3C190
  8
0
 10
3124.124621079336066
 20
257.8104093177415166
 30
0.0
 40
5.8046251726109928
 50
210.0792012179894073
 51
211.1066768031161018
  0
LINE
  5
3C191
  8
0
 10
3119.1016849525290127
 20
254.9011506388802957
 30
0.0
 11
3119.0515372500781268
 21
254.9861320542856049
 31
0.0
  0
LINE
  5
3C192
  8
0
 10
3122.3883809292278784
 20
245.7632807798802901
 30
0.0
 11
3122.0011174062988175
 21
245.7724358443651056
 31
0.0
  0
ARC
  5
3C193
  8
0
 10
3122.0025341430209664
 20
245.8323644723801067
 30
0.0
 40
0.0599453717871924
 50
233.4758037281887937
 51
268.6457571128237873
  0
ARC
  5
3C194
  8
0
 10
3119.9643776502957735
 20
243.0803853663871905
 30
0.0
 40
3.3645941430465309
 50
53.4758037281888221
 51
83.0013529964598717
  0
ARC
  5
3C195
  8
0
 10
3120.3811107174178687
 20
246.4750665476867937
 30
0.0
 40
0.0555705857205513
 50
233.0877698411221957
 51
263.0013529964599002
  0
ARC
  5
3C196
  8
0
 10
3120.8088069968271157
 20
247.0648925788665053
 30
0.0
 40
0.7841364183625
 50
135.1507541673477988
 51
233.9848571698638864
  0
ARC
  5
3C197
  8
0
 10
3120.2914745741240949
 20
247.5806936091657064
 30
0.0
 40
0.0536069980774783
 50
106.1734957209475994
 51
136.0478414960693101
  0
ARC
  5
3C198
  8
0
 10
3121.9301557281801252
 20
241.9305617118288865
 30
0.0
 40
5.9365710793856783
 50
97.4897798009758532
 51
106.1734957209475994
  0
ARC
  5
3C199
  8
0
 10
3121.1445445010940603
 20
247.9061078297687004
 30
0.0
 40
0.0903963510679706
 50
277.4897798009757821
 51
291.9796959443567061
  0
LINE
  5
3C19A
  8
0
 10
3121.1783778666990656
 20
247.8222817976651129
 30
0.0
 11
3121.1783776429210775
 21
247.9090940783715098
 31
0.0
  0
ARC
  5
3C19B
  8
0
 10
3121.1980689590409384
 20
247.9090885523851
 30
0.0
 40
0.01969131689522
 50
97.603454049522
 51
179.9839210500867921
  0
ARC
  5
3C19C
  8
0
 10
3122.6612815528487772
 20
237.2326793106032028
 30
0.0
 40
10.7920603207843602
 50
91.4490023557361269
 51
92.0329507124987884
  0
ARC
  5
3C19D
  8
0
 10
3122.6867603629621044
 20
236.4597575201663062
 30
0.0
 40
11.5653996341822101
 50
92.999291538713095
 51
97.4086143164994667
  0
LINE
  5
3C19E
  8
0
 10
3122.2784414258458128
 20
248.0179470126402066
 30
0.0
 11
3122.2784673174987802
 21
248.0152577293650893
 31
0.0
  0
ARC
  5
3C19F
  8
0
 10
3120.0929265180488983
 20
296.6579100117821781
 30
0.0
 40
48.6917262956881132
 50
272.3407522762669259
 51
272.5726002901683955
  0
LINE
  5
3C1A0
  8
0
 10
3122.0816169237991744
 20
248.0068121811650883
 30
0.0
 11
3122.0816169237991744
 21
248.0093146595712881
 31
0.0
  0
LINE
  5
3C1A1
  8
0
 10
3120.2233492072991794
 20
247.5865333549604941
 30
0.0
 11
3120.2233492072991794
 21
247.6792687477430945
 31
0.0
  0
ARC
  5
3C1A2
  8
0
 10
3120.2627193609628193
 20
247.6792687142670104
 30
0.0
 40
0.0393701536637411
 50
131.87246948593139
 51
179.9999512819142069
  0
ARC
  5
3C1A3
  8
0
 10
3120.8129960143260178
 20
247.0648924296224891
 30
0.0
 40
0.8641504938156469
 50
124.490968663977398
 51
131.850794224990608
  0
ARC
  5
3C1A4
  8
0
 10
3120.4349049943948557
 20
247.6157430651780942
 30
0.0
 40
0.1960271284154239
 50
90.0264797417799372
 51
124.5801770982973977
  0
LINE
  5
3C1A5
  8
0
 10
3120.4348143987599542
 20
247.8117701726588109
 30
0.0
 11
3121.1219171298162109
 21
247.8118563438561068
 31
0.0
  0
ARC
  5
3C1A6
  8
0
 10
3120.8083654214988201
 20
247.1033536139431135
 30
0.0
 40
0.7009378941000168
 50
100.6778428667732044
 51
127.0449893193606954
  0
ARC
  5
3C1A7
  8
0
 10
3120.8055170930588247
 20
246.4271575595927004
 30
0.0
 40
1.3708946320022939
 50
83.2310308837516857
 51
95.3166107893823948
  0
ARC
  5
3C1A8
  8
0
 10
3120.8359969341418036
 20
246.9924616906426138
 30
0.0
 40
0.8220908397098153
 50
133.291834078232398
 51
168.8191359479095013
  0
ARC
  5
3C1A9
  8
0
 10
3120.3153897358461109
 20
247.5429986026759934
 30
0.0
 40
0.0643990296419605
 50
110.2439287589860015
 51
132.025325397674294
  0
ARC
  5
3C1AA
  8
0
 10
3121.9829425070688558
 20
235.8748468447672053
 30
0.0
 40
11.8496820176520608
 50
88.0392347032047553
 51
98.1986734886422283
  0
ARC
  5
3C1AB
  8
0
 10
3120.8139003883989062
 20
247.0538887297113035
 30
0.0
 40
0.7204724408979865
 50
245.1104735394447118
 51
270.7535714895740853
  0
ARC
  5
3C1AC
  8
0
 10
3119.0880476951588207
 20
254.9872084105680869
 30
0.0
 40
0.0064191045379461
 50
214.5050552541947866
 51
236.2183795775559929
  0
ARC
  5
3C1AD
  8
0
 10
3119.083650949146886
 20
254.983456198567211
 30
0.0
 40
0.0017863521069307
 50
297.597385340576011
 51
0.5357313327988307
  0
ARC
  5
3C1AE
  8
0
 10
3119.2290671336018022
 20
255.1738403018291024
 30
0.0
 40
0.2203606033291146
 50
195.670360416593013
 51
200.4351987954752019
  0
ARC
  5
3C1AF
  8
0
 10
3118.9909726658211184
 20
255.0810895952498925
 30
0.0
 40
0.042993649211068
 50
26.8802665357270385
 51
51.1243504601676904
  0
LINE
  5
3C1B0
  8
0
 10
3119.0168969809969894
 20
255.1143203737088925
 30
0.0
 11
3119.0179568666521845
 21
255.1145605793705045
 31
0.0
  0
ARC
  5
3C1B1
  8
0
 10
3118.7629858293271354
 20
254.9012657966684117
 30
0.0
 40
0.2701595570533845
 50
22.0183942004057087
 51
32.0501736098700292
  0
ARC
  5
3C1B2
  8
0
 10
3119.2487561155921867
 20
255.1491443631107074
 30
0.0
 40
0.2772421792949818
 50
202.1468494460227987
 51
211.921718364272607
  0
ARC
  5
3C1B3
  8
0
 10
3118.4393368788309999
 20
254.4392005589172072
 30
0.0
 40
0.7467226196467838
 50
25.5165117837964814
 51
29.7465798420430794
  0
ARC
  5
3C1B4
  8
0
 10
3119.7738756504718367
 20
255.1378584492331072
 30
0.0
 40
0.7606460961649609
 50
205.5580465828691956
 51
209.7106524610325096
  0
ARC
  5
3C1B5
  8
0
 10
3119.0929464858568281
 20
254.8255402334141877
 30
0.0
 40
0.0117862327311461
 50
111.8600310027081974
 51
181.8657831652687094
  0
ARC
  5
3C1B6
  8
0
 10
3119.1295951567572047
 20
254.7548564565468894
 30
0.0
 40
0.0111494041898182
 50
230.0057465734807067
 51
304.8259039250020237
  0
LINE
  5
3C1B7
  8
0
 10
3119.1444602550031959
 20
254.6984654810003974
 30
0.0
 11
3119.0770227817802152
 21
254.8260852760296871
 31
0.0
  0
LINE
  5
3C1B8
  8
0
 10
3119.0885579947521364
 20
254.8364789914705
 30
0.0
 11
3119.1279721386617894
 21
254.8562304541358117
 31
0.0
  0
LINE
  5
3C1B9
  8
0
 10
3119.1359624115521001
 20
254.7457040098705079
 30
0.0
 11
3119.1765300606530218
 21
254.7661478985704946
 31
0.0
  0
ARC
  5
3C1BA
  8
0
 10
3119.1483933397371402
 20
254.8577415747791974
 30
0.0
 40
0.0128485466922876
 50
118.8856333962122989
 51
191.8520404505989916
  0
ARC
  5
3C1BB
  8
0
 10
3119.3243655045598643
 20
254.9115735139828871
 30
0.0
 40
0.1968218740049552
 50
196.6732573904409946
 51
211.8769711932750965
  0
ARC
  5
3C1BC
  8
0
 10
3119.3020103413928155
 20
254.8767007657691863
 30
0.0
 40
0.1604135203869556
 50
205.5033658436651933
 51
220.2593125557517055
  0
ARC
  5
3C1BD
  8
0
 10
3119.1883973234730547
 20
254.7824167954736083
 30
0.0
 40
0.0129127344975493
 50
226.8480033541837031
 51
295.1420987408467909
  0
LINE
  5
3C1BE
  8
0
 10
3119.1421866841519659
 20
254.86899157827051
 30
0.0
 11
3119.188187116590143
 21
254.8929736575364018
 31
0.0
  0
ARC
  5
3C1BF
  8
0
 10
3119.0572512267021921
 20
254.8117385835228106
 30
0.0
 40
0.1540887552656932
 50
24.8274745173063991
 51
31.8162380156949389
  0
ARC
  5
3C1C0
  8
0
 10
3119.0387010191097943
 20
254.7481468037377965
 30
0.0
 40
0.2038345590318783
 50
17.8504123855167087
 51
39.0052273274465975
  0
ARC
  5
3C1C1
  8
0
 10
3119.1932335650972163
 20
254.7790289696164052
 30
0.0
 40
0.0505763056102088
 50
355.4674527023220776
 51
38.6669695685335597
  0
ARC
  5
3C1C2
  8
0
 10
3119.3719579410908409
 20
254.899059627551992
 30
0.0
 40
0.1784525293577245
 50
217.93215947897869
 51
224.0285400146429993
  0
LINE
  5
3C1C3
  8
0
 10
3119.1938851620520836
 20
254.770729048470514
 30
0.0
 11
3119.2414002808550322
 21
254.7944539552680112
 31
0.0
  0
ARC
  5
3C1C4
  8
0
 10
3119.6883688430998518
 20
254.0340430149007034
 30
0.0
 40
0.0026164660729783
 50
144.1228644331042972
 51
201.4077388327474125
  0
ARC
  5
3C1C5
  8
0
 10
3119.7832671550399937
 20
253.8770975206008131
 30
0.0
 40
0.00161649737536
 50
298.3972409990306005
 51
7.1503212945635184
  0
ARC
  5
3C1C6
  8
0
 10
3119.5572518594940448
 20
253.9111777297165133
 30
0.0
 40
0.1835370200796997
 50
28.2544020802560887
 51
38.2082684633399481
  0
ARC
  5
3C1C7
  8
0
 10
3119.3421340484419488
 20
254.3810681737523112
 30
0.0
 40
0.0120027400633277
 50
118.0769276440129971
 51
196.1386878357058094
  0
ARC
  5
3C1C8
  8
0
 10
3119.3845064449110396
 20
254.3051198472705039
 30
0.0
 40
0.011950408753322
 50
215.8491865875942892
 51
296.3423852559188845
  0
ARC
  5
3C1C9
  8
0
 10
3120.2156476250370361
 20
254.8169699782214082
 30
0.0
 40
0.9880444271718364
 50
206.394744155003707
 51
211.6660523076359084
  0
ARC
  5
3C1CA
  8
0
 10
3118.8815569829830565
 20
254.0745625783308128
 30
0.0
 40
0.5401690555621325
 50
26.693330935945621
 51
31.7060517928489283
  0
ARC
  5
3C1CB
  8
0
 10
3119.8256507528599286
 20
254.6021920780048049
 30
0.0
 40
0.5423917478344461
 50
206.7036083825259993
 51
211.6957743462637893
  0
LINE
  5
3C1CC
  8
0
 10
3119.3364958713259512
 20
254.3916615878437142
 30
0.0
 11
3119.3743873908779278
 21
254.4114180163172136
 31
0.0
  0
LINE
  5
3C1CD
  8
0
 10
3119.389809880951816
 20
254.2944067245705071
 30
0.0
 11
3119.431915371391824
 21
254.3154312145244091
 31
0.0
  0
ARC
  5
3C1CE
  8
0
 10
3119.1298302062168659
 20
254.1401211175395076
 30
0.0
 40
0.349209749252418
 50
30.1286371637285484
 51
33.1578310275901771
  0
ARC
  5
3C1CF
  8
0
 10
3118.9876778475959327
 20
254.2203084783467943
 30
0.0
 40
0.427663631196876
 50
26.2876105179855593
 51
28.6825641632767088
  0
ARC
  5
3C1D0
  8
0
 10
3119.3385648714429408
 20
254.3940129353815109
 30
0.0
 40
0.0398269976401908
 50
25.9137177791204785
 51
52.4023237765444705
  0
ARC
  5
3C1D1
  8
0
 10
3119.223154133710068
 20
254.1659348314659042
 30
0.0
 40
0.253129510114974
 50
31.3448081316304794
 51
35.7384761891002185
  0
ARC
  5
3C1D2
  8
0
 10
3119.3900290007491094
 20
254.2875237296441924
 30
0.0
 40
0.050331856294756
 50
11.5595583841882696
 51
34.6008389769223896
  0
ARC
  5
3C1D3
  8
0
 10
3119.8738493529758671
 20
253.5096887851543954
 30
0.0
 40
0.0775986417186696
 50
22.89018884079033
 51
53.7745428723766778
  0
ARC
  5
3C1D4
  8
0
 10
3119.5023529061159024
 20
253.2026509117768001
 30
0.0
 40
0.5567343947018824
 50
27.5748115091032915
 51
37.280004840973973
  0
ARC
  5
3C1D5
  8
0
 10
3120.4195900603749578
 20
253.7578551236285875
 30
0.0
 40
0.5177442240325347
 50
215.0718790919642913
 51
218.1710728822297938
  0
ARC
  5
3C1D6
  8
0
 10
3119.8992284870969343
 20
253.3593752885545882
 30
0.0
 40
0.137864161899594
 50
26.4122095424413601
 51
34.7124747233826767
  0
ARC
  5
3C1D7
  8
0
 10
3120.3152605707159637
 20
253.668805445783704
 30
0.0
 40
0.3835969809202817
 50
217.2592274369087875
 51
220.2996509734564938
  0
ARC
  5
3C1D8
  8
0
 10
3120.139231640449907
 20
253.7214709791639109
 30
0.0
 40
0.2654142092122977
 50
214.2117684160452882
 51
216.6103278029243882
  0
ARC
  5
3C1D9
  8
0
 10
3120.1198460651708046
 20
253.2932162719548899
 30
0.0
 40
0.0167238883685825
 50
217.5179635217099019
 51
259.4455992223598741
  0
ARC
  5
3C1DA
  8
0
 10
3125.6843175558960866
 20
257.1816817883278077
 30
0.0
 40
6.8050738987033812
 50
213.4189900743693897
 51
214.95235607880781
  0
ARC
  5
3C1DB
  8
0
 10
3121.5845825092451378
 20
254.7813553688156958
 30
0.0
 40
2.067388697225427
 50
212.9514558866808898
 51
216.2598138427327115
  0
ARC
  5
3C1DC
  8
0
 10
3070.3278438445831853
 20
222.7937226676853015
 30
0.0
 40
58.3447350689744013
 50
32.0671345370054723
 51
32.1919887479274394
  0
ARC
  5
3C1DD
  8
0
 10
3119.576042812500873
 20
254.0801034253406101
 30
0.0
 40
0.0099149049172422
 50
181.2355830089121014
 51
213.0912993950730083
  0
LINE
  5
3C1DE
  8
0
 10
3119.5661302129519754
 20
254.0798896270704859
 30
0.0
 11
3119.5578564336510681
 21
254.0919361456942056
 31
0.0
  0
LINE
  5
3C1DF
  8
0
 10
3119.5677360889521879
 20
254.0746901376705011
 30
0.0
 11
3119.6372796755931631
 21
253.9690731458840105
 31
0.0
  0
ARC
  5
3C1E0
  8
0
 10
3119.4967941357749623
 20
254.2062637762693953
 30
0.0
 40
0.0099020065670322
 50
210.9880817278576046
 51
242.4502474272451877
  0
LINE
  5
3C1E1
  8
0
 10
3119.4922142728519248
 20
254.1974845627705122
 30
0.0
 11
3119.4986874900519069
 21
254.1860295129673943
 31
0.0
  0
LINE
  5
3C1E2
  8
0
 10
3119.4883053988701249
 20
254.2011656315274877
 30
0.0
 11
3119.4229178152941131
 21
254.3109384743654005
 31
0.0
  0
LINE
  5
3C1E3
  8
0
 10
3119.2912249785681524
 20
254.5354202448980914
 30
0.0
 11
3119.2953210278019469
 21
254.5273220637704981
 31
0.0
  0
LINE
  5
3C1E4
  8
0
 10
3119.2953210278019469
 20
254.5273220637704981
 30
0.0
 11
3119.316910721547174
 21
254.4921655772515976
 31
0.0
  0
LINE
  5
3C1E5
  8
0
 10
3119.316910721547174
 20
254.4921655772515976
 30
0.0
 11
3119.3254374872922199
 21
254.4743050452368038
 31
0.0
  0
LINE
  5
3C1E6
  8
0
 10
3119.3254374872922199
 20
254.4743050452368038
 30
0.0
 11
3119.3656086065811905
 21
254.4068408067967084
 31
0.0
  0
LINE
  5
3C1E7
  8
0
 10
3119.0811665017431551
 20
254.8251564936564932
 30
0.0
 11
3119.1224293145519368
 21
254.746314798670511
 31
0.0
  0
ARC
  5
3C1E8
  8
0
 10
3119.2862705529751111
 20
255.7408816616108993
 30
0.0
 40
0.4760028772711133
 50
201.7392246204630055
 51
206.2003496322911076
  0
ARC
  5
3C1E9
  8
0
 10
3118.9870628716121246
 20
255.6215751232992943
 30
0.0
 40
0.1538859937173968
 50
191.6459485776802865
 51
201.7392246204937862
  0
ARC
  5
3C1EA
  8
0
 10
3118.8517942265948477
 20
255.5936953894149894
 30
0.0
 40
0.0157741336685405
 50
164.0948243139833096
 51
191.6459485776802865
  0
ARC
  5
3C1EB
  8
0
 10
3118.8508377188791201
 20
255.5939679512231919
 30
0.0
 40
0.0147795498609997
 50
120.2821360670870945
 51
164.0948243139833096
  0
LINE
  5
3C1EC
  8
0
 10
3118.8433850066248851
 20
255.6067308730729906
 30
0.0
 11
3118.8940772656487752
 21
255.6327588996637132
 31
0.0
  0
ARC
  5
3C1ED
  8
0
 10
3118.693066432876094
 20
255.4513902282810989
 30
0.0
 40
0.2655356843020727
 50
25.8160657805236085
 51
36.0659232509111973
  0
ARC
  5
3C1EE
  8
0
 10
3118.6236807925229186
 20
255.4693383905303108
 30
0.0
 40
0.3159438486253768
 50
25.975023109300249
 51
31.1476605297237796
  0
ARC
  5
3C1EF
  8
0
 10
3118.8489257407659352
 20
255.6063985296590886
 30
0.0
 40
0.0522831646512264
 50
30.2772437453031884
 51
47.2428102491718818
  0
ARC
  5
3C1F0
  8
0
 10
3118.8795681921601499
 20
255.6393302848877909
 30
0.0
 40
0.0073018735138627
 50
48.3547384242605105
 51
76.611008239529923
  0
ARC
  5
3C1F1
  8
0
 10
3118.8810645658991234
 20
255.644462938804196
 30
0.0
 40
0.0019803277503879
 50
84.3648440738673457
 51
138.6259516374441887
  0
ARC
  5
3C1F2
  8
0
 10
3118.9217568857461629
 20
255.6393566706034903
 30
0.0
 40
0.0426634566966164
 50
171.3517591791120935
 51
198.0428097094014106
  0
ARC
  5
3C1F3
  8
0
 10
3118.7425003959538117
 20
255.4746824027870105
 30
0.0
 40
0.1399908709702603
 50
25.7161816801276899
 51
33.2203841366569819
  0
ARC
  5
3C1F4
  8
0
 10
3118.8408767718819945
 20
255.5391078027730885
 30
0.0
 40
0.0223960432619965
 50
33.2210152082299217
 51
43.3426295956379235
  0
ARC
  5
3C1F5
  8
0
 10
3118.8531012848220598
 20
255.5506447853641987
 30
0.0
 40
0.0055870967181137
 50
43.3426295956527312
 51
56.0337983907672026
  0
ARC
  5
3C1F6
  8
0
 10
3118.8558219416609063
 20
255.5546834619366905
 30
0.0
 40
0.0007175092511611
 50
56.033798390609121
 51
110.3363357285344932
  0
ARC
  5
3C1F7
  8
0
 10
3118.8559288935812219
 20
255.5548815290983953
 30
0.0
 40
0.0005935600035988
 50
126.8906750730322983
 51
171.1063258192972114
  0
ARC
  5
3C1F8
  8
0
 10
3118.864693218937191
 20
255.5545178568625033
 30
0.0
 40
0.0093618336440673
 50
177.2115565123746137
 51
197.9983515586293947
  0
ARC
  5
3C1F9
  8
0
 10
3118.9732575114339852
 20
255.588759666169409
 30
0.0
 40
0.1231978308978852
 50
197.5430231133875054
 51
206.98366184263989
  0
ARC
  5
3C1FA
  8
0
 10
3119.2843041267210538
 20
255.7448315871679085
 30
0.0
 40
0.4760028772711133
 50
206.7314585311027031
 51
211.1925835429017866
  0
ARC
  5
3C1FB
  8
0
 10
3119.0087552599397895
 20
255.5780020073993057
 30
0.0
 40
0.1538859937173968
 50
211.1925835429011045
 51
221.2858595856986881
  0
ARC
  5
3C1FC
  8
0
 10
3118.9049742797051294
 20
255.486873559438493
 30
0.0
 40
0.0157741336685405
 50
221.2858595856993134
 51
248.8369838494064084
  0
ARC
  5
3C1FD
  8
0
 10
3118.9046152123842148
 20
255.485946053314791
 30
0.0
 40
0.0147795498609997
 50
248.8369838494072042
 51
292.6496720962811082
  0
LINE
  5
3C1FE
  8
0
 10
3118.9103067512301095
 20
255.4723063509848089
 30
0.0
 11
3118.9616305249860488
 21
255.4970658651286897
 31
0.0
  0
ARC
  5
3C1FF
  8
0
 10
3118.695750757112819
 20
255.4459982737704991
 30
0.0
 40
0.2655356843020727
 50
16.8658849124557086
 51
27.1157423828561406
  0
ARC
  5
3C200
  8
0
 10
3118.6682486878980853
 20
255.3798156491299096
 30
0.0
 40
0.3159438486253768
 50
21.7841476336443591
 51
26.9567850540959988
  0
ARC
  5
3C201
  8
0
 10
3118.9133813294379252
 20
255.4769277312784084
 30
0.0
 40
0.0522831646512264
 50
5.6889979142251743
 51
22.6545644180671708
  0
ARC
  5
3C202
  8
0
 10
3118.9581283927332152
 20
255.4815278026057115
 30
0.0
 40
0.0073018735138627
 50
336.3207999238563275
 51
4.5770697391211392
  0
ARC
  5
3C203
  8
0
 10
3118.9631257950600229
 20
255.4796280024625048
 30
0.0
 40
0.0019803277503879
 50
274.3058565259195234
 51
328.5669640895156931
  0
ARC
  5
3C204
  8
0
 10
3118.9835793189349715
 20
255.5151750449626888
 30
0.0
 40
0.0426634566966164
 50
214.8889984541133913
 51
241.5800489842688137
  0
ARC
  5
3C205
  8
0
 10
3118.7441330863398434
 20
255.4714028461980035
 30
0.0
 40
0.1399908711282217
 50
19.7114240288495317
 51
27.2156264981766682
  0
ARC
  5
3C206
  8
0
 10
3118.8548371637698438
 20
255.5110658110596944
 30
0.0
 40
0.0223960432619965
 50
9.5891785677649306
 51
19.7107929551731083
  0
ARC
  5
3C207
  8
0
 10
3118.871411247595006
 20
255.513865887717202
 30
0.0
 40
0.0055870967181137
 50
356.8980097726110898
 51
9.5891785677296042
  0
ARC
  5
3C208
  8
0
 10
3118.8762737000988636
 20
255.5136023773052045
 30
0.0
 40
0.0007175092511611
 50
302.5954724348600848
 51
356.8980097727655902
  0
ARC
  5
3C209
  8
0
 10
3118.8764962084728722
 20
255.513568328264796
 30
0.0
 40
0.0005935600035988
 50
241.8254823440744872
 51
286.0411330903784801
  0
ARC
  5
3C20A
  8
0
 10
3118.8814888571428128
 20
255.5207807561291133
 30
0.0
 40
0.0093618336440673
 50
214.933456604756401
 51
235.7202516510108126
  0
ARC
  5
3C20B
  8
0
 10
3118.974249804214196
 20
255.5867664652519977
 30
0.0
 40
0.1231978308978852
 50
205.9481463207227137
 51
215.3887850500204877
  0
ARC
  5
3C20C
  8
0
 10
3118.4590193098761119
 20
255.0513292321442975
 30
0.0
 40
0.5110278861040093
 50
25.8089270419811996
 51
31.4618721263441898
  0
ARC
  5
3C20D
  8
0
 10
3118.7987303929658083
 20
255.2160002390434954
 30
0.0
 40
0.1399908709702603
 50
25.7161816801276899
 51
33.2203841366569819
  0
ARC
  5
3C20E
  8
0
 10
3118.8971067688949006
 20
255.2804256390296018
 30
0.0
 40
0.0223960432619965
 50
33.2210152082299217
 51
43.3426295956379235
  0
ARC
  5
3C20F
  8
0
 10
3118.9093312818340564
 20
255.2919626216205984
 30
0.0
 40
0.0055870967181137
 50
43.3426295956527312
 51
56.0337983907672026
  0
ARC
  5
3C210
  8
0
 10
3118.9120519386738124
 20
255.296001298192806
 30
0.0
 40
0.0007175092511611
 50
56.033798390609121
 51
110.3363357285344932
  0
ARC
  5
3C211
  8
0
 10
3118.9121588905932185
 20
255.296199365354795
 30
0.0
 40
0.0005935600035988
 50
126.8906750730322983
 51
171.1063258192972114
  0
ARC
  5
3C212
  8
0
 10
3118.9209232159491876
 20
255.2958356931185051
 30
0.0
 40
0.0093618336440673
 50
177.2115565123746137
 51
197.9983515586293947
  0
ARC
  5
3C213
  8
0
 10
3119.0294875084468913
 20
255.3300775024258087
 30
0.0
 40
0.1231978308978852
 50
197.5430231133875054
 51
206.98366184263989
  0
ARC
  5
3C214
  8
0
 10
3118.80036308335184
 20
255.2127206824544885
 30
0.0
 40
0.1399908711282217
 50
19.7114240288495317
 51
27.2156264981766682
  0
ARC
  5
3C215
  8
0
 10
3118.9110671607818404
 20
255.2523836473158099
 30
0.0
 40
0.0223960432619965
 50
9.5891785677649306
 51
19.7107929551731083
  0
ARC
  5
3C216
  8
0
 10
3118.9276412446070026
 20
255.2551837239736017
 30
0.0
 40
0.0055870967181137
 50
356.8980097726110898
 51
9.5891785677296042
  0
ARC
  5
3C217
  8
0
 10
3118.9325036971122245
 20
255.2549202135612063
 30
0.0
 40
0.0007175092511611
 50
302.5954724348600848
 51
356.8980097727655902
  0
ARC
  5
3C218
  8
0
 10
3118.9327262054857783
 20
255.2548861645209115
 30
0.0
 40
0.0005935600035988
 50
241.8254823440744872
 51
286.0411330903784801
  0
ARC
  5
3C219
  8
0
 10
3118.9377188541548094
 20
255.2620985923852004
 30
0.0
 40
0.0093618336440673
 50
214.933456604756401
 51
235.7202516510108126
  0
ARC
  5
3C21A
  8
0
 10
3119.0304798012271021
 20
255.3280843015081132
 30
0.0
 40
0.1231978308978852
 50
205.9481463207227137
 51
215.3887850500204877
  0
ARC
  5
3C21B
  8
0
 10
3118.2431723994968706
 20
255.5398326350509137
 30
0.0
 40
0.5754752159633983
 50
23.8889704370517286
 51
27.8795546279933006
  0
ARC
  5
3C21C
  8
0
 10
3118.5675105860368603
 20
255.7324113342181988
 30
0.0
 40
0.1995944934806548
 50
22.5436016093832485
 51
31.8097252953987386
  0
ARC
  5
3C21D
  8
0
 10
3118.7261008389218659
 20
255.8321266436630026
 30
0.0
 40
0.0123174160695262
 50
26.4737722768107702
 51
58.3628400315448701
  0
ARC
  5
3C21E
  8
0
 10
3118.7318283657600659
 20
255.8414230904469093
 30
0.0
 40
0.0013982363158355
 50
58.3628400312418876
 51
142.546249879506604
  0
ARC
  5
3C21F
  8
0
 10
3118.7422424635637981
 20
255.8400887322036965
 30
0.0
 40
0.011729328046824
 50
169.2656454684326093
 51
188.6894366851458926
  0
ARC
  5
3C220
  8
0
 10
3118.994763627708835
 20
255.8818257495848911
 30
0.0
 40
0.2676755994166819
 50
189.3545911056002922
 51
193.7681930375470927
  0
ARC
  5
3C221
  8
0
 10
3118.2072129617931751
 20
255.5316691744451987
 30
0.0
 40
0.6117011841006881
 50
17.9645226608768489
 51
23.2240914074820886
  0
ARC
  5
3C222
  8
0
 10
3118.721703475733193
 20
255.6964332258658033
 30
0.0
 40
0.0715020705897464
 50
4.1917697007995827
 51
19.5287920257837193
  0
ARC
  5
3C223
  8
0
 10
3118.7854267134621296
 20
255.7008948297919915
 30
0.0
 40
0.0076260146396362
 50
339.3732359917310077
 51
5.7560390656076699
  0
ARC
  5
3C224
  8
0
 10
3118.7880508720290891
 20
255.6999070742068056
 30
0.0
 40
0.0048221121313219
 50
320.5219257253482965
 51
339.3732359917310077
  0
ARC
  5
3C225
  8
0
 10
3118.7902892005799913
 20
255.698608210604192
 30
0.0
 40
0.0023072718272709
 50
284.8788451956447716
 51
310.0200837471489876
  0
ARC
  5
3C226
  8
0
 10
3118.7909921183809274
 20
255.697498998994007
 30
0.0
 40
0.0011261306639196
 50
231.9301790433216013
 51
264.3706169280022777
  0
ARC
  5
3C227
  8
0
 10
3118.9002407028028756
 20
255.7865963264592892
 30
0.0
 40
0.1420723707693409
 50
210.2680846911326
 51
219.2989383382486892
  0
LINE
  5
3C228
  8
0
 10
3118.7890677371979109
 20
255.7204107464218907
 30
0.0
 11
3118.7417022059639748
 21
255.6981256696919047
 31
0.0
  0
LINE
  5
3C229
  8
0
 10
3118.7451387401602005
 20
255.8234399049565013
 30
0.0
 11
3118.6964356473881708
 21
255.7984316292269114
 31
0.0
  0
ARC
  5
3C22A
  8
0
 10
3118.703635033818955
 20
255.7857228339615006
 30
0.0
 40
0.0146063219902665
 50
119.5310549094385948
 51
141.558740524164989
  0
ARC
  5
3C22B
  8
0
 10
3118.7031385913051054
 20
255.7871771854815961
 30
0.0
 40
0.0133391744862587
 50
145.1281711832330075
 51
185.2046468166296052
  0
ARC
  5
3C22C
  8
0
 10
3118.7692656303611329
 20
255.7994439083120994
 30
0.0
 40
0.080546660450082
 50
189.6318158218986127
 51
202.1160797829830074
  0
ARC
  5
3C22D
  8
0
 10
3119.1517752075551471
 20
255.9401350849996106
 30
0.0
 40
0.4880718031401406
 50
200.5112022622058134
 51
204.0036753817454098
  0
ARC
  5
3C22E
  8
0
 10
3119.1454658391148769
 20
255.9344156651104072
 30
0.0
 40
0.4799888006447148
 50
203.6863695213345125
 51
207.1472300359693008
  0
ARC
  5
3C22F
  8
0
 10
3118.805702157325868
 20
255.7587280078699052
 30
0.0
 40
0.0975007498520388
 50
206.3794565464484947
 51
214.8835702619930998
  0
ARC
  5
3C230
  8
0
 10
3118.7373777721250008
 20
255.71102415897181
 30
0.0
 40
0.0141709434811737
 50
214.6539925351486886
 51
250.7138727237519049
  0
ARC
  5
3C231
  8
0
 10
3118.7365830901858317
 20
255.7095239014321066
 30
0.0
 40
0.012495000326272
 50
251.8812892079023982
 51
294.1855590911977174
  0
ARC
  5
3C232
  8
0
 10
3118.4392112774548877
 20
255.6245922283877121
 30
0.0
 40
0.2960478481578903
 50
23.7294351350054598
 51
25.9227970320763106
  0
ARC
  5
3C233
  8
0
 10
3118.5580366549411337
 20
255.6823491689634977
 30
0.0
 40
0.1639292101115726
 50
25.9227970320748504
 51
28.2284792842243704
  0
ARC
  5
3C234
  8
0
 10
3118.6600447261362206
 20
255.7371107157318022
 30
0.0
 40
0.0481515197156614
 50
28.2284792842200716
 51
33.2023101267642531
  0
ARC
  5
3C235
  8
0
 10
3118.6943933306538383
 20
255.7595897907046947
 30
0.0
 40
0.0071011184508354
 50
33.2023101268003202
 51
45.2742274508451104
  0
ARC
  5
3C236
  8
0
 10
3118.6991614501539516
 20
255.7644037721370864
 30
0.0
 40
0.0003254722975166
 50
45.2742274503429911
 51
101.3579166977203982
  0
ARC
  5
3C237
  8
0
 10
3118.6991869686899008
 20
255.7645574291464925
 30
0.0
 40
0.0001881538474914
 50
118.4435037282854069
 51
148.6496765003946905
  0
ARC
  5
3C238
  8
0
 10
3118.6996144361660299
 20
255.7643998872790974
 30
0.0
 40
0.0006412236066324
 50
156.5248203035442884
 51
187.3017215480097946
  0
ARC
  5
3C239
  8
0
 10
3118.7150198787348927
 20
255.7663041720543902
 30
0.0
 40
0.0161639093224561
 50
187.0567716571497101
 51
198.7035870586809949
  0
ARC
  5
3C23A
  8
0
 10
3118.8907857908070582
 20
255.8253925771369097
 30
0.0
 40
0.2015960611527888
 50
198.5912386640505929
 51
204.5279085944870019
  0
ARC
  5
3C23B
  8
0
 10
3118.9219407326359033
 20
255.8356206727777078
 30
0.0
 40
0.2342137179315194
 50
203.6402447349888973
 51
207.7740261829904966
  0
ARC
  5
3C23C
  8
0
 10
3118.7555005362250995
 20
255.7481304977332002
 30
0.0
 40
0.0461797888915376
 50
207.957773844118492
 51
214.1402756677609034
  0
ARC
  5
3C23D
  8
0
 10
3118.718523051268221
 20
255.7228237534611992
 30
0.0
 40
0.0013856122598902
 50
206.1338454605150901
 51
253.9661585395832049
  0
ARC
  5
3C23E
  8
0
 10
3118.7180325726180854
 20
255.7216994093296023
 30
0.0
 40
0.0002336965613697
 50
297.4603305056978115
 51
0.0375029941598787
  0
ARC
  5
3C23F
  8
0
 10
3118.702785845543076
 20
255.7202741473078902
 30
0.0
 40
0.0155459101473967
 50
5.260877833059058
 51
20.0236608540727303
  0
ARC
  5
3C240
  8
0
 10
3118.5134944611331775
 20
255.6555305054993994
 30
0.0
 40
0.2156004583445092
 50
18.9646025709087915
 51
24.1467376774331086
  0
ARC
  5
3C241
  8
0
 10
3118.1075815314611646
 20
255.7576961339472064
 30
0.0
 40
0.5754752159633983
 50
23.8889704370517286
 51
27.8795546279933006
  0
ARC
  5
3C242
  8
0
 10
3118.4319197180020637
 20
255.9502748331144915
 30
0.0
 40
0.1995944934806548
 50
22.5436016093832485
 51
31.8097252953987386
  0
ARC
  5
3C243
  8
0
 10
3118.5905099708861599
 20
256.0499901425592952
 30
0.0
 40
0.0123174160695262
 50
26.4737722768107702
 51
58.3628400315448701
  0
ARC
  5
3C244
  8
0
 10
3118.5962374977248146
 20
256.0592865893431735
 30
0.0
 40
0.0013982363158355
 50
58.3628400312418876
 51
142.546249879506604
  0
ARC
  5
3C245
  8
0
 10
3118.606651595528092
 20
256.0579522310999891
 30
0.0
 40
0.011729328046824
 50
169.2656454684326093
 51
188.6894366851458926
  0
ARC
  5
3C246
  8
0
 10
3118.8591727596731289
 20
256.0996892484815817
 30
0.0
 40
0.2676755994166819
 50
189.3545911056002922
 51
193.7681930375850072
  0
ARC
  5
3C247
  8
0
 10
3118.0716220937561047
 20
255.749532673341605
 30
0.0
 40
0.6117011841006881
 50
17.9645226608768489
 51
23.2240914074820886
  0
ARC
  5
3C248
  8
0
 10
3118.5861126076979417
 20
255.9142967247622096
 30
0.0
 40
0.0715020705897464
 50
4.1917697007995827
 51
19.5287920257837193
  0
ARC
  5
3C249
  8
0
 10
3118.6498358454268782
 20
255.9187583286883125
 30
0.0
 40
0.0076260146396362
 50
339.3732359917310077
 51
5.7560390656076699
  0
ARC
  5
3C24A
  8
0
 10
3118.6524600039929283
 20
255.9177705731030983
 30
0.0
 40
0.0048221121313219
 50
320.5219257253482965
 51
339.3732359917310077
  0
ARC
  5
3C24B
  8
0
 10
3118.6546983325451947
 20
255.9164717095005983
 30
0.0
 40
0.0023072718272709
 50
284.8788451956447716
 51
310.0200837471489876
  0
ARC
  5
3C24C
  8
0
 10
3118.6554012503452213
 20
255.9153624978902997
 30
0.0
 40
0.0011261306639196
 50
231.9301790433216013
 51
264.3706169280022777
  0
ARC
  5
3C24D
  8
0
 10
3118.7646498347671695
 20
256.004459825355525
 30
0.0
 40
0.1420723707693409
 50
210.2680846910542982
 51
219.2989383382486892
  0
LINE
  5
3C24E
  8
0
 10
3118.6534768691622048
 20
255.9382742453186097
 30
0.0
 11
3118.6061113379291783
 21
255.9159891685881973
 31
0.0
  0
LINE
  5
3C24F
  8
0
 10
3118.6095475835340949
 20
256.0413032556656958
 30
0.0
 11
3118.5608447793529194
 21
256.0162951281236019
 31
0.0
  0
ARC
  5
3C250
  8
0
 10
3118.5680441657841584
 20
256.0035863328582195
 30
0.0
 40
0.0146063219902665
 50
119.5310549094385948
 51
141.558740524164989
  0
ARC
  5
3C251
  8
0
 10
3118.567547723269854
 20
256.0050406843777751
 30
0.0
 40
0.0133391744862587
 50
145.1281711832330075
 51
185.2046468166296052
  0
ARC
  5
3C252
  8
0
 10
3118.6336747623249721
 20
256.0173074072084773
 30
0.0
 40
0.080546660450082
 50
189.6318158218986127
 51
202.1160797829830074
  0
ARC
  5
3C253
  8
0
 10
3119.0161843395180767
 20
256.1579985838959033
 30
0.0
 40
0.4880718031401406
 50
200.5112022622058134
 51
204.0036753817454098
  0
ARC
  5
3C254
  8
0
 10
3119.0098749710800803
 20
256.152279164006984
 30
0.0
 40
0.4799888006447148
 50
203.6863695213345125
 51
207.1472300359693008
  0
ARC
  5
3C255
  8
0
 10
3118.6701112892901619
 20
255.9765915067665105
 30
0.0
 40
0.0975007498520388
 50
206.3794565464484947
 51
214.8835702619930998
  0
ARC
  5
3C256
  8
0
 10
3118.6017869040888399
 20
255.9288876578681027
 30
0.0
 40
0.0141709434811737
 50
214.6539925351486886
 51
250.7138727237519049
  0
ARC
  5
3C257
  8
0
 10
3118.6009922221501256
 20
255.9273874003287972
 30
0.0
 40
0.012495000326272
 50
251.8812892079023982
 51
294.1855590911977174
  0
ARC
  5
3C258
  8
0
 10
3118.3036204094191817
 20
255.8424557272844027
 30
0.0
 40
0.2960478481578903
 50
23.7294351350054598
 51
25.9227970320763106
  0
ARC
  5
3C259
  8
0
 10
3118.4224457869040634
 20
255.9002126678597904
 30
0.0
 40
0.1639292101115726
 50
25.9227970320748504
 51
28.2284792842243704
  0
ARC
  5
3C25A
  8
0
 10
3118.5244538580991502
 20
255.9549742146280948
 30
0.0
 40
0.0481515197156614
 50
28.2284792842200716
 51
33.2023101267642531
  0
ARC
  5
3C25B
  8
0
 10
3118.5588024626181323
 20
255.9774532896009873
 30
0.0
 40
0.0071011184508354
 50
33.2023101268003202
 51
45.2742274508451104
  0
ARC
  5
3C25C
  8
0
 10
3118.5635705821177908
 20
255.9822672710334928
 30
0.0
 40
0.0003254722975166
 50
45.2742274503429911
 51
101.3579166977203982
  0
ARC
  5
3C25D
  8
0
 10
3118.5635961006551042
 20
255.9824209280428136
 30
0.0
 40
0.0001881538474914
 50
118.4435037282854069
 51
148.6496765003946905
  0
ARC
  5
3C25E
  8
0
 10
3118.5640235681307786
 20
255.98226338617539
 30
0.0
 40
0.0006412236066324
 50
156.5248203035442884
 51
187.3017215480097946
  0
ARC
  5
3C25F
  8
0
 10
3118.5794290107000961
 20
255.9841676709511091
 30
0.0
 40
0.0161639093224561
 50
187.0567716571497101
 51
198.7035870586809949
  0
ARC
  5
3C260
  8
0
 10
3118.7551949227708974
 20
256.0432560760335718
 30
0.0
 40
0.2015960611527888
 50
198.5912386640505929
 51
204.5279085944870019
  0
ARC
  5
3C261
  8
0
 10
3118.7863498646001972
 20
256.0534841716744268
 30
0.0
 40
0.2342137179315194
 50
203.6402447349888973
 51
207.7740261829904966
  0
ARC
  5
3C262
  8
0
 10
3118.6199096681898482
 20
255.9659939966298907
 30
0.0
 40
0.0461797888915376
 50
207.957773844118492
 51
214.1402756677609034
  0
ARC
  5
3C263
  8
0
 10
3118.5829321832329697
 20
255.9406872523574918
 30
0.0
 40
0.0013856122598902
 50
206.1338454605150901
 51
253.9661585395832049
  0
ARC
  5
3C264
  8
0
 10
3118.5824417045819246
 20
255.9395629082258949
 30
0.0
 40
0.0002336965613697
 50
297.4603305056978115
 51
0.0375029941598787
  0
ARC
  5
3C265
  8
0
 10
3118.5671949775069152
 20
255.9381376462042113
 30
0.0
 40
0.0155459101473967
 50
5.260877833059058
 51
20.0236608540727303
  0
ARC
  5
3C266
  8
0
 10
3118.3779035930979262
 20
255.8733940043960899
 30
0.0
 40
0.2156004583445092
 50
18.9646025709087915
 51
24.1467376774331086
  0
ARC
  5
3C267
  8
0
 10
3117.7783352537890096
 20
255.9143594241909909
 30
0.0
 40
0.8653517575981272
 50
23.311043045013129
 51
25.7782208904554402
  0
ARC
  5
3C268
  8
0
 10
3118.2164137593481428
 20
256.1333999970801187
 30
0.0
 40
0.3756709437902321
 50
24.752175139332099
 51
29.5275623310862088
  0
ARC
  5
3C269
  8
0
 10
3118.4918940733100499
 20
256.2935315945640014
 30
0.0
 40
0.057162048013625
 50
25.9517225414493993
 51
43.3039067576155219
  0
ARC
  5
3C26A
  8
0
 10
3118.9220870781960002
 20
256.4471110140081009
 30
0.0
 40
0.4067313969324628
 50
196.2912554238787095
 51
198.9089738510573966
  0
ARC
  5
3C26B
  8
0
 10
3117.8400582792710338
 20
255.934753118206288
 30
0.0
 40
0.8006171949558361
 50
19.9772858192051785
 51
23.7186945131205995
  0
ARC
  5
3C26C
  8
0
 10
3118.5685789309459324
 20
256.1665097442484011
 30
0.0
 40
0.0371996609358259
 50
355.1248456780701872
 51
19.024998037241339
  0
ARC
  5
3C26D
  8
0
 10
3118.6016039129358433
 20
256.1634410489443212
 30
0.0
 40
0.0040411632486422
 50
299.6515429002628821
 51
358.6854000073848283
  0
ARC
  5
3C26E
  8
0
 10
3118.6587674237748615
 20
256.2085486837656276
 30
0.0
 40
0.0744213081321145
 50
208.2129623540847092
 51
219.575008478249714
  0
LINE
  5
3C26F
  8
0
 10
3118.6037466140019205
 20
256.1786361139510859
 30
0.0
 11
3118.5550663424378399
 21
256.1548141129620717
 31
0.0
  0
LINE
  5
3C270
  8
0
 10
3118.5432920775469938
 20
256.3185464880003792
 30
0.0
 11
3118.4982673144131695
 21
256.2941567348318017
 31
0.0
  0
ARC
  5
3C271
  8
0
 10
3118.5031044670467963
 20
256.2819146088151001
 30
0.0
 40
0.0131631187420527
 50
111.560144529826502
 51
164.9806717911276053
  0
ARC
  5
3C272
  8
0
 10
3118.5103809718480079
 20
256.2808407512890767
 30
0.0
 40
0.0204869100251319
 50
167.3543411798534919
 51
204.1657848370658996
  0
ARC
  5
3C273
  8
0
 10
3118.6132493884420001
 20
256.291884578325778
 30
0.0
 40
0.1231031059419114
 50
189.0816048994136054
 51
199.0392527023888078
  0
ARC
  5
3C274
  8
0
 10
3121.7110867763649367
 20
257.4551114847147915
 30
0.0
 40
3.4320922220400192
 50
200.525685893199892
 51
201.0277312312792048
  0
ARC
  5
3C275
  8
0
 10
3119.1725964956931421
 20
256.4862849509336797
 30
0.0
 40
0.7150438682522664
 50
201.552675011139911
 51
203.9162757336455059
  0
ARC
  5
3C276
  8
0
 10
3119.2003939722321775
 20
256.5065703926563856
 30
0.0
 40
0.7487137060789412
 50
204.4729760346343994
 51
206.231315572224986
  0
ARC
  5
3C277
  8
0
 10
3118.6161747373571416
 20
256.2210418951090105
 30
0.0
 40
0.0984790221718947
 50
207.4524939770128071
 51
221.4171651460306123
  0
ARC
  5
3C278
  8
0
 10
3118.5496522297671618
 20
256.1666425464036934
 30
0.0
 40
0.0130086299701945
 50
235.7134286930956932
 51
294.5945256930555161
  0
ARC
  5
3C279
  8
0
 10
3118.243406855161993
 20
256.1056615583390226
 30
0.0
 40
0.2960478481578903
 50
23.7294351350054598
 51
25.9227970320763106
  0
ARC
  5
3C27A
  8
0
 10
3118.3622322326477843
 20
256.1634184989147798
 30
0.0
 40
0.1639292101115726
 50
25.9227970320748504
 51
28.2284792842243704
  0
ARC
  5
3C27B
  8
0
 10
3118.4642403038419616
 20
256.2181800456830842
 30
0.0
 40
0.0481515197156614
 50
28.2284792842200716
 51
33.2023101267642531
  0
ARC
  5
3C27C
  8
0
 10
3118.4985889083609436
 20
256.2406591206557209
 30
0.0
 40
0.0071011184508354
 50
33.2023101268003202
 51
45.2742274508451104
  0
ARC
  5
3C27D
  8
0
 10
3118.5033570278610568
 20
256.245473102087999
 30
0.0
 40
0.0003254722975166
 50
45.2742274503429911
 51
101.3579166977203982
  0
ARC
  5
3C27E
  8
0
 10
3118.5033825463979156
 20
256.2456267590977745
 30
0.0
 40
0.0001881538474914
 50
118.4435037282854069
 51
148.6496765003946905
  0
ARC
  5
3C27F
  8
0
 10
3118.5038100138740447
 20
256.2454692172303794
 30
0.0
 40
0.0006412236066324
 50
156.5248203035442884
 51
187.3017215480097946
  0
ARC
  5
3C280
  8
0
 10
3118.5192154564429075
 20
256.2473735020057006
 30
0.0
 40
0.0161639093224561
 50
187.0567716571497101
 51
198.7035870586809949
  0
ARC
  5
3C281
  8
0
 10
3118.6949813685141635
 20
256.3064619070881918
 30
0.0
 40
0.2015960611527888
 50
198.5912386640505929
 51
204.5279085944870019
  0
ARC
  5
3C282
  8
0
 10
3119.0133140526118041
 20
256.452753040599589
 30
0.0
 40
0.5519337154265748
 50
204.6253029099486014
 51
207.3180567714595099
  0
ARC
  5
3C283
  8
0
 10
3118.5637263448470549
 20
256.2211043743374148
 30
0.0
 40
0.0461797888915376
 50
207.957773844118492
 51
214.1402756677609034
  0
ARC
  5
3C284
  8
0
 10
3118.5266718177058465
 20
256.1959946957907732
 30
0.0
 40
0.0013856122598902
 50
206.1338454605150901
 51
253.9661585395832049
  0
ARC
  5
3C285
  8
0
 10
3118.5261813390548014
 20
256.1948703516595742
 30
0.0
 40
0.0002336965613697
 50
297.4603305056978115
 51
0.0375029941598787
  0
ARC
  5
3C286
  8
0
 10
3118.510934611979792
 20
256.1934450896374074
 30
0.0
 40
0.0155459101473967
 50
5.260877833059058
 51
20.0236608540727303
  0
ARC
  5
3C287
  8
0
 10
3118.0960576989277797
 20
256.0307495691283179
 30
0.0
 40
0.461178887418722
 50
21.33970299470284
 51
24.8827682766744083
  0
ARC
  5
3C288
  8
0
 10
3117.9212137830609208
 20
256.2465559402979807
 30
0.0
 40
0.5754752159633983
 50
23.8889704370517286
 51
27.8795546279933006
  0
ARC
  5
3C289
  8
0
 10
3118.24555196960182
 20
256.4391346394652942
 30
0.0
 40
0.1995944934806548
 50
22.5436016093832485
 51
31.8097252953987386
  0
ARC
  5
3C28A
  8
0
 10
3118.4041422224859161
 20
256.5388499489096716
 30
0.0
 40
0.0123174160695262
 50
26.4737722768107702
 51
58.3628400315448701
  0
ARC
  5
3C28B
  8
0
 10
3118.4098697493250256
 20
256.5481463956936068
 30
0.0
 40
0.0013982363158355
 50
58.3628400312418876
 51
142.546249879506604
  0
ARC
  5
3C28C
  8
0
 10
3118.4202838471278483
 20
256.5468120374508203
 30
0.0
 40
0.011729328046824
 50
169.2656454684326093
 51
188.6894366851458926
  0
ARC
  5
3C28D
  8
0
 10
3118.6728050112728852
 20
256.5885490548320149
 30
0.0
 40
0.2676755994166819
 50
189.3545911056002922
 51
193.7680986822477962
  0
ARC
  5
3C28E
  8
0
 10
3117.2505760533549619
 20
255.9402981840638063
 30
0.0
 40
1.3127116629978619
 50
20.6670121649239285
 51
24.2571801108829384
  0
ARC
  5
3C28F
  8
0
 10
3118.4114224755981013
 20
256.3796999103967096
 30
0.0
 40
0.0715020705897464
 50
4.1917697007995827
 51
19.5287920257837193
  0
ARC
  5
3C290
  8
0
 10
3118.4751457133261283
 20
256.3841615143227841
 30
0.0
 40
0.0076260146396362
 50
339.3732359917310077
 51
5.7560390656076699
  0
ARC
  5
3C291
  8
0
 10
3118.4777698718921783
 20
256.3831737587375983
 30
0.0
 40
0.0048221121313219
 50
320.5219257253482965
 51
339.3732359917310077
  0
ARC
  5
3C292
  8
0
 10
3118.4800082004448996
 20
256.3818748951351267
 30
0.0
 40
0.0023072718272709
 50
284.8788451956447716
 51
310.0200837471489876
  0
ARC
  5
3C293
  8
0
 10
3118.4807111182449262
 20
256.3807656835248281
 30
0.0
 40
0.0011261306639196
 50
231.9301790433216013
 51
264.3706169280022777
  0
ARC
  5
3C294
  8
0
 10
3118.5899597026668744
 20
256.4698630109900819
 30
0.0
 40
0.1420723707693409
 50
210.2682145224167982
 51
219.2989383382486892
  0
LINE
  5
3C295
  8
0
 10
3118.4787867370619097
 20
256.4036774309531097
 30
0.0
 11
3118.4314212058279736
 21
256.3813923542227258
 31
0.0
  0
LINE
  5
3C296
  8
0
 10
3118.4231801237260697
 20
256.5301632102036251
 30
0.0
 11
3118.3744770309531305
 21
256.5051549344739783
 31
0.0
  0
ARC
  5
3C297
  8
0
 10
3118.3816764173839147
 20
256.4924461392084822
 30
0.0
 40
0.0146063219902665
 50
119.5310549094385948
 51
141.558740524164989
  0
ARC
  5
3C298
  8
0
 10
3118.3811799748700651
 20
256.493900490728322
 30
0.0
 40
0.0133391744862587
 50
145.1281711832330075
 51
185.2046468166296052
  0
ARC
  5
3C299
  8
0
 10
3118.4473070139251831
 20
256.5061672135587969
 30
0.0
 40
0.080546660450082
 50
189.6318158218986127
 51
202.1160797829830074
  0
ARC
  5
3C29A
  8
0
 10
3118.8298165911191973
 20
256.6468583902466776
 30
0.0
 40
0.4880718031401406
 50
200.5112022622058134
 51
204.0036753817454098
  0
ARC
  5
3C29B
  8
0
 10
3119.9603478773537972
 20
257.1835953797439061
 30
0.0
 40
1.7394421837757781
 50
205.0058968524076022
 51
206.8238500471223063
  0
ARC
  5
3C29C
  8
0
 10
3118.4954211571898668
 20
256.4419946924011242
 30
0.0
 40
0.0975007498520388
 50
206.3794565464484947
 51
214.8835702619930998
  0
ARC
  5
3C29D
  8
0
 10
3118.42709677198809
 20
256.3942908435025743
 30
0.0
 40
0.0141709434811737
 50
214.6539925351486886
 51
250.7138727237519049
  0
ARC
  5
3C29E
  8
0
 10
3118.4263020900498304
 20
256.3927905859633256
 30
0.0
 40
0.012495000326272
 50
251.8812892079023982
 51
294.1855590911977174
  0
ARC
  5
3C29F
  8
0
 10
3118.1172526610189379
 20
256.3313155336347791
 30
0.0
 40
0.2960478481578903
 50
23.7294351350054598
 51
25.9227970320763106
  0
ARC
  5
3C2A0
  8
0
 10
3118.2360780385051839
 20
256.3890724742105931
 30
0.0
 40
0.1639292101115726
 50
25.9227970320748504
 51
28.2284792842243704
  0
ARC
  5
3C2A1
  8
0
 10
3118.338086109699816
 20
256.4438340209788976
 30
0.0
 40
0.0481515197156614
 50
28.2284792842200716
 51
33.2023101267642531
  0
ARC
  5
3C2A2
  8
0
 10
3118.3724347142178885
 20
256.4663130959514774
 30
0.0
 40
0.0071011184508354
 50
33.2023101268003202
 51
45.2742274508451104
  0
ARC
  5
3C2A3
  8
0
 10
3118.3772028337180018
 20
256.4711270773838123
 30
0.0
 40
0.0003254722975166
 50
45.2742274503429911
 51
101.3579166977203982
  0
ARC
  5
3C2A4
  8
0
 10
3118.3772283522548605
 20
256.4712807343937016
 30
0.0
 40
0.0001881538474914
 50
118.4435037282854069
 51
148.6496765003946905
  0
ARC
  5
3C2A5
  8
0
 10
3118.3776558197309896
 20
256.4711231925261927
 30
0.0
 40
0.0006412236066324
 50
156.5248203035442884
 51
187.3017215480097946
  0
ARC
  5
3C2A6
  8
0
 10
3118.3930612623012166
 20
256.473027477301514
 30
0.0
 40
0.0161639093224561
 50
187.0567716571497101
 51
198.7035870586809949
  0
ARC
  5
3C2A7
  8
0
 10
3118.5688271743720179
 20
256.5321158823840051
 30
0.0
 40
0.2015960611527888
 50
198.5912386640505929
 51
204.5279085944870019
  0
ARC
  5
3C2A8
  8
0
 10
3119.7622641001557895
 20
257.1009655719826128
 30
0.0
 40
1.5236464283916309
 50
205.3581322475214961
 51
206.9787912565776082
  0
ARC
  5
3C2A9
  8
0
 10
3118.4452195360890983
 20
256.4313971822643907
 30
0.0
 40
0.0461797888915376
 50
207.957773844118492
 51
214.1402756677609034
  0
ARC
  5
3C2AA
  8
0
 10
3118.4082420511322198
 20
256.4060904379920771
 30
0.0
 40
0.0013856122598902
 50
206.1338454605150901
 51
253.9661585395832049
  0
ARC
  5
3C2AB
  8
0
 10
3118.4077515724820842
 20
256.4049660938604802
 30
0.0
 40
0.0002336965613697
 50
297.4603305056978115
 51
0.0375029941598787
  0
ARC
  5
3C2AC
  8
0
 10
3118.3925048454061653
 20
256.4035408318387113
 30
0.0
 40
0.0155459101473967
 50
5.260877833059058
 51
20.0236608540727303
  0
ARC
  5
3C2AD
  8
0
 10
3117.3210908178912177
 20
255.9419358110613132
 30
0.0
 40
1.182142847318191
 50
23.2650055728107006
 51
25.4779389171020583
  0
LINE
  5
3C2AE
  8
0
 10
3118.3649787827298496
 20
256.632919031207507
 30
0.0
 11
3118.3204190208912223
 21
256.611326271920575
 31
0.0
  0
LINE
  5
3C2AF
  8
0
 10
3118.3117500224548166
 20
256.7751810683608937
 30
0.0
 11
3118.2658476465649073
 21
256.7516109169077936
 31
0.0
  0
ARC
  5
3C2B0
  8
0
 10
3118.2730470329961463
 20
256.7389021216422975
 30
0.0
 40
0.0146063219902665
 50
119.5310549094385948
 51
141.558740524164989
  0
ARC
  5
3C2B1
  8
0
 10
3118.2724724354138743
 20
256.7408199038757743
 30
0.0
 40
0.0130144163426928
 50
146.6054978189810072
 51
188.818606659375007
  0
ARC
  5
3C2B2
  8
0
 10
3118.339023083795837
 20
256.7523014699784198
 30
0.0
 40
0.080546660450082
 50
189.6318158218986127
 51
202.1160797829830074
  0
ARC
  5
3C2B3
  8
0
 10
3121.3114478429079099
 20
257.7725729829907095
 30
0.0
 40
3.2230785837769571
 50
199.0237721775206978
 51
199.536491202748806
  0
ARC
  5
3C2B4
  8
0
 10
3119.9017500870959338
 20
257.2727931685486737
 30
0.0
 40
1.727409062174833
 50
199.5499633119920873
 51
201.8721691124742108
  0
ARC
  5
3C2B5
  8
0
 10
3118.4092581840382081
 20
256.6715844014196932
 30
0.0
 40
0.1183938136293321
 50
200.9412085659240859
 51
207.8599001042585996
  0
ARC
  5
3C2B6
  8
0
 10
3118.3153303636008786
 20
256.6228055093458806
 30
0.0
 40
0.0125814620304107
 50
211.3615777951847861
 51
251.8641822590867037
  0
ARC
  5
3C2B7
  8
0
 10
3118.3152999051139886
 20
256.6227245036611748
 30
0.0
 40
0.012495000326272
 50
251.8812892079023982
 51
294.1855590911977174
  0
ARC
  5
3C2B8
  8
0
 10
3118.0145995392890654
 20
256.5583287369844925
 30
0.0
 40
0.2960478481578903
 50
23.7294351350054598
 51
25.9227970320763106
  0
ARC
  5
3C2B9
  8
0
 10
3118.1334249167739472
 20
256.6160856775599086
 30
0.0
 40
0.1639292101115726
 50
25.9227970320748504
 51
28.2284792842243704
  0
ARC
  5
3C2BA
  8
0
 10
3118.235432987969034
 20
256.6708472243282131
 30
0.0
 40
0.0481515197156614
 50
28.2284792842200716
 51
33.2023101267642531
  0
ARC
  5
3C2BB
  8
0
 10
3118.269781592488016
 20
256.6933262993010771
 30
0.0
 40
0.0071011184508354
 50
33.2023101268003202
 51
45.2742274508451104
  0
ARC
  5
3C2BC
  8
0
 10
3118.2745497119881293
 20
256.6981402807335257
 30
0.0
 40
0.0003254722975166
 50
45.2742274503429911
 51
101.3579166977203982
  0
ARC
  5
3C2BD
  8
0
 10
3118.2745752305240785
 20
256.6982939377429034
 30
0.0
 40
0.0001881538474914
 50
118.4435037282854069
 51
148.6496765003946905
  0
ARC
  5
3C2BE
  8
0
 10
3118.2750026980011171
 20
256.6981363958755082
 30
0.0
 40
0.0006412236066324
 50
156.5248203035442884
 51
187.3017215480097946
  0
ARC
  5
3C2BF
  8
0
 10
3118.2904081405699799
 20
256.7000406806512274
 30
0.0
 40
0.0161639093224561
 50
187.0567716571497101
 51
198.7035870586809949
  0
ARC
  5
3C2C0
  8
0
 10
3118.4661740526407812
 20
256.7591290857337185
 30
0.0
 40
0.2015960611527888
 50
198.5912386640505929
 51
204.5279085944870019
  0
ARC
  5
3C2C1
  8
0
 10
3118.4973289944700809
 20
256.7693571813745166
 30
0.0
 40
0.2342137179315194
 50
203.6402447349888973
 51
207.7740261829904966
  0
ARC
  5
3C2C2
  8
0
 10
3118.3308887980588224
 20
256.6818670063299805
 30
0.0
 40
0.0461797888915376
 50
207.957773844118492
 51
214.1402756677609034
  0
ARC
  5
3C2C3
  8
0
 10
3118.2939113131028535
 20
256.6565602620577238
 30
0.0
 40
0.0013856122598902
 50
206.1338454605150901
 51
253.9661585395832049
  0
ARC
  5
3C2C4
  8
0
 10
3118.2934208344518083
 20
256.6554359179261269
 30
0.0
 40
0.0002336965613697
 50
297.4603305056978115
 51
0.0375029941598787
  0
ARC
  5
3C2C5
  8
0
 10
3118.2781741073767989
 20
256.6540106559043011
 30
0.0
 40
0.0155459101473967
 50
5.260877833059058
 51
20.0236608540727303
  0
ARC
  5
3C2C6
  8
0
 10
3118.0888827229669005
 20
256.5892670140962082
 30
0.0
 40
0.2156004583445092
 50
18.9646025709087915
 51
24.1467376774331086
  0
ARC
  5
3C2C7
  8
0
 10
3118.3135290815857843
 20
255.2832999865792942
 30
0.0
 40
0.5754752159633983
 50
23.8889704370517286
 51
27.8795546279933006
  0
ARC
  5
3C2C8
  8
0
 10
3118.6378672681271382
 20
255.4758786857466077
 30
0.0
 40
0.1995944934806548
 50
22.5436016093832485
 51
31.8097252953987386
  0
ARC
  5
3C2C9
  8
0
 10
3118.7964575210098701
 20
255.5755939951910136
 30
0.0
 40
0.0123174160695262
 50
26.4737722768107702
 51
58.3628400315448701
  0
ARC
  5
3C2CA
  8
0
 10
3118.8021850478498891
 20
255.5848904419748919
 30
0.0
 40
0.0013982363158355
 50
58.3628400312418876
 51
142.546249879506604
  0
ARC
  5
3C2CB
  8
0
 10
3118.8125991456531665
 20
255.5835560837317075
 30
0.0
 40
0.011729328046824
 50
169.2656454684326093
 51
188.6894366851458926
  0
ARC
  5
3C2CC
  8
0
 10
3119.0651203097982034
 20
255.6252931011133001
 30
0.0
 40
0.2676755994166819
 50
189.3545911056002922
 51
193.7681930375819093
  0
ARC
  5
3C2CD
  8
0
 10
3118.2775696438820887
 20
255.2751365259736076
 30
0.0
 40
0.6117011841006881
 50
17.9645226608768489
 51
23.2240914074820886
  0
ARC
  5
3C2CE
  8
0
 10
3118.7920601578230162
 20
255.4399005773942122
 30
0.0
 40
0.0715020705897464
 50
4.1917697007995827
 51
19.5287920257837193
  0
ARC
  5
3C2CF
  8
0
 10
3118.8557833955519527
 20
255.4443621813204004
 30
0.0
 40
0.0076260146396362
 50
339.3732359917310077
 51
5.7560390656076699
  0
ARC
  5
3C2D0
  8
0
 10
3118.8584075541180027
 20
255.4433744257351862
 30
0.0
 40
0.0048221121313219
 50
320.5219257253482965
 51
339.3732359917310077
  0
ARC
  5
3C2D1
  8
0
 10
3118.8606458826698145
 20
255.4420755621326009
 30
0.0
 40
0.0023072718272709
 50
284.8788451956447716
 51
310.0200837471489876
  0
ARC
  5
3C2D2
  8
0
 10
3118.8613488004698411
 20
255.4409663505223875
 30
0.0
 40
0.0011261306639196
 50
231.9301790433216013
 51
264.3706169280022777
  0
ARC
  5
3C2D3
  8
0
 10
3118.9705973848917893
 20
255.5300636779876129
 30
0.0
 40
0.1420723707693409
 50
210.2680846911326
 51
219.2989383382486892
  0
LINE
  5
3C2D4
  8
0
 10
3118.8594244192868246
 20
255.4638780979502997
 30
0.0
 11
3118.812058888053798
 21
255.4415930212203136
 31
0.0
  0
LINE
  5
3C2D5
  8
0
 10
3118.8154951336578051
 20
255.5669071082974995
 30
0.0
 11
3118.7667923294770844
 21
255.5418989807554055
 31
0.0
  0
ARC
  5
3C2D6
  8
0
 10
3118.7739917159078686
 20
255.5291901854899095
 30
0.0
 40
0.0146063219902665
 50
119.5310549094385948
 51
141.558740524164989
  0
ARC
  5
3C2D7
  8
0
 10
3118.773495273394019
 20
255.5306445370096071
 30
0.0
 40
0.0133391744862587
 50
145.1281711832330075
 51
185.2046468166296052
  0
ARC
  5
3C2D8
  8
0
 10
3118.8396223124491371
 20
255.5429112598401957
 30
0.0
 40
0.080546660450082
 50
189.6318158218986127
 51
202.1160797829830074
  0
ARC
  5
3C2D9
  8
0
 10
3119.2221318896440607
 20
255.6836024365279911
 30
0.0
 40
0.4880718031401406
 50
200.5112022622058134
 51
204.0036753817454098
  0
ARC
  5
3C2DA
  8
0
 10
3119.2158225212037905
 20
255.6778830166387877
 30
0.0
 40
0.4799888006447148
 50
203.6863695213345125
 51
207.1472300359693008
  0
ARC
  5
3C2DB
  8
0
 10
3118.8760588394147817
 20
255.5021953593982005
 30
0.0
 40
0.0975007498520388
 50
206.3794565464484947
 51
214.8835702619930998
  0
ARC
  5
3C2DC
  8
0
 10
3118.8077344542139144
 20
255.4544915105001905
 30
0.0
 40
0.0141709434811737
 50
214.6539925351486886
 51
250.7138727237519049
  0
ARC
  5
3C2DD
  8
0
 10
3118.8069397722752001
 20
255.4529912529606008
 30
0.0
 40
0.012495000326272
 50
251.8812892079023982
 51
294.1855590911977174
  0
ARC
  5
3C2DE
  8
0
 10
3118.5095679595438014
 20
255.3680595799160926
 30
0.0
 40
0.2960478481578903
 50
23.7294351350054598
 51
25.9227970320763106
  0
ARC
  5
3C2DF
  8
0
 10
3118.6283933370291379
 20
255.4258165204919067
 30
0.0
 40
0.1639292101115726
 50
25.9227970320748504
 51
28.2284792842243704
  0
ARC
  5
3C2E0
  8
0
 10
3118.7304014082251342
 20
255.4805780672602111
 30
0.0
 40
0.0481515197156614
 50
28.2284792842200716
 51
33.2023101267642531
  0
ARC
  5
3C2E1
  8
0
 10
3118.7647500127432068
 20
255.503057142232791
 30
0.0
 40
0.0071011184508354
 50
33.2023101268003202
 51
45.2742274508451104
  0
ARC
  5
3C2E2
  8
0
 10
3118.7695181322428652
 20
255.5078711236652111
 30
0.0
 40
0.0003254722975166
 50
45.2742274503429911
 51
101.3579166977203982
  0
ARC
  5
3C2E3
  8
0
 10
3118.7695436507801787
 20
255.5080247806749867
 30
0.0
 40
0.0001881538474914
 50
118.4435037282854069
 51
148.6496765003946905
  0
ARC
  5
3C2E4
  8
0
 10
3118.7699711182549436
 20
255.5078672388075063
 30
0.0
 40
0.0006412236066324
 50
156.5248203035442884
 51
187.3017215480097946
  0
ARC
  5
3C2E5
  8
0
 10
3118.7853765608251706
 20
255.5097715235827991
 30
0.0
 40
0.0161639093224561
 50
187.0567716571497101
 51
198.7035870586809949
  0
ARC
  5
3C2E6
  8
0
 10
3118.9611424728959719
 20
255.5688599286652902
 30
0.0
 40
0.2015960611527888
 50
198.5912386640505929
 51
204.5279085944870019
  0
ARC
  5
3C2E7
  8
0
 10
3118.9922974147261812
 20
255.5790880243060883
 30
0.0
 40
0.2342137179315194
 50
203.6402447349888973
 51
207.7740261829904966
  0
ARC
  5
3C2E8
  8
0
 10
3118.8258572183149226
 20
255.4915978492616091
 30
0.0
 40
0.0461797888915376
 50
207.957773844118492
 51
214.1402756677609034
  0
ARC
  5
3C2E9
  8
0
 10
3118.7888797333580442
 20
255.4662911049892955
 30
0.0
 40
0.0013856122598902
 50
206.1338454605150901
 51
253.9661585395832049
  0
ARC
  5
3C2EA
  8
0
 10
3118.7883892547069991
 20
255.4651667608580965
 30
0.0
 40
0.0002336965613697
 50
297.4603305056978115
 51
0.0375029941598787
  0
ARC
  5
3C2EB
  8
0
 10
3118.7731425276319897
 20
255.4637414988362991
 30
0.0
 40
0.0155459101473967
 50
5.260877833059058
 51
20.0236608540727303
  0
ARC
  5
3C2EC
  8
0
 10
3118.5838511432230007
 20
255.3989978570278083
 30
0.0
 40
0.2156004583445092
 50
18.9646025709087915
 51
24.1467376774331086
  0
ARC
  5
3C2ED
  8
0
 10
3117.4056826114338037
 20
255.1477111334623089
 30
0.0
 40
1.426066390531094
 50
24.4840431600905717
 51
25.9879919452747714
  0
ARC
  5
3C2EE
  8
0
 10
3165.840194318578142
 20
274.6812165951960196
 30
0.0
 40
50.8004388144722085
 50
201.8933676544787943
 51
201.9565828100149076
  0
LINE
  5
3C2EF
  8
0
 10
3118.3679304457409671
 20
256.4924878519836966
 30
0.0
 11
3118.3497028368851716
 21
256.4831294018047174
 31
0.0
  0
ARC
  5
3C2F0
  8
0
 10
3118.3550971972072148
 20
256.4726227166066224
 30
0.0
 40
0.0118105697207404
 50
117.1769487506595055
 51
201.380607605234502
  0
LINE
  5
3C2F1
  8
0
 10
3118.3440994396441965
 20
256.468317035972575
 30
0.0
 11
3118.3757005754810052
 21
256.3876000343709052
 31
0.0
  0
ARC
  5
3C2F2
  8
0
 10
3118.3866928280899629
 20
256.3919035597862148
 30
0.0
 40
0.0118046579116614
 50
201.3806076052277945
 51
295.1858913948045142
  0
LINE
  5
3C2F3
  8
0
 10
3118.3917163766709564
 20
256.3812211486318233
 30
0.0
 11
3118.412364524791883
 21
256.3909261890306084
 31
0.0
  0
LINE
  5
3C2F4
  8
0
 10
3118.4921088011151369
 20
256.2699909081226792
 30
0.0
 11
3118.4468793749770157
 21
256.2467331793916969
 31
0.0
  0
ARC
  5
3C2F5
  8
0
 10
3118.4525531176032018
 20
256.2358513475161885
 30
0.0
 40
0.0122721481555543
 50
117.5373519750311004
 51
200.4155211315488998
  0
ARC
  5
3C2F6
  8
0
 10
3119.318726967197108
 20
256.5343475874860815
 30
0.0
 40
0.9284328936067113
 50
199.0332183275766056
 51
204.5248907722933893
  0
ARC
  5
3C2F7
  8
0
 10
3118.4844023888558695
 20
256.1547466947512248
 30
0.0
 40
0.0118486716704183
 50
209.398338419019808
 51
297.7001080018902144
  0
LINE
  5
3C2F8
  8
0
 10
3118.4899101694090859
 20
256.1442559667626142
 30
0.0
 11
3118.5345380438698157
 21
256.1659640585104967
 31
0.0
  0
LINE
  5
3C2F9
  8
0
 10
3118.5566038231368111
 20
256.0126672580418017
 30
0.0
 11
3118.5332000702251207
 21
256.0010552991225836
 31
0.0
  0
ARC
  5
3C2FA
  8
0
 10
3118.5405553888717805
 20
255.9893198812607125
 30
0.0
 40
0.0138499366354074
 50
122.0779390913884015
 51
186.5574957354502033
  0
LINE
  5
3C2FB
  8
0
 10
3118.5267960618862162
 20
255.9877382157835086
 30
0.0
 11
3118.5619793145738186
 21
255.9075023774279032
 31
0.0
  0
ARC
  5
3C2FC
  8
0
 10
3118.5727964176458045
 20
255.912246031271394
 30
0.0
 40
0.0118113220729689
 50
203.6790625715401006
 51
295.6748170754535181
  0
LINE
  5
3C2FD
  8
0
 10
3118.5779138264438188
 20
255.9016008701030103
 30
0.0
 11
3118.6419820220407928
 21
255.9328660182086992
 31
0.0
  0
LINE
  5
3C2FE
  8
0
 10
3118.7560148598217893
 20
255.5927497739797047
 30
0.0
 11
3118.7151358451292253
 21
255.5719970436732922
 31
0.0
  0
ARC
  5
3C2FF
  8
0
 10
3118.7214817831099936
 20
255.5610660078633032
 30
0.0
 40
0.0126395598315314
 50
120.1370143316469949
 51
209.7179308067092052
  0
LINE
  5
3C300
  8
0
 10
3118.7105046234710244
 20
255.5548001927531914
 30
0.0
 11
3118.8397726279467861
 21
255.2777368421577933
 31
0.0
  0
ARC
  5
3C301
  8
0
 10
3118.853377441883822
 20
255.2835727595239064
 30
0.0
 40
0.0148178885612017
 50
202.7306412278798859
 51
245.2058224442812104
  0
LINE
  5
3C302
  8
0
 10
3118.8371585551440148
 20
255.4320113553260967
 30
0.0
 11
3118.7916300402630441
 21
255.4096306622153918
 31
0.0
  0
ARC
  5
3C303
  8
0
 10
3118.7974437989128091
 20
255.3978038704410949
 30
0.0
 40
0.0131784973846382
 50
116.177591314222596
 51
185.3013056948499866
  0
LINE
  5
3C304
  8
0
 10
3118.7861664093470608
 20
255.4639090128713974
 30
0.0
 11
3118.7690775928281255
 21
255.4555085728584913
 31
0.0
  0
ARC
  5
3C305
  8
0
 10
3118.7740758083009496
 20
255.4453408212887098
 30
0.0
 40
0.0113298424477255
 50
116.1775913141934069
 51
204.2753864777317006
  0
LINE
  5
3C306
  8
0
 10
3118.7608100362908772
 20
255.5347698655546935
 30
0.0
 11
3118.7371649621418328
 21
255.5229984298217971
 31
0.0
  0
ARC
  5
3C307
  8
0
 10
3118.7442116215320311
 20
255.511383154879212
 30
0.0
 40
0.0135856549543153
 50
121.244005990410102
 51
178.8017895029219915
  0
LINE
  5
3C308
  8
0
 10
3118.8295917587288386
 20
255.4498420866931951
 30
0.0
 11
3118.8670664681808375
 21
255.3615350356458862
 31
0.0
  0
ARC
  5
3C309
  8
0
 10
3118.3412194165839537
 20
255.057948632994794
 30
0.0
 40
0.6117492322380553
 50
25.1618901026115296
 51
31.1805486436000585
  0
ARC
  5
3C30A
  8
0
 10
3118.5928993012307728
 20
255.2044820160091092
 30
0.0
 40
0.3205993519425521
 50
32.0632019901199214
 51
33.1722095886447903
  0
ARC
  5
3C30B
  8
0
 10
3118.8570743166401371
 20
255.377170357307989
 30
0.0
 40
0.0049893045948908
 50
33.1722095885944128
 51
58.1624435055987092
  0
ARC
  5
3C30C
  8
0
 10
3118.859387351084024
 20
255.3808954456852973
 30
0.0
 40
0.0006045113547757
 50
58.1624435053204678
 51
167.827209671393689
  0
LINE
  5
3C30D
  8
0
 10
3118.8711121693208952
 20
255.3636458585968967
 30
0.0
 11
3118.8276254525458171
 21
255.3410508823851899
 31
0.0
  0
ARC
  5
3C30E
  8
0
 10
3118.8343146529000478
 20
255.3300368336149972
 30
0.0
 40
0.0128862202249832
 50
121.2717104077880066
 51
208.1176512620181995
  0
LINE
  5
3C30F
  8
0
 10
3118.8229492422437943
 20
255.3239637691249015
 30
0.0
 11
3118.8471634146380893
 21
255.2701207824642893
 31
0.0
  0
LINE
  5
3C310
  8
0
 10
3118.8471634146380893
 20
255.2701207824642893
 30
0.0
 11
3118.9036672391389402
 21
255.1696324715636024
 31
0.0
  0
ARC
  5
3C311
  8
0
 10
3118.9175135194809627
 20
255.1726752627033932
 30
0.0
 40
0.0141766729962654
 50
192.3940355387348973
 51
288.006728567718028
  0
LINE
  5
3C312
  8
0
 10
3118.9218959356940104
 20
255.1591929600297135
 30
0.0
 11
3118.960419273439129
 21
255.1782883562190136
 31
0.0
  0
ARC
  5
3C313
  8
0
 10
3124.2660770658139882
 20
257.5328462803985872
 30
0.0
 40
5.8046251726109928
 50
202.9033374211695104
 51
203.9308130062956934
  0
ARC
  5
3C314
  8
0
 10
3118.1974433403761395
 20
254.9138408121775115
 30
0.0
 40
0.7467226196467838
 50
24.2634343822432186
 51
28.4935024404950887
  0
ARC
  5
3C315
  8
0
 10
3119.5469747055981315
 20
255.5830804366758002
 30
0.0
 40
0.7606460961649609
 50
204.2993617632506869
 51
208.4519676414195999
  0
ARC
  5
3C316
  8
0
 10
3118.8941280488947996
 20
255.2156591008931059
 30
0.0
 40
0.0117862327311461
 50
232.0677494519634081
 51
302.1499832215765196
  0
ARC
  5
3C317
  8
0
 10
3118.8584727772290535
 20
255.2868491493082956
 30
0.0
 40
0.0111494041898182
 50
109.1841102992914045
 51
184.0042676508130057
  0
LINE
  5
3C318
  8
0
 10
3118.8215811105701505
 20
255.3320146029213902
 30
0.0
 11
3118.8852115869731279
 21
255.2024546270384064
 31
0.0
  0
LINE
  5
3C319
  8
0
 10
3118.9003999439300969
 20
255.2056801924024967
 30
0.0
 11
3118.9395427207600733
 21
255.2259641279092079
 31
0.0
  0
LINE
  5
3C31A
  8
0
 10
3118.8548090302479068
 20
255.2973793996303868
 30
0.0
 11
3118.8949150609669232
 21
255.3180606406671984
 31
0.0
  0
ARC
  5
3C31B
  8
0
 10
3118.9527657913308758
 20
255.2415993235786118
 30
0.0
 40
0.0128485466922876
 50
222.1579737736975915
 51
295.1243808280610779
  0
ARC
  5
3C31C
  8
0
 10
3119.0997312337672156
 20
255.3523478639764903
 30
0.0
 40
0.1968218740049552
 50
202.1330430310084978
 51
217.3367568338512967
  0
ARC
  5
3C31D
  8
0
 10
3119.0583781316618115
 20
255.3547526164618091
 30
0.0
 40
0.1604135203869556
 50
193.7507016685331109
 51
208.5066483806218969
  0
ARC
  5
3C31E
  8
0
 10
3118.9153271220170609
 20
255.3182314782665117
 30
0.0
 40
0.0129127344975493
 50
118.8679154834331939
 51
187.1620108700990102
  0
LINE
  5
3C31F
  8
0
 10
3118.9582210880230377
 20
255.2299664008972115
 30
0.0
 11
3119.0046573320510106
 21
255.2530933365111139
 31
0.0
  0
ARC
  5
3C320
  8
0
 10
3118.8619847626141564
 20
255.194887817522698
 30
0.0
 40
0.1540887552656932
 50
22.1937762085869004
 51
29.1825397069897008
  0
ARC
  5
3C321
  8
0
 10
3118.7996304845601117
 20
255.2172477966431927
 30
0.0
 40
0.2038345590318783
 50
15.0047868968398301
 51
36.1596018387652123
  0
ARC
  5
3C322
  8
0
 10
3118.9154279529338964
 20
255.3241354117199933
 30
0.0
 40
0.0505763056102088
 50
15.3430446557526992
 51
58.5425615219737168
  0
ARC
  5
3C323
  8
0
 10
3119.1175734038051814
 20
255.3982095510035037
 30
0.0
 40
0.1784525293577245
 50
189.9814742096488942
 51
196.0789335971437026
  0
LINE
  5
3C324
  8
0
 10
3118.9090952300330173
 20
255.3295400292163038
 30
0.0
 11
3118.9562134868619978
 21
255.3540436532487092
 31
0.0
  0
ARC
  5
3C325
  8
0
 10
3118.6036083262201828
 20
256.1625455360876913
 30
0.0
 40
0.0026164660729783
 50
212.6022753915416104
 51
269.8871497911869142
  0
ARC
  5
3C326
  8
0
 10
3118.5323870411348253
 20
256.3315576845884038
 30
0.0
 40
0.00161649737536
 50
46.8596929297325531
 51
115.6127732252783034
  0
ARC
  5
3C327
  8
0
 10
3118.427145513540836
 20
256.1286572278518179
 30
0.0
 40
0.1835370200796997
 50
15.8017457609428291
 51
25.7556121440438304
  0
ARC
  5
3C328
  8
0
 10
3118.6809304790390343
 20
255.6784729396813134
 30
0.0
 40
0.0120027400633277
 50
217.8713263885836966
 51
295.9330865802911035
  0
ARC
  5
3C329
  8
0
 10
3118.6443790685698332
 20
255.7573878474661058
 30
0.0
 40
0.011950408753322
 50
117.6676289683767038
 51
198.1608276366985137
  0
ARC
  5
3C32A
  8
0
 10
3119.5469420977051414
 20
256.1290949852692052
 30
0.0
 40
0.9880444271718364
 50
202.3439619166470038
 51
207.615270069286197
  0
ARC
  5
3C32B
  8
0
 10
3118.1622754823220021
 20
255.4859270811637941
 30
0.0
 40
0.5401690555621325
 50
22.3039624314405813
 51
27.3166832883426913
  0
ARC
  5
3C32C
  8
0
 10
3119.1439818036410543
 20
255.9397537374206877
 30
0.0
 40
0.5423917478344461
 50
202.314239878026001
 51
207.3064058417579076
  0
LINE
  5
3C32D
  8
0
 10
3118.686188579174086
 20
255.6676858248555959
 30
0.0
 11
3118.7244406131080723
 21
255.6867348568478064
 31
0.0
  0
LINE
  5
3C32E
  8
0
 10
3118.6388274013088449
 20
255.7679744627160119
 30
0.0
 11
3118.6805268303810408
 21
255.7896593666586966
 31
0.0
  0
ARC
  5
3C32F
  8
0
 10
3118.361216419793891
 20
255.6482847691119957
 30
0.0
 40
0.349209749252418
 50
20.8521831967000999
 51
23.8813770605611211
  0
ARC
  5
3C330
  8
0
 10
3118.342562636160892
 20
255.4861448842873983
 30
0.0
 40
0.427663631196876
 50
25.3274500610107296
 51
27.715962069888139
  0
ARC
  5
3C331
  8
0
 10
3118.689306936003959
 20
255.6679781387404944
 30
0.0
 40
0.0398269976401908
 50
1.6076904477367571
 51
28.0962964451688499
  0
ARC
  5
3C332
  8
0
 10
3118.4369440360069348
 20
255.7086257287668047
 30
0.0
 40
0.253129510114974
 50
18.2715380351943786
 51
22.6652060926630803
  0
ARC
  5
3C333
  8
0
 10
3118.6333869988088736
 20
255.7721965064484948
 30
0.0
 40
0.050331856294756
 50
19.409175247366619
 51
42.4504558401107701
  0
ARC
  5
3C334
  8
0
 10
3118.2883394603650231
 20
256.6207550078576105
 30
0.0
 40
0.0775986417186696
 50
0.235471351910953
 51
31.1198253834943905
  0
ARC
  5
3C335
  8
0
 10
3117.821601464053856
 20
256.5005988240092165
 30
0.0
 40
0.5567343947018824
 50
16.7300093833092696
 51
26.4352027151916715
  0
ARC
  5
3C336
  8
0
 10
3118.8098369038589226
 20
256.916491153253105
 30
0.0
 40
0.5177442240325347
 50
195.8389413420489973
 51
198.9381351323299043
  0
ARC
  5
3C337
  8
0
 10
3118.1816317386028459
 20
256.7296205663466822
 30
0.0
 40
0.137864161899594
 50
19.2975395009062396
 51
27.5978046818560117
  0
ARC
  5
3C338
  8
0
 10
3118.6764764716522222
 20
256.8844056010782992
 30
0.0
 40
0.3835969809202817
 50
193.710363250833808
 51
196.7507867873744942
  0
ARC
  5
3C339
  8
0
 10
3118.6156468761050746
 20
256.7110285466499136
 30
0.0
 40
0.2654142092122977
 50
197.3996864213681022
 51
199.7982458082381072
  0
ARC
  5
3C33A
  8
0
 10
3120.3225717703680857
 20
257.2576558956725989
 30
0.0
 40
2.067388697225427
 50
197.749447006919894
 51
201.0585583376090142
  0
ARC
  5
3C33B
  8
0
 10
3064.3200406334221952
 20
234.5821534620934017
 30
0.0
 40
58.3447350689744013
 50
21.8180254763546486
 51
21.9428796872812093
  0
ARC
  5
3C33C
  8
0
 10
3118.5748690122068183
 20
256.0445932135584144
 30
0.0
 40
0.0099149049172422
 50
200.9187148292186862
 51
232.7744312153718056
  0
LINE
  5
3C33D
  8
0
 10
3118.5688709457240293
 20
256.036698371065313
 30
0.0
 11
3118.5737559859899193
 21
256.022924830616887
 31
0.0
  0
LINE
  5
3C33E
  8
0
 10
3118.5656076194818525
 20
256.0410531649274049
 30
0.0
 11
3118.5210176895670884
 21
256.1593874268600075
 31
0.0
  0
ARC
  5
3C33F
  8
0
 10
3118.6303778426040481
 20
255.9063341933926949
 30
0.0
 40
0.0099020065670322
 50
171.5597667970498037
 51
203.0219324964265013
  0
LINE
  5
3C340
  8
0
 10
3118.6205830796270675
 20
255.9077875867594969
 30
0.0
 11
3118.6151185192138655
 21
255.919756683901511
 31
0.0
  0
LINE
  5
3C341
  8
0
 10
3118.6212644792080937
 20
255.9024616823654981
 30
0.0
 11
3118.6716592397528984
 21
255.7850479641709001
 31
0.0
  0
LINE
  5
3C342
  8
0
 10
3118.7759033815491421
 20
255.5465773633673905
 30
0.0
 11
3118.7717580016460488
 21
255.5546504038337048
 31
0.0
  0
LINE
  5
3C343
  8
0
 10
3118.7717580016460488
 20
255.5546504038337048
 30
0.0
 11
3118.7559992458532179
 21
255.5927785435233943
 31
0.0
  0
LINE
  5
3C344
  8
0
 10
3118.7559992458532179
 20
255.5927785435233943
 30
0.0
 11
3118.7465586386501855
 21
255.610173349459501
 31
0.0
  0
LINE
  5
3C345
  8
0
 10
3118.7465586386501855
 20
255.610173349459501
 30
0.0
 11
3118.7155785111908699
 21
255.6823210561167059
 31
0.0
  0
LINE
  5
3C346
  8
0
 10
3118.8868951223639669
 20
255.2063531857995997
 30
0.0
 11
3118.8473505903880323
 21
255.2860705777542876
 31
0.0
  0
ARC
  5
3C347
  8
0
 10
3118.9520224695211255
 20
255.0983407197427084
 30
0.0
 40
0.0128396806970084
 50
122.0698493180931052
 51
209.5680843249942029
  0
ARC
  5
3C348
  8
0
 10
3118.9740840968997873
 20
255.0534346957134062
 30
0.0
 40
0.0116814631447753
 50
110.6190581335859946
 51
180.0244804145681883
  0
ARC
  5
3C349
  8
0
 10
3119.0102002991047812
 20
254.9824328499543071
 30
0.0
 40
0.0112233861333047
 50
229.6553694833060035
 51
304.2373655929761185
  0
ARC
  5
3C34A
  8
0
 10
3119.0334798193412098
 20
254.9387076102383958
 30
0.0
 40
0.0128587555673114
 50
203.3406725412691003
 51
292.0076431791472942
  0
ARC
  5
3C34B
  8
0
 10
3120.7867171835578119
 20
255.9340299445105984
 30
0.0
 40
2.0288454274307388
 50
204.520999110444393
 51
209.5443212292038027
  0
LINE
  5
3C34C
  8
0
 10
3118.9624026348219559
 20
255.0534297046467884
 30
0.0
 11
3119.0029344622521421
 21
254.9738787859704985
 31
0.0
  0
LINE
  5
3C34D
  8
0
 10
3119.0165147685520424
 20
254.9731544471704865
 30
0.0
 11
3119.0284944272530083
 21
254.9791913964704975
 31
0.0
  0
LINE
  5
3C34E
  8
0
 10
3118.9699704347522129
 20
255.0643678729705073
 30
0.0
 11
3118.9819555374688207
 21
255.0705065617630112
 31
0.0
  0
ARC
  5
3C34F
  8
0
 10
3118.4020939356801136
 20
254.7169414573872928
 30
0.0
 40
0.650927034896704
 50
24.6210541513280106
 51
29.473528758362459
  0
ARC
  5
3C350
  8
0
 10
3119.5668237210347797
 20
255.3114385309868908
 30
0.0
 40
0.6579055244559853
 50
204.6328607318515083
 51
209.4342823287215936
  0
LINE
  5
3C351
  8
0
 10
3118.9452078936519683
 20
255.1092162562705141
 30
0.0
 11
3118.9823620986499009
 21
255.1286496083754116
 31
0.0
  0
LINE
  5
3C352
  8
0
 10
3118.9823620986499009
 20
255.1286496083754116
 30
0.0
 11
3118.95828208558396
 21
255.1772289867251118
 31
0.0
  0
ARC
  5
3C353
  8
0
 10
3118.9076127346679641
 20
255.0365959809572018
 30
0.0
 40
0.1185805116198781
 50
27.4578754942228613
 51
50.9227193582630591
  0
LINE
  5
3C354
  8
0
 10
3119.0382983843519469
 20
254.9267858223705048
 30
0.0
 11
3119.0756027596808053
 21
254.9453501047939028
 31
0.0
  0
ARC
  5
3C355
  8
0
 10
3119.140934999862111
 20
255.1730380129531
 30
0.0
 40
0.0407983544981269
 50
171.1901173909755016
 51
199.2584317071456042
  0
ARC
  5
3C356
  8
0
 10
3119.0876607531040463
 20
255.1504615501750095
 30
0.0
 40
0.0316033187535926
 50
30.1532568703700683
 51
65.7954207995525024
  0
ARC
  5
3C357
  8
0
 10
3118.9618331767569543
 20
255.2367209746342951
 30
0.0
 40
0.0458471646905336
 50
351.6793296058598912
 51
20.9226575875109901
  0
ARC
  5
3C358
  8
0
 10
3119.0511379388108253
 20
255.2789402299287076
 30
0.0
 40
0.0657072988422885
 50
208.5812342746532124
 51
228.0311616462263942
  0
ARC
  5
3C359
  8
0
 10
3119.7110639199840989
 20
255.0587579535196028
 30
0.0
 40
0.5595522034265326
 50
195.936737498331695
 51
197.789624776245887
  0
ARC
  5
3C35A
  8
0
 10
3119.167777200735145
 20
254.8830268282636951
 30
0.0
 40
0.0227047148432533
 50
25.9824179099576291
 51
76.654777247865681
  0
LINE
  5
3C35B
  8
0
 10
3122.3883809292278784
 20
245.7632807798802901
 30
0.0
 11
3122.3883809292278784
 21
248.0212886379017903
 31
0.0
  0
LINE
  5
3C35C
  8
0
 10
3120.1363362846291238
 20
247.4681952739209123
 30
0.0
 11
3120.1170128878870855
 21
248.0215449573472029
 31
0.0
  0
LINE
  5
3C35D
  8
0
 10
3121.030378837887838
 20
247.8118448638199141
 30
0.0
 11
3121.0377017264690949
 21
248.0215449573491071
 31
0.0
  0
ARC
  5
3C35E
  8
0
 10
3120.1249080754200804
 20
248.0218206633711873
 30
0.0
 40
0.0079
 50
90.0
 51
181.9999999997345128
  0
ARC
  5
3C35F
  8
0
 10
3121.0298065389361
 20
248.0218206633711873
 30
0.0
 40
0.0079
 50
358.0000000129522846
 51
89.9999999998957776
  0
LINE
  5
3C360
  8
0
 10
3121.6403793543290703
 20
230.0055376102712046
 30
0.0
 11
3122.3686809292280486
 21
230.0055376102712046
 31
0.0
  0
LINE
  5
3C361
  8
0
 10
3122.3883809292278784
 20
232.5842628070712124
 30
0.0
 11
3122.3883809292278784
 21
230.0252376102712049
 31
0.0
  0
LINE
  5
3C362
  8
0
 10
3121.6009793543280466
 20
230.0449376102712051
 30
0.0
 11
3121.6009793543280466
 21
232.5645628070712121
 31
0.0
  0
LINE
  5
3C363
  8
0
 10
3121.6403793543290703
 20
232.6039628070712126
 30
0.0
 11
3122.3686809292280486
 21
232.6039628070712126
 31
0.0
  0
ARC
  5
3C364
  8
0
 10
3121.6403793543290703
 20
230.0449376102712051
 30
0.0
 40
0.0394
 50
179.9999999999967031
 51
270.0
  0
ARC
  5
3C365
  8
0
 10
3121.6403793543290703
 20
232.5645628070712121
 30
0.0
 40
0.0394
 50
90.0
 51
180.0000000000048885
  0
ARC
  5
3C366
  8
0
 10
3122.3686809292280486
 20
232.5842628070712124
 30
0.0
 40
0.0197
 50
0.0000000000211698
 51
89.9999999999478888
  0
ARC
  5
3C367
  8
0
 10
3122.3686809292280486
 20
230.0252376102712049
 30
0.0
 40
0.0197
 50
270.0000000000259774
 51
359.9999999999820943
  0
LINE
  5
3C368
  8
0
 10
3120.8175147875281255
 20
231.8756163504212111
 30
0.0
 11
3120.8175147875281255
 21
230.7338840670211937
 31
0.0
  0
LINE
  5
3C369
  8
0
 10
3120.8175147875281255
 20
230.7338840670211937
 30
0.0
 11
3121.3686958899279489
 21
230.7338840670211937
 31
0.0
  0
LINE
  5
3C36A
  8
0
 10
3121.3686958899279489
 20
230.7338840670211937
 30
0.0
 11
3121.3686958899279489
 21
231.8756163504212111
 31
0.0
  0
LINE
  5
3C36B
  8
0
 10
3121.3686958899279489
 20
231.8756163504212111
 30
0.0
 11
3120.8175147875281255
 21
231.8756163504212111
 31
0.0
  0
ARC
  5
3C36C
  8
0
 10
3121.2924880209561707
 20
231.5901832795711925
 30
0.0
 40
0.4739463873508493
 50
156.7945631180645876
 51
203.2054368819079002
  0
LINE
  5
3C36D
  8
0
 10
3120.8568848663280733
 20
231.7769319603214058
 30
0.0
 11
3120.8568848663280733
 21
231.8756163504212111
 31
0.0
  0
ARC
  5
3C36E
  8
0
 10
3121.2924880209561707
 20
231.0193171377711963
 30
0.0
 40
0.4739463873508493
 50
156.7945631180919861
 51
203.2054368819354124
  0
LINE
  5
3C36F
  8
0
 10
3120.8568848663280733
 20
230.8325684570210115
 30
0.0
 11
3120.8568848663280733
 21
230.7338840669212061
 31
0.0
  0
LINE
  5
3C370
  8
0
 10
3120.8568848663280733
 20
231.2060658185212105
 30
0.0
 11
3120.8568848663280733
 21
231.4034345988212067
 31
0.0
  0
LINE
  5
3C371
  8
0
 10
3120.8568848663280733
 20
231.4034345988212067
 30
0.0
 11
3121.3293258111280011
 21
231.4034345988212067
 31
0.0
  0
LINE
  5
3C372
  8
0
 10
3120.8568848663280733
 20
231.2060658185212105
 30
0.0
 11
3121.3293258111280011
 21
231.2060658185212105
 31
0.0
  0
LINE
  5
3C373
  8
0
 10
3120.8568848663280733
 20
230.8325684570210967
 30
0.0
 11
3121.3293258111280011
 21
230.8325684570210967
 31
0.0
  0
LINE
  5
3C374
  8
0
 10
3120.8568848663280733
 20
231.7769319603212068
 30
0.0
 11
3121.3293258111280011
 21
231.7769319603212068
 31
0.0
  0
ARC
  5
3C375
  8
0
 10
3120.8937226565008132
 20
231.5901832795711925
 30
0.0
 40
0.4739463873508493
 50
336.7945631180921282
 51
23.2054368819354018
  0
LINE
  5
3C376
  8
0
 10
3121.3293258111280011
 20
231.7769319603214058
 30
0.0
 11
3121.3293258111280011
 21
231.8756163504212111
 31
0.0
  0
ARC
  5
3C377
  8
0
 10
3120.8937226565008132
 20
231.0193171377711963
 30
0.0
 40
0.4739463873508493
 50
336.794563118064616
 51
23.2054368819079286
  0
LINE
  5
3C378
  8
0
 10
3121.3293258111280011
 20
230.8325684570210115
 30
0.0
 11
3121.3293258111280011
 21
230.7338840669212061
 31
0.0
  0
LINE
  5
3C379
  8
0
 10
3121.3293258111280011
 20
231.2060658185212105
 30
0.0
 11
3121.3293258111280011
 21
231.4034345988212067
 31
0.0
  0
LINE
  5
3C37A
  8
0
 10
3121.3686958899279489
 20
230.7890021772211924
 30
0.0
 11
3121.6009793543280466
 21
230.7890021772211924
 31
0.0
  0
LINE
  5
3C37B
  8
0
 10
3121.3686958899279489
 20
231.8204982402212124
 30
0.0
 11
3121.6009793543280466
 21
231.8204982402212124
 31
0.0
  0
LINE
  5
3C37C
  8
0
 10
3120.7860187244700683
 20
230.8834903661712019
 30
0.0
 11
3120.8175147875281255
 21
230.8960887914211924
 31
0.0
  0
LINE
  5
3C37D
  8
0
 10
3120.7860187244700683
 20
230.8834903661712019
 30
0.0
 11
3120.7162299272799828
 21
230.8834903661712019
 31
0.0
  0
LINE
  5
3C37E
  8
0
 10
3120.7860187245278212
 20
231.7260100511711869
 30
0.0
 11
3120.8175147875281255
 21
231.7134116259711902
 31
0.0
  0
LINE
  5
3C37F
  8
0
 10
3120.7860187245278212
 20
231.7260100511711869
 30
0.0
 11
3120.7400927373469131
 21
231.7260100511711869
 31
0.0
  0
LINE
  5
3C380
  8
0
 10
3120.7860187244700683
 20
230.8834903661712019
 30
0.0
 11
3120.7860187244700683
 21
231.7260100511711869
 31
0.0
  0
ARC
  5
3C381
  8
0
 10
1851.6467259913970338
 20
246.3883649360448089
 30
0.0
 40
1269.221481585922902
 50
359.7295320132284928
 51
359.996972946919982
  0
ARC
  5
3C382
  8
0
 10
2592.2207555179470546
 20
242.8924171305770869
 30
0.0
 40
528.6392006337993053
 50
358.8855566182385246
 51
359.7295320132284928
  0
ARC
  5
3C383
  8
0
 10
2973.4305692264651952
 20
235.4766817687479943
 30
0.0
 40
147.3572640060073127
 50
357.7179385815528008
 51
358.8855566182385246
  0
ARC
  5
3C384
  8
0
 10
3022.7489986790978946
 20
233.511314710626209
 30
0.0
 40
97.9996895989567918
 50
355.5175937772020802
 51
357.7179385815528008
  0
ARC
  5
3C385
  8
0
 10
3100.6789768100138645
 20
227.4021699656036049
 30
0.0
 40
19.8306219250966791
 50
349.4422962016748215
 51
355.5175937772020802
  0
ARC
  5
3C386
  8
0
 10
3115.4534758574909574
 20
224.6484847054819909
 30
0.0
 40
4.8016963275785969
 50
336.2198656370783283
 51
349.4422962016748215
  0
ARC
  5
3C387
  8
0
 10
3119.0890317662669986
 20
223.0465189932492933
 30
0.0
 40
0.8288433339478588
 50
312.6635907821948877
 51
336.2198656370783283
  0
ARC
  5
3C388
  8
0
 10
3119.1383656865691592
 20
222.9929881224938981
 30
0.0
 40
0.7560464259349554
 50
290.4683041500061904
 51
312.6635907821948877
  0
ARC
  5
3C389
  8
0
 10
3119.2478592614911577
 20
222.7860076069206059
 30
0.0
 40
0.5247146618762356
 50
271.8101090808996219
 51
287.1686048089738961
  0
ARC
  5
3C38A
  8
0
 10
3119.2855102833918863
 20
222.9614206858423131
 30
0.0
 40
0.7001832068224751
 50
239.5601581421198887
 51
268.2750310239472924
  0
ARC
  5
3C38B
  8
0
 10
3119.7376322070290371
 20
223.4690311653345987
 30
0.0
 40
1.3733050274864169
 50
207.4713622264295907
 51
234.018063621257113
  0
ARC
  5
3C38C
  8
0
 10
3123.6288344691997736
 20
225.4643234895733883
 30
0.0
 40
5.7462331532987561
 50
191.9084987673172975
 51
207.22482133637331
  0
ARC
  5
3C38D
  8
0
 10
3140.4345298752477902
 20
229.0762031054387933
 30
0.0
 40
22.9356476599284491
 50
181.4241991083748928
 51
192.0741292365813138
  0
ARC
  5
3C38E
  8
0
 10
3159.1861651651370266
 20
230.1009608222219072
 30
0.0
 40
41.7106976490132624
 50
179.9598225987568014
 51
182.1912396884617067
  0
ARC
  5
3C38F
  8
0
 10
3155.5698934810870924
 20
230.0539962781012946
 30
0.0
 40
37.5124590811103715
 50
179.8835933294112124
 51
184.6120661950346005
  0
ARC
  5
3C390
  8
0
 10
3138.6377431880528093
 20
228.6880788448796125
 30
0.0
 40
20.5253038166096786
 50
184.6120661950346005
 51
188.2084384551212111
  0
ARC
  5
3C391
  8
0
 10
3134.3464674940510122
 20
228.0690514190328884
 30
0.0
 40
16.1896098657076912
 50
188.2084384551212111
 51
193.7846108389447863
  0
ARC
  5
3C392
  8
0
 10
3123.959719119699912
 20
225.5207792308007981
 30
0.0
 40
5.494833900901626
 50
193.7846108389447863
 51
201.4807923985462992
  0
ARC
  5
3C393
  8
0
 10
3121.8995136654239104
 20
224.7100404357063894
 30
0.0
 40
3.2808456652288052
 50
201.4807923985462992
 51
210.7454941595231048
  0
ARC
  5
3C394
  8
0
 10
3119.6248377511587933
 20
223.3569926654012079
 30
0.0
 40
0.6341706221477796
 50
210.7454941595231048
 51
232.882360040091811
  0
ARC
  5
3C395
  8
0
 10
3116.9539733141550641
 20
224.2090263875763867
 30
0.0
 40
2.660664400251282
 50
329.3166065802885214
 51
349.7021763905722196
  0
ARC
  5
3C396
  8
0
 10
3093.7341371613101728
 20
228.4546659350116045
 30
0.0
 40
26.2654557728856801
 50
349.644674971837901
 51
357.465604732019699
  0
ARC
  5
3C397
  8
0
 10
3005.1335799310709262
 20
234.1844228699812902
 30
0.0
 40
115.0468947831022035
 50
356.5659853848306966
 51
358.4894186610948736
  0
ARC
  5
3C398
  8
0
 10
2725.8154717109850935
 20
241.4754546822128134
 30
0.0
 40
394.4601426692191239
 50
358.5002782363550864
 51
359.9458860012359764
  0
ARC
  5
3C399
  8
0
 10
1801.9851904835040841
 20
246.4557688261791952
 30
0.0
 40
1318.3011154821160744
 50
359.7673538823879085
 51
0.0010619370187434
  0
LINE
  5
3C39A
  8
0
 10
3115.6601825415291387
 20
231.9084247493711928
 30
0.0
 11
3117.6847818849851137
 21
231.9084247493711928
 31
0.0
  0
LINE
  5
3C39B
  8
0
 10
3117.848146167122195
 20
231.9084247493711928
 30
0.0
 11
3119.0510597068278003
 21
231.9084247493711928
 31
0.0
  0
LINE
  5
3C39C
  8
0
 10
3116.7115791632882065
 20
230.701075667971196
 30
0.0
 11
3117.0968075058490285
 21
230.701075667971196
 31
0.0
  0
LINE
  5
3C39D
  8
0
 10
3115.7201385321732232
 20
230.701075667971196
 30
0.0
 11
3115.6601825415291387
 21
230.701075667971196
 31
0.0
  0
ARC
  5
3C39E
  8
0
 10
3115.2885252113560455
 20
229.197707561937392
 30
0.0
 40
2.0684608090204151
 50
46.6840866889045571
 51
52.1140949875315229
  0
ARC
  5
3C39F
  8
0
 10
3116.0730590921230032
 20
230.2059973307549967
 30
0.0
 40
0.7909078089561064
 50
52.1140949875315229
 51
62.6179371284104676
  0
ARC
  5
3C3A0
  8
0
 10
3116.2368618435380085
 20
230.5222471547309055
 30
0.0
 40
0.4347543412821566
 50
62.6179371284101123
 51
74.5004541571925074
  0
ARC
  5
3C3A1
  8
0
 10
3116.2598807620120169
 20
230.6052532481994888
 30
0.0
 40
0.3486156034192552
 50
74.5004541571922942
 51
91.3263003514700671
  0
ARC
  5
3C3A2
  8
0
 10
3116.2799597928701587
 20
230.4428117679956927
 30
0.0
 40
0.5117384175014323
 50
93.153145704648125
 51
115.1133965448412937
  0
ARC
  5
3C3A3
  8
0
 10
3116.9722273205820784
 20
229.0099676354442124
 30
0.0
 40
2.1030245118117739
 50
115.6232064864210969
 51
126.420699006310798
  0
ARC
  5
3C3A4
  8
0
 10
3115.7201385321732232
 20
230.7069756679713066
 30
0.0
 40
0.0059
 50
270.0000000002866045
 51
306.4206990058873998
  0
ARC
  5
3C3A5
  8
0
 10
3116.7115791632882065
 20
230.7069756679711929
 30
0.0
 40
0.0059
 50
226.6840866885848129
 51
270.0
  0
LINE
  5
3C3A6
  8
0
 10
3115.6404825415279447
 20
230.7207756679711963
 30
0.0
 11
3115.6404825415279447
 21
231.8887247493711925
 31
0.0
  0
ARC
  5
3C3A7
  8
0
 10
3115.6601825415291387
 20
230.7207756679711963
 30
0.0
 40
0.0197
 50
180.0000000000113971
 51
269.9999999999739089
  0
ARC
  5
3C3A8
  8
0
 10
3115.6601825415291387
 20
231.8887247493711925
 30
0.0
 40
0.0197
 50
90.0
 51
179.9999999999934914
  0
LINE
  5
3C3A9
  8
0
 10
3117.1734208926268366
 20
230.6813906286712097
 30
0.0
 11
3118.359512691945838
 21
230.6813906286712097
 31
0.0
  0
ARC
  5
3C3AA
  8
0
 10
3117.0971552389291901
 20
230.5828994147713047
 30
0.0
 40
0.1181767647999196
 50
61.0536475800278922
 51
90.1685920800968859
  0
ARC
  5
3C3AB
  8
0
 10
3117.1734208926282008
 20
230.7207906286760135
 30
0.0
 40
0.0394
 50
241.0536475826478977
 51
269.9999999991140953
  0
LINE
  5
3C3AC
  8
0
 10
3118.4357941458288224
 20
230.701075667971196
 30
0.0
 11
3118.8585108327370108
 21
230.701075667971196
 31
0.0
  0
ARC
  5
3C3AD
  8
0
 10
3118.4357753537301505
 20
230.5829069227617083
 30
0.0
 40
0.1181687467037691
 50
89.990888386338014
 51
118.9467217353016935
  0
ARC
  5
3C3AE
  8
0
 10
3118.3595126919449285
 20
230.7207906286718924
 30
0.0
 40
0.0394
 50
270.0000000001302851
 51
298.9467217348872055
  0
ARC
  5
3C3AF
  8
0
 10
3118.9831022115658925
 20
228.4491675315572934
 30
0.0
 40
2.937549654331344
 50
118.4700244853042932
 51
129.9509835110202118
  0
ARC
  5
3C3B0
  8
0
 10
3117.7681738549799775
 20
230.687323305086295
 30
0.0
 40
0.3909080483421952
 50
58.4293337187328987
 51
118.3122366222385011
  0
ARC
  5
3C3B1
  8
0
 10
3116.388292965148139
 20
228.2276293426122038
 30
0.0
 40
3.2109496740561321
 50
50.3822855091230934
 51
60.4304043365502892
  0
LINE
  5
3C3B2
  8
0
 10
3118.21528798792815
 20
230.1302095262711873
 30
0.0
 11
3117.3176717626279242
 21
230.1302095262711873
 31
0.0
  0
LINE
  5
3C3B3
  8
0
 10
3117.2677029156279787
 20
230.3384414671448894
 30
0.0
 11
3117.2677029156279787
 21
230.4696071423315971
 31
0.0
  0
LINE
  5
3C3B4
  8
0
 10
3118.2652306713280268
 20
230.3212420398479878
 30
0.0
 11
3118.2652306713280268
 21
230.4989141607748877
 31
0.0
  0
ARC
  5
3C3B5
  8
0
 10
3117.7088536291248602
 20
230.4797827930661924
 30
0.0
 40
0.4412680544592787
 50
152.8138500286048043
 51
181.3213590215922864
  0
ARC
  5
3C3B6
  8
0
 10
3117.8479350428310681
 20
230.4842606515568093
 30
0.0
 40
0.4175528312626604
 50
2.0111387133317051
 51
28.1712100513813688
  0
ARC
  5
3C3B7
  8
0
 10
3117.8485576761659104
 20
230.3281305062141087
 30
0.0
 40
0.4167299315701223
 50
331.6446711313610081
 51
359.0528685460714087
  0
ARC
  5
3C3B8
  8
0
 10
3117.8281830282908231
 20
230.3628269266457949
 30
0.0
 40
0.5610103451152153
 50
182.4912628919765893
 51
204.496655571423787
  0
ARC
  5
3C3B9
  8
0
 10
3117.5139683289658024
 20
230.4424236958836048
 30
0.0
 40
0.2477611623476025
 50
118.2691198976590954
 51
173.7010362655308882
  0
ARC
  5
3C3BA
  8
0
 10
3117.4617059000361223
 20
230.5378041219603062
 30
0.0
 40
0.1390069355036937
 50
52.8754700153641295
 51
117.9163888987620936
  0
ARC
  5
3C3BB
  8
0
 10
3117.3772787816778873
 20
230.4262707444534044
 30
0.0
 40
0.278891289926394
 50
8.9393075192613392
 51
52.8754700153641295
  0
ARC
  5
3C3BC
  8
0
 10
3117.9115041250788636
 20
230.4123022864473
 30
0.0
 40
0.2649919185314285
 50
116.3309910727991934
 51
167.5110494077071905
  0
ARC
  5
3C3BD
  8
0
 10
3117.9021806240120895
 20
230.4246113629704098
 30
0.0
 40
0.2498412442633338
 50
38.2598104243061812
 51
115.6667503836946054
  0
ARC
  5
3C3BE
  8
0
 10
3117.9154615554398333
 20
230.4259074330066994
 30
0.0
 40
0.2387191411610533
 50
8.5197519045886114
 51
39.989667379248651
  0
ARC
  5
3C3BF
  8
0
 10
3117.5151271904910573
 20
230.3705219786891121
 30
0.0
 40
0.2494953526871645
 50
187.3876360716805891
 51
241.6428356221425986
  0
ARC
  5
3C3C0
  8
0
 10
3117.4617059000361223
 20
230.2737960329820908
 30
0.0
 40
0.1390069355036937
 50
242.0836111012378922
 51
307.1245299846358989
  0
ARC
  5
3C3C1
  8
0
 10
3117.3772787816778873
 20
230.3853294104889926
 30
0.0
 40
0.278891289926394
 50
307.1245299846358989
 51
351.0606924807386235
  0
ARC
  5
3C3C2
  8
0
 10
3117.9115041250788636
 20
230.3992978684952107
 30
0.0
 40
0.2649919185314285
 50
192.4889505922926958
 51
243.6690089272007924
  0
ARC
  5
3C3C3
  8
0
 10
3117.9021806240120895
 20
230.3869887919719872
 30
0.0
 40
0.2498412442633338
 50
244.3332496163054088
 51
321.7401895756938188
  0
ARC
  5
3C3C4
  8
0
 10
3117.9154615554398333
 20
230.3856927219356976
 30
0.0
 40
0.2387191411610533
 50
320.010332620751285
 51
351.480248095411298
  0
ARC
  5
3C3C5
  8
0
 10
3118.8284325042432101
 20
230.362939764561105
 30
0.0
 40
0.677003620387334
 50
181.0675489855628086
 51
195.7506014577126052
  0
ARC
  5
3C3C6
  8
0
 10
3118.2709287084890093
 20
230.2057011148523031
 30
0.0
 40
0.0977502429770072
 50
195.7506014577126052
 51
220.3829928126102118
  0
ARC
  5
3C3C7
  8
0
 10
3118.2090180693521688
 20
230.1530427107230139
 30
0.0
 40
0.0164739563740668
 50
220.3829928126108086
 51
320.6382039626338951
  0
ARC
  5
3C3C8
  8
0
 10
3118.8821009547209542
 20
230.4439942617202917
 30
0.0
 40
0.7307588834999015
 50
166.3525391507847075
 51
178.6450599554061114
  0
ARC
  5
3C3C9
  8
0
 10
3118.3383083526168775
 20
230.5760284467733072
 30
0.0
 40
0.1711666925916924
 50
150.9616024887234005
 51
166.3525391507847075
  0
ARC
  5
3C3CA
  8
0
 10
3118.2085923900449416
 20
230.6480448622718029
 30
0.0
 40
0.0228002710294134
 50
44.8078519478474675
 51
150.9616024887176877
  0
LINE
  5
3C3CB
  8
0
 10
3117.6527825171278892
 20
230.3419930129716988
 30
0.0
 11
3117.6527825171278892
 21
230.4696071419712098
 31
0.0
  0
LINE
  5
3C3CC
  8
0
 10
3118.1515463949281184
 20
230.3503263972681907
 30
0.0
 11
3118.1515463949281184
 21
230.4612737576754
 31
0.0
  0
LINE
  5
3C3CD
  8
0
 10
3119.223159706828028
 20
233.8141690313711933
 30
0.0
 11
3120.2012078333718819
 21
233.8141690313711933
 31
0.0
  0
LINE
  5
3C3CE
  8
0
 10
3120.7820006525021199
 20
233.8141690313711933
 30
0.0
 11
3121.0341833289280657
 21
233.8141690313711933
 31
0.0
  0
LINE
  5
3C3CF
  8
0
 10
3119.223159706828028
 20
232.0805247493711931
 30
0.0
 11
3119.223159706828028
 21
233.8141690313711933
 31
0.0
  0
LINE
  5
3C3D0
  8
0
 10
3121.0341833289280657
 20
233.8141690313711933
 30
0.0
 11
3121.0341833289280657
 21
231.8756163504212111
 31
0.0
  0
LINE
  5
3C3D1
  8
0
 10
3121.0341833289280657
 20
233.8929076889712064
 30
0.0
 11
3121.0341833289280657
 21
234.1890029397004866
 31
0.0
  0
ARC
  5
3C3D2
  8
0
 10
3119.0510597068278003
 20
232.0805247493711931
 30
0.0
 40
0.1721
 50
270.0
 51
0.0
  0
LINE
  5
3C3D3
  8
0
 10
3121.0341833289280657
 20
233.8929076889712064
 30
0.0
 11
3120.7833471535568606
 21
233.8929076889712064
 31
0.0
  0
LINE
  5
3C3D4
  8
0
 10
3120.2027295372440676
 20
233.8929076889712064
 30
0.0
 11
3119.2241066510941891
 21
233.8929076889712064
 31
0.0
  0
LINE
  5
3C3D5
  8
0
 10
3119.2241066510941891
 20
233.8929076889712064
 30
0.0
 11
3119.2241066510941891
 21
233.9790749178802116
 31
0.0
  0
LINE
  5
3C3D6
  8
0
 10
3117.1516438347239273
 20
234.367669255322312
 30
0.0
 11
3118.6498411627931091
 21
234.0764491955918913
 31
0.0
  0
LINE
  5
3C3D7
  8
0
 10
3117.2390196885057776
 20
234.5765357774805011
 30
0.0
 11
3118.7516289073628286
 21
234.2825143618883885
 31
0.0
  0
ARC
  5
3C3D8
  8
0
 10
3118.6301854119019481
 20
241.4529540037572986
 30
0.0
 40
7.2379102758910694
 50
255.7832549780418105
 51
258.2127973064662001
  0
ARC
  5
3C3D9
  8
0
 10
3115.9639062069131796
 20
227.8799709004615011
 30
0.0
 40
6.8168831252313637
 50
79.2191920509237093
 51
82.1844975724498852
  0
LINE
  5
3C3DA
  8
0
 10
3116.8688738036848918
 20
234.6177744988000029
 30
0.0
 11
3116.8381220319211025
 21
234.459570344732299
 31
0.0
  0
ARC
  5
3C3DB
  8
0
 10
3116.8882118592118786
 20
234.6140155616631091
 30
0.0
 40
0.0197
 50
82.1844975725021669
 51
169.0000002133253076
  0
ARC
  5
3C3DC
  8
0
 10
3116.8574600874489988
 20
234.4558114075954052
 30
0.0
 40
0.0197
 50
169.0000002133284056
 51
255.7832549780418105
  0
LINE
  5
3C3DD
  8
0
 10
3120.2088766746601323
 20
234.2196793425711974
 30
0.0
 11
3119.4041956031701375
 21
234.2196793425711974
 31
0.0
  0
ARC
  5
3C3DE
  8
0
 10
3119.4041956031701375
 20
237.6396793425712133
 30
0.0
 40
3.419999999999999
 50
259.000001167020514
 51
270.0
  0
ARC
  5
3C3DF
  8
0
 10
3119.6803196300688796
 20
239.6896408590260137
 30
0.0
 40
5.7069962784257244
 50
259.5973830811947778
 51
265.1961806010194778
  0
ARC
  5
3C3E0
  8
0
 10
3119.2004066510939992
 20
233.9790749178802116
 30
0.0
 40
0.0237
 50
359.9999999999820943
 51
85.1961806010456684
  0
ARC
  5
3C3E1
  8
0
 10
3120.1286715179280691
 20
232.0290727962722883
 30
0.0
 40
1.96850393699883
 50
108.7681734670682943
 51
114.9292589959797937
  0
ARC
  5
3C3E2
  8
0
 10
3120.1622070170210463
 20
232.1052817532469987
 30
0.0
 40
1.8852528929709369
 50
65.0192723761953175
 51
68.1195737630915232
  0
ARC
  5
3C3E3
  8
0
 10
3120.9714870285752113
 20
234.3377086797704862
 30
0.0
 40
0.5104702471471571
 50
248.3122203771050067
 51
255.9228780713239075
  0
LINE
  5
3C3E4
  8
0
 10
3120.8526437351538334
 20
233.8508506824215942
 30
0.0
 11
3120.8473265118150266
 21
233.8425682559507948
 31
0.0
  0
ARC
  5
3C3E5
  8
0
 10
3120.8610588429510244
 20
233.8454482791833016
 30
0.0
 40
0.01
 50
68.1195785705601793
 51
147.2999997721537113
  0
LINE
  5
3C3E6
  8
0
 10
3120.7887064601641214
 20
234.2133801166926901
 30
0.0
 11
3121.0148909772437946
 21
234.2086987215548106
 31
0.0
  0
ARC
  5
3C3E7
  8
0
 10
3121.0144833289277813
 20
234.1890029397004866
 30
0.0
 40
0.0197
 50
0.0000000000211698
 51
88.8143048131635453
  0
ARC
  5
3C3E8
  8
0
 10
3119.4330430128861735
 20
216.9032084098838027
 30
0.0
 40
13.8098236084979806
 50
87.1172857433588206
 51
92.3843731389643779
  0
ARC
  5
3C3E9
  8
0
 10
3120.1982196168391965
 20
231.4587326187341034
 30
0.0
 40
0.7523805311368277
 50
241.1759866881745893
 51
264.643870019743872
  0
ARC
  5
3C3EA
  8
0
 10
3120.0140288289148884
 20
231.1240231850869975
 30
0.0
 40
0.3703377961866612
 50
186.7427504599623944
 51
241.1759866881745893
  0
ARC
  5
3C3EB
  8
0
 10
3120.6751852368161053
 20
231.2890200710521924
 30
0.0
 40
1.0498409129210371
 50
179.1414863834787923
 51
191.454016234293789
  0
ARC
  5
3C3EC
  8
0
 10
3120.6224819187868889
 20
231.3201335275005022
 30
0.0
 40
0.9971384138426518
 50
164.5458782366694948
 51
180.8839652573618082
  0
ARC
  5
3C3ED
  8
0
 10
3120.0905237821089031
 20
231.4428952630289871
 30
0.0
 40
0.4523088187427288
 50
116.7829980083396038
 51
161.5770913362217982
  0
ARC
  5
3C3EE
  8
0
 10
3120.2494763428630904
 20
230.8319788189677126
 30
0.0
 40
1.0775991715125861
 50
94.7886889765942442
 51
109.6726155946632986
  0
LINE
  5
3C3EF
  8
0
 10
3120.763247895728
 20
231.7260100511711869
 30
0.0
 11
3120.763247895728
 21
231.8839793671394034
 31
0.0
  0
ARC
  5
3C3F0
  8
0
 10
3120.396576337866918
 20
231.8848250185621112
 30
0.0
 40
0.3666725330193996
 50
359.8678594659934902
 51
17.2960682667371017
  0
LINE
  5
3C3F1
  8
0
 10
3118.0027297856281621
 20
232.3139365603711894
 30
0.0
 11
3117.5302038013278434
 21
232.3139365603711894
 31
0.0
  0
LINE
  5
3C3F2
  8
0
 10
3117.6384715179278828
 20
232.0934641193711911
 30
0.0
 11
3117.8944620690281226
 21
232.0934641193711911
 31
0.0
  0
LINE
  5
3C3F3
  8
0
 10
3117.6286715179280691
 20
232.1032641193712038
 30
0.0
 11
3117.6286715179280691
 21
232.2942365603711892
 31
0.0
  0
LINE
  5
3C3F4
  8
0
 10
3117.6877266360279464
 20
232.0934641193711911
 30
0.0
 11
3117.6877266360279464
 21
231.9080306926672108
 31
0.0
  0
LINE
  5
3C3F5
  8
0
 10
3117.5204038013280297
 20
232.3237365603712021
 30
0.0
 11
3117.5204038013280297
 21
232.7194334107711882
 31
0.0
  0
ARC
  5
3C3F6
  8
0
 10
3117.6384715179278828
 20
232.1032641193712038
 30
0.0
 40
0.0098
 50
180.0000000000308944
 51
269.9999999999478746
  0
ARC
  5
3C3F7
  8
0
 10
3117.6089715179277846
 20
232.2942365603711892
 30
0.0
 40
0.0197
 50
0.0000000000162844
 51
89.9999999999739515
  0
ARC
  5
3C3F8
  8
0
 10
3117.5302038013278434
 20
232.3237365603712021
 30
0.0
 40
0.0098
 50
180.0000000000472085
 51
269.9999999999478746
  0
LINE
  5
3C3F9
  8
0
 10
3117.5401038013278594
 20
232.7391334107711884
 30
0.0
 11
3117.9928297856281461
 21
232.7391334107711884
 31
0.0
  0
ARC
  5
3C3FA
  8
0
 10
3117.5401038013278594
 20
232.7194334107711882
 30
0.0
 40
0.0197
 50
90.0
 51
180.0000000000048885
  0
LINE
  5
3C3FB
  8
0
 10
3117.9042620690279364
 20
232.1032641193712038
 30
0.0
 11
3117.9042620690279364
 21
232.2942365603711892
 31
0.0
  0
LINE
  5
3C3FC
  8
0
 10
3117.8452069509280591
 20
232.0934641193711911
 30
0.0
 11
3117.8452069509280591
 21
231.9080314195132928
 31
0.0
  0
LINE
  5
3C3FD
  8
0
 10
3118.0125297856279758
 20
232.3237365603712021
 30
0.0
 11
3118.0125297856279758
 21
232.7194334107711882
 31
0.0
  0
ARC
  5
3C3FE
  8
0
 10
3117.8944620690281226
 20
232.1032641193712038
 30
0.0
 40
0.0098
 50
270.0000000000521254
 51
359.9999999999690772
  0
ARC
  5
3C3FF
  8
0
 10
3117.9239620690282209
 20
232.2942365603711892
 30
0.0
 40
0.0197
 50
90.0000000000260485
 51
179.9999999999836859
  0
ARC
  5
3C400
  8
0
 10
3118.0027297856281621
 20
232.3237365603712021
 30
0.0
 40
0.0098
 50
270.0000000000521254
 51
359.99999999995282
  0
ARC
  5
3C401
  8
0
 10
3117.9928297856281461
 20
232.7194334107711882
 30
0.0
 40
0.0197
 50
359.9999999999951115
 51
90.0
  0
ARC
  5
3C402
  8
0
 10
3117.7664640260541091
 20
232.5076282346184939
 30
0.0
 40
0.604745226440027
 50
262.2374085096917042
 51
277.7625914903082958
  0
LINE
  5
3C403
  8
0
 10
3120.9910833289281982
 20
230.6850975453712067
 30
0.0
 11
3120.709909175986013
 21
230.6850975453712067
 31
0.0
  0
LINE
  5
3C404
  8
0
 10
3121.0341833289280657
 20
230.728197545371188
 30
0.0
 11
3121.0341833289280657
 21
230.7338840670211937
 31
0.0
  0
ARC
  5
3C405
  8
0
 10
3120.9910833289281982
 20
230.728197545371188
 30
0.0
 40
0.0431
 50
270.0
 51
0.0
  0
LINE
  5
3C406
  8
0
 10
3116.4582937467921511
 20
230.8967428867373997
 30
0.0
 11
3116.1830107481109735
 21
230.9452827528963894
 31
0.0
  0
ARC
  5
3C407
  8
0
 10
3116.3135409859419269
 20
231.2623260476813982
 30
0.0
 40
0.3997931685551829
 50
238.1341778214647036
 51
252.9886067572236925
  0
LINE
  5
3C408
  8
0
 10
3116.1733778426910249
 20
230.9298361872627083
 30
0.0
 11
3116.1707597153008464
 21
230.9149880629373115
 31
0.0
  0
LINE
  5
3C409
  8
0
 10
3116.1705259961090633
 20
230.9136625767833095
 30
0.0
 11
3116.1686175694890153
 21
230.9028393617506936
 31
0.0
  0
LINE
  5
3C40A
  8
0
 10
3116.1684724885940341
 20
230.9020165678840897
 30
0.0
 11
3116.1672428913771
 21
230.8950431820881022
 31
0.0
  0
LINE
  5
3C40B
  8
0
 10
3116.1671477924351166
 20
230.8945038496937912
 30
0.0
 11
3116.166551831247034
 21
230.8911239890136926
 31
0.0
  0
LINE
  5
3C40C
  8
0
 10
3116.173696502571147
 20
230.9316433955544881
 30
0.0
 11
3116.1758484585270708
 21
230.9438477327807959
 31
0.0
  0
LINE
  5
3C40D
  8
0
 10
3116.1541505673149004
 20
230.8988310629187879
 30
0.0
 11
3116.1538043578211727
 21
230.8968676131522955
 31
0.0
  0
LINE
  5
3C40E
  8
0
 10
3116.1546546875160857
 20
230.9016900679625905
 30
0.0
 11
3116.1553428465299476
 21
230.9055928079945943
 31
0.0
  0
LINE
  5
3C40F
  8
0
 10
3116.1562061108320449
 20
230.910488618530394
 30
0.0
 11
3116.157259486194107
 21
230.9164626014593864
 31
0.0
  0
LINE
  5
3C410
  8
0
 10
3116.1584913766209866
 20
230.9234489926749063
 30
0.0
 11
3116.1599685068540566
 21
230.931826206634895
 31
0.0
  0
LINE
  5
3C411
  8
0
 10
3116.1553589374470903
 20
230.9339337543763975
 30
0.0
 11
3116.1538863158430104
 21
230.9255821103440951
 31
0.0
  0
LINE
  5
3C412
  8
0
 10
3116.1526505321448894
 20
230.918573639523288
 30
0.0
 11
3116.1515862403871324
 21
230.912537746874392
 31
0.0
  0
LINE
  5
3C413
  8
0
 10
3116.1507315542489778
 20
230.9076905856196902
 30
0.0
 11
3116.150041846881777
 21
230.9037790645622863
 31
0.0
  0
LINE
  5
3C414
  8
0
 10
3116.1495419176649193
 20
230.9009438278285984
 30
0.0
 11
3116.149202455950217
 21
230.8990186466442083
 31
0.0
  0
LINE
  5
3C415
  8
0
 10
3116.1384919396159603
 20
230.9346075126319136
 30
0.0
 11
3116.1333494269938456
 21
230.9054429019496979
 31
0.0
  0
LINE
  5
3C416
  8
0
 10
3116.1378083223521571
 20
230.9344103515740869
 30
0.0
 11
3116.1327537194588331
 21
230.9057443012316071
 31
0.0
  0
LINE
  5
3C417
  8
0
 10
3116.1173894378030127
 20
230.9149403775093958
 30
0.0
 11
3116.1177315393629215
 21
230.9168805300220129
 31
0.0
  0
LINE
  5
3C418
  8
0
 10
3116.1182370267802071
 20
230.9197472888843947
 30
0.0
 11
3116.1189556593121779
 21
230.9238228526184002
 31
0.0
  0
LINE
  5
3C419
  8
0
 10
3116.119824983520175
 20
230.9287530304964946
 30
0.0
 11
3116.1198431147849988
 21
230.9288558579154085
 31
0.0
  0
LINE
  5
3C41A
  8
0
 10
3116.1144677554780174
 20
230.9266203998527089
 30
0.0
 11
3116.113751327117825
 21
230.9225573365432069
 31
0.0
  0
LINE
  5
3C41B
  8
0
 10
3116.1132416835139338
 20
230.9196670067516948
 30
0.0
 11
3116.1128794879900852
 21
230.9176128957936101
 31
0.0
  0
LINE
  5
3C41C
  8
0
 10
3116.1733778426910249
 20
230.9298361872627083
 30
0.0
 11
3116.1599685068540566
 21
230.931826206634895
 31
0.0
  0
LINE
  5
3C41D
  8
0
 10
3116.173696502571147
 20
230.9316433955544881
 30
0.0
 11
3116.1620817076591266
 21
230.9407886399222889
 31
0.0
  0
LINE
  5
3C41E
  8
0
 10
3116.1707597153008464
 20
230.9149880629373115
 30
0.0
 11
3116.1584913766209866
 21
230.9234489926749063
 31
0.0
  0
LINE
  5
3C41F
  8
0
 10
3116.1705259961090633
 20
230.9136625767833095
 30
0.0
 11
3116.157259486194107
 21
230.9164626014593864
 31
0.0
  0
LINE
  5
3C420
  8
0
 10
3116.1686175694890153
 20
230.9028393617506936
 30
0.0
 11
3116.1562061108320449
 21
230.910488618530394
 31
0.0
  0
LINE
  5
3C421
  8
0
 10
3116.1684724885940341
 20
230.9020165678840897
 30
0.0
 11
3116.1553428465299476
 21
230.9055928079945943
 31
0.0
  0
LINE
  5
3C422
  8
0
 10
3116.1672428913771
 20
230.8950431820881022
 30
0.0
 11
3116.1546546875160857
 21
230.9016900679625905
 31
0.0
  0
LINE
  5
3C423
  8
0
 10
3116.1671477924351166
 20
230.8945038496937912
 30
0.0
 11
3116.1541505673149004
 21
230.8988310629187879
 31
0.0
  0
LINE
  5
3C424
  8
0
 10
3116.166551831247034
 20
230.8911239890136926
 30
0.0
 11
3116.1538043578211727
 21
230.8968676131522955
 31
0.0
  0
LINE
  5
3C425
  8
0
 10
3116.149202455950217
 20
230.8990186466442083
 30
0.0
 11
3116.133370604762149
 21
230.905563006925604
 31
0.0
  0
LINE
  5
3C426
  8
0
 10
3116.1340829044320344
 20
230.9096026552651892
 30
0.0
 11
3116.1495419176649193
 21
230.9009438278285984
 31
0.0
  0
LINE
  5
3C427
  8
0
 10
3116.1340829044320344
 20
230.9096026552651892
 30
0.0
 11
3116.150041846881777
 21
230.9037790645622863
 31
0.0
  0
LINE
  5
3C428
  8
0
 10
3116.1354720632498356
 20
230.9174809589459869
 30
0.0
 11
3116.1507315542489778
 21
230.9076905856196902
 31
0.0
  0
LINE
  5
3C429
  8
0
 10
3116.1354720632498356
 20
230.9174809589459869
 30
0.0
 11
3116.1515862403871324
 21
230.912537746874392
 31
0.0
  0
LINE
  5
3C42A
  8
0
 10
3116.1376184501618809
 20
230.9296537124745896
 30
0.0
 11
3116.1526505321448894
 21
230.918573639523288
 31
0.0
  0
LINE
  5
3C42B
  8
0
 10
3116.1376184501618809
 20
230.9296537124745896
 30
0.0
 11
3116.1538863158430104
 21
230.9255821103440951
 31
0.0
  0
LINE
  5
3C42C
  8
0
 10
3116.1506890749719787
 20
230.9379534542237877
 30
0.0
 11
3116.1553589374470903
 21
230.9339337543763975
 31
0.0
  0
LINE
  5
3C42D
  8
0
 10
3116.1370361803019478
 20
230.9300313205490056
 30
0.0
 11
3116.1333350423042248
 21
230.9330947377875987
 31
0.0
  0
LINE
  5
3C42E
  8
0
 10
3116.1370361803019478
 20
230.9300313205490056
 30
0.0
 11
3116.1302573671468963
 21
230.9321637800273095
 31
0.0
  0
LINE
  5
3C42F
  8
0
 10
3116.1349041839071106
 20
230.9179401796048978
 30
0.0
 11
3116.119824983520175
 21
230.9287530304964946
 31
0.0
  0
LINE
  5
3C430
  8
0
 10
3116.1349041839071106
 20
230.9179401796048978
 30
0.0
 11
3116.1189556593121779
 21
230.9238228526184002
 31
0.0
  0
LINE
  5
3C431
  8
0
 10
3116.1335137934288468
 20
230.9100548908342034
 30
0.0
 11
3116.1182370267802071
 21
230.9197472888843947
 31
0.0
  0
LINE
  5
3C432
  8
0
 10
3116.1335137934288468
 20
230.9100548908342034
 30
0.0
 11
3116.1177315393629215
 21
230.9168805300220129
 31
0.0
  0
LINE
  5
3C433
  8
0
 10
3116.1328282044269145
 20
230.9061667260758099
 30
0.0
 11
3116.1173894378030127
 21
230.9149403775093958
 31
0.0
  0
LINE
  5
3C434
  8
0
 10
3116.1128794879900852
 20
230.9176128957936101
 30
0.0
 11
3116.1031030815570375
 21
230.9230178816698924
 31
0.0
  0
LINE
  5
3C435
  8
0
 10
3116.1132306646268262
 20
230.9196045155979107
 30
0.0
 11
3116.1065622211340269
 21
230.9242777481674977
 31
0.0
  0
LINE
  5
3C436
  8
0
 10
3116.113751327117825
 20
230.9225573365432069
 30
0.0
 11
3116.1086802634340529
 21
230.9250352957739949
 31
0.0
  0
LINE
  5
3C437
  8
0
 10
3116.1144677554780174
 20
230.9266203998527089
 30
0.0
 11
3116.114085877639809
 21
230.9269213136491885
 31
0.0
  0
LINE
  5
3C438
  8
0
 10
3116.1965767530300582
 20
230.8800251899228897
 30
0.0
 11
3116.2073273976939163
 21
230.9409950674169067
 31
0.0
  0
ARC
  5
3C439
  8
0
 10
3116.3159018229498542
 20
231.2619097680239975
 30
0.0
 40
0.3997931685551829
 50
267.0113746151379246
 51
292.2133643709660191
  0
LINE
  5
3C43A
  8
0
 10
3116.3338937474909471
 20
230.901532875509389
 30
0.0
 11
3116.3312756200421063
 21
230.8866847511943092
 31
0.0
  0
LINE
  5
3C43B
  8
0
 10
3116.3310419008457757
 20
230.8853592650411031
 30
0.0
 11
3116.3291334741838909
 21
230.8745360500159904
 31
0.0
  0
LINE
  5
3C43C
  8
0
 10
3116.3289883932861812
 20
230.8737132561498981
 30
0.0
 11
3116.3277587960410528
 21
230.8667398703589129
 31
0.0
  0
LINE
  5
3C43D
  8
0
 10
3116.3276636970967957
 20
230.8662005379649997
 30
0.0
 11
3116.3270677358950707
 21
230.8628206772870897
 31
0.0
  0
LINE
  5
3C43E
  8
0
 10
3116.3342124073788
 20
230.9033400837998897
 30
0.0
 11
3116.3368257363549674
 21
230.9181609946512026
 31
0.0
  0
LINE
  5
3C43F
  8
0
 10
3116.3413570875968617
 20
230.8658214710507934
 30
0.0
 11
3116.3410108780949486
 21
230.8638580212856084
 31
0.0
  0
LINE
  5
3C440
  8
0
 10
3116.3418612078071419
 20
230.8686804760928055
 30
0.0
 11
3116.342549366835101
 21
230.8725832161223082
 31
0.0
  0
LINE
  5
3C441
  8
0
 10
3116.343412631154024
 20
230.8774790266550099
 30
0.0
 11
3116.3444660065388234
 21
230.8834530095801938
 31
0.0
  0
LINE
  5
3C442
  8
0
 10
3116.3456978969911688
 20
230.8904394007911947
 30
0.0
 11
3116.3471750272537975
 21
230.8988166147458969
 31
0.0
  0
LINE
  5
3C443
  8
0
 10
3116.3488203113870441
 20
230.9081474757660999
 30
0.0
 11
3116.3501710441528303
 21
230.915807854584699
 31
0.0
  0
LINE
  5
3C444
  8
0
 10
3116.3550020299089738
 20
230.9149560206431033
 30
0.0
 11
3116.3539076853339793
 21
230.9087496899329892
 31
0.0
  0
LINE
  5
3C445
  8
0
 10
3116.3522274295228272
 20
230.8992204945747062
 30
0.0
 11
3116.3507548079742264
 21
230.890868850532712
 31
0.0
  0
LINE
  5
3C446
  8
0
 10
3116.3495190243211255
 20
230.88386037970389
 30
0.0
 11
3116.348454732602022
 21
230.8778244870480876
 31
0.0
  0
LINE
  5
3C447
  8
0
 10
3116.3476000464961544
 20
230.8729773257879003
 30
0.0
 11
3116.3469103391548742
 21
230.8690658047258921
 31
0.0
  0
LINE
  5
3C448
  8
0
 10
3116.3464104099548422
 20
230.8662305679889926
 30
0.0
 11
3116.3460709482528728
 21
230.864305386802414
 31
0.0
  0
LINE
  5
3C449
  8
0
 10
3116.3714756441941063
 20
230.9120512752149068
 30
0.0
 11
3116.3631651475011495
 21
230.864920151313612
 31
0.0
  0
LINE
  5
3C44A
  8
0
 10
3116.3721049312839568
 20
230.9119403148168885
 30
0.0
 11
3116.3638280141271935
 21
230.8649996298028952
 31
0.0
  0
LINE
  5
3C44B
  8
0
 10
3116.3814109606501006
 20
230.8683862152907125
 30
0.0
 11
3116.3817530622100094
 21
230.8703263678035
 31
0.0
  0
LINE
  5
3C44C
  8
0
 10
3116.3822585496241118
 20
230.8731931266663082
 30
0.0
 11
3116.3829771821538088
 21
230.8772686904007969
 31
0.0
  0
LINE
  5
3C44D
  8
0
 10
3116.383846506358168
 20
230.8821988682794881
 30
0.0
 11
3116.384964565563223
 21
230.8885396911053078
 31
0.0
  0
LINE
  5
3C44E
  8
0
 10
3116.3862351807838422
 20
230.8957457012778889
 30
0.0
 11
3116.3877650582298884
 21
230.9044220591904946
 31
0.0
  0
LINE
  5
3C44F
  8
0
 10
3116.3929668491200573
 20
230.905673162452814
 30
0.0
 11
3116.3914233394061739
 21
230.8969194922821089
 31
0.0
  0
LINE
  5
3C450
  8
0
 10
3116.3901348679619332
 20
230.88961221462759
 30
0.0
 11
3116.3890371975348899
 21
230.8833870222765086
 31
0.0
  0
LINE
  5
3C451
  8
0
 10
3116.388151250131159
 20
230.8783625696983961
 30
0.0
 11
3116.3874348217568695
 21
230.8742995063913952
 31
0.0
  0
LINE
  5
3C452
  8
0
 10
3116.3869141592549568
 20
230.8713466854480032
 30
0.0
 11
3116.3865629826109398
 21
230.8693550656448963
 31
0.0
  0
LINE
  5
3C453
  8
0
 10
3116.426304082407114
 20
230.8983956765017069
 30
0.0
 11
3116.4251365653881294
 21
230.8917743647315035
 31
0.0
  0
LINE
  5
3C454
  8
0
 10
3116.42422368219286
 20
230.8865971517668072
 30
0.0
 11
3116.4234788684630075
 21
230.8823731071981058
 31
0.0
  0
LINE
  5
3C455
  8
0
 10
3116.4229523319268083
 20
230.8793869729450989
 30
0.0
 11
3116.422576773873061
 21
230.8772570793973955
 31
0.0
  0
LINE
  5
3C456
  8
0
 10
3116.4098831453870844
 20
230.905278990058406
 30
0.0
 11
3116.4040055034488432
 21
230.8719452579645122
 31
0.0
  0
LINE
  5
3C457
  8
0
 10
3116.410512432500127
 20
230.9051680296564939
 30
0.0
 11
3116.4046813899471999
 21
230.8720985751276942
 31
0.0
  0
LINE
  5
3C458
  8
0
 10
3116.4318170325677784
 20
230.9014114502820121
 30
0.0
 11
3116.4305090718821702
 21
230.8939936436750884
 31
0.0
  0
LINE
  5
3C459
  8
0
 10
3116.4295936319617795
 20
230.8888019308367916
 30
0.0
 11
3116.4287686770221626
 21
230.8841233833317119
 31
0.0
  0
LINE
  5
3C45A
  8
0
 10
3116.4282518886411708
 20
230.881192533563194
 30
0.0
 11
3116.4278628446500079
 21
230.8789861575519922
 31
0.0
  0
LINE
  5
3C45B
  8
0
 10
3116.4482906466728309
 20
230.8985067048855058
 30
0.0
 11
3116.4456923242828452
 21
230.8837709001630003
 31
0.0
  0
LINE
  5
3C45C
  8
0
 10
3116.4489199337458558
 20
230.8983957444905002
 30
0.0
 11
3116.4463831085281527
 21
230.8840087072454992
 31
0.0
  0
LINE
  5
3C45D
  8
0
 10
3116.4646459369409968
 20
230.8912510905917941
 30
0.0
 11
3116.4649520582338482
 21
230.8929871890354946
 31
0.0
  0
LINE
  5
3C45E
  8
0
 10
3116.3338937474909471
 20
230.901532875509389
 30
0.0
 11
3116.3471750272537975
 21
230.8988166147458969
 31
0.0
  0
LINE
  5
3C45F
  8
0
 10
3116.3342124073788
 20
230.9033400837998897
 30
0.0
 11
3116.3488203113870441
 21
230.9081474757660999
 31
0.0
  0
LINE
  5
3C460
  8
0
 10
3116.3312756200421063
 20
230.8866847511943092
 30
0.0
 11
3116.3456978969911688
 21
230.8904394007911947
 31
0.0
  0
LINE
  5
3C461
  8
0
 10
3116.3310419008457757
 20
230.8853592650411031
 30
0.0
 11
3116.3444660065388234
 21
230.8834530095801938
 31
0.0
  0
LINE
  5
3C462
  8
0
 10
3116.3291334741838909
 20
230.8745360500159904
 30
0.0
 11
3116.343412631154024
 21
230.8774790266550099
 31
0.0
  0
LINE
  5
3C463
  8
0
 10
3116.3289883932861812
 20
230.8737132561498981
 30
0.0
 11
3116.342549366835101
 21
230.8725832161223082
 31
0.0
  0
LINE
  5
3C464
  8
0
 10
3116.3277587960410528
 20
230.8667398703589129
 30
0.0
 11
3116.3418612078071419
 21
230.8686804760928055
 31
0.0
  0
LINE
  5
3C465
  8
0
 10
3116.3276636970967957
 20
230.8662005379649997
 30
0.0
 11
3116.3413570875968617
 21
230.8658214710507934
 31
0.0
  0
LINE
  5
3C466
  8
0
 10
3116.3270677358950707
 20
230.8628206772870897
 30
0.0
 11
3116.3410108780949486
 21
230.8638580212856084
 31
0.0
  0
LINE
  5
3C467
  8
0
 10
3116.3460709482528728
 20
230.864305386802414
 30
0.0
 11
3116.3631863252689982
 21
230.8650402562894044
 31
0.0
  0
LINE
  5
3C468
  8
0
 10
3116.3638986249420668
 20
230.8690799046285065
 30
0.0
 11
3116.3464104099548422
 21
230.8662305679889926
 31
0.0
  0
LINE
  5
3C469
  8
0
 10
3116.3638986249420668
 20
230.8690799046285065
 30
0.0
 11
3116.3469103391548742
 21
230.8690658047258921
 31
0.0
  0
LINE
  5
3C46A
  8
0
 10
3116.365287783767144
 20
230.8769582083081957
 30
0.0
 11
3116.3476000464961544
 21
230.8729773257879003
 31
0.0
  0
LINE
  5
3C46B
  8
0
 10
3116.365287783767144
 20
230.8769582083081957
 30
0.0
 11
3116.348454732602022
 21
230.8778244870480876
 31
0.0
  0
LINE
  5
3C46C
  8
0
 10
3116.3674341706891937
 20
230.8891309618352068
 30
0.0
 11
3116.3495190243211255
 21
230.88386037970389
 31
0.0
  0
LINE
  5
3C46D
  8
0
 10
3116.3674341706891937
 20
230.8891309618352068
 30
0.0
 11
3116.3507548079742264
 21
230.890868850532712
 31
0.0
  0
LINE
  5
3C46E
  8
0
 10
3116.370427197743993
 20
230.9061052455884919
 30
0.0
 11
3116.3522274295228272
 21
230.8992204945747062
 31
0.0
  0
LINE
  5
3C46F
  8
0
 10
3116.370427197743993
 20
230.9061052455884919
 30
0.0
 11
3116.3539076853339793
 21
230.9087496899329892
 31
0.0
  0
LINE
  5
3C470
  8
0
 10
3116.3710917265320859
 20
230.9061941506078881
 30
0.0
 11
3116.3877650582298884
 21
230.9044220591904946
 31
0.0
  0
LINE
  5
3C471
  8
0
 10
3116.3710917265320859
 20
230.9061941506078881
 30
0.0
 11
3116.3809592467400762
 21
230.9103790586229081
 31
0.0
  0
LINE
  5
3C472
  8
0
 10
3116.3681104749980477
 20
230.8892866491152063
 30
0.0
 11
3116.3862351807838422
 21
230.8957457012778889
 31
0.0
  0
LINE
  5
3C473
  8
0
 10
3116.3681104749980477
 20
230.8892866491152063
 30
0.0
 11
3116.384964565563223
 21
230.8885396911053078
 31
0.0
  0
LINE
  5
3C474
  8
0
 10
3116.3659784785891134
 20
230.8771955081735996
 30
0.0
 11
3116.383846506358168
 21
230.8821988682794881
 31
0.0
  0
LINE
  5
3C475
  8
0
 10
3116.3659784785891134
 20
230.8771955081735996
 30
0.0
 11
3116.3829771821538088
 21
230.8772686904007969
 31
0.0
  0
LINE
  5
3C476
  8
0
 10
3116.3645880881022094
 20
230.8693102194044968
 30
0.0
 11
3116.3822585496241118
 21
230.8731931266663082
 31
0.0
  0
LINE
  5
3C477
  8
0
 10
3116.3645880881022094
 20
230.8693102194044968
 30
0.0
 11
3116.3817530622100094
 21
230.8703263678035
 31
0.0
  0
LINE
  5
3C478
  8
0
 10
3116.3639024990961843
 20
230.8654220546470128
 30
0.0
 11
3116.3814109606501006
 21
230.8683862152907125
 31
0.0
  0
LINE
  5
3C479
  8
0
 10
3116.3865629826109398
 20
230.8693550656448963
 30
0.0
 11
3116.4040331783421607
 21
230.8721022099263962
 31
0.0
  0
LINE
  5
3C47A
  8
0
 10
3116.3869141592549568
 20
230.8713466854480032
 30
0.0
 11
3116.4047436790929169
 21
230.8761316560809007
 31
0.0
  0
LINE
  5
3C47B
  8
0
 10
3116.3874348217568695
 20
230.8742995063913952
 30
0.0
 11
3116.4047436790929169
 21
230.8761316560809007
 31
0.0
  0
LINE
  5
3C47C
  8
0
 10
3116.388151250131159
 20
230.8783625696983961
 30
0.0
 11
3116.4061848269998336
 21
230.8843048042180044
 31
0.0
  0
LINE
  5
3C47D
  8
0
 10
3116.3890371975348899
 20
230.8833870222765086
 30
0.0
 11
3116.4061848269998336
 21
230.8843048042180044
 31
0.0
  0
LINE
  5
3C47E
  8
0
 10
3116.3901348679619332
 20
230.88961221462759
 30
0.0
 11
3116.4084126304242091
 21
230.8969392932334017
 31
0.0
  0
LINE
  5
3C47F
  8
0
 10
3116.3914233394061739
 20
230.8969194922821089
 30
0.0
 11
3116.4084126304242091
 21
230.8969392932334017
 31
0.0
  0
LINE
  5
3C480
  8
0
 10
3116.3929668491200573
 20
230.905673162452814
 30
0.0
 11
3116.3970517001639564
 21
230.9075415222023935
 31
0.0
  0
LINE
  5
3C481
  8
0
 10
3116.4091242086601596
 20
230.8972950284336036
 30
0.0
 11
3116.426304082407114
 21
230.8983956765017069
 31
0.0
  0
LINE
  5
3C482
  8
0
 10
3116.4091242086601596
 20
230.8972950284336036
 30
0.0
 11
3116.4218381843270436
 21
230.9031709921349886
 31
0.0
  0
LINE
  5
3C483
  8
0
 10
3116.4068953474311456
 20
230.8846545401538037
 30
0.0
 11
3116.4251365653881294
 21
230.8917743647315035
 31
0.0
  0
LINE
  5
3C484
  8
0
 10
3116.4068953474311456
 20
230.8846545401538037
 30
0.0
 11
3116.42422368219286
 21
230.8865971517668072
 31
0.0
  0
LINE
  5
3C485
  8
0
 10
3116.4054493831349646
 20
230.8764540768339941
 30
0.0
 11
3116.4234788684630075
 21
230.8823731071981058
 31
0.0
  0
LINE
  5
3C486
  8
0
 10
3116.4054493831349646
 20
230.8764540768339941
 30
0.0
 11
3116.4229523319268083
 21
230.8793869729450989
 31
0.0
  0
LINE
  5
3C487
  8
0
 10
3116.4047398454881659
 20
230.8724300926596129
 30
0.0
 11
3116.422576773873061
 21
230.8772570793973955
 31
0.0
  0
LINE
  5
3C488
  8
0
 10
3116.4435095476301285
 20
230.8830287230697991
 30
0.0
 11
3116.4278628446500079
 21
230.8789861575519922
 31
0.0
  0
LINE
  5
3C489
  8
0
 10
3116.446429284379974
 20
230.8879504046446982
 30
0.0
 11
3116.4282518886411708
 21
230.881192533563194
 31
0.0
  0
LINE
  5
3C48A
  8
0
 10
3116.446429284379974
 20
230.8879504046446982
 30
0.0
 11
3116.4287686770221626
 21
230.8841233833317119
 31
0.0
  0
LINE
  5
3C48B
  8
0
 10
3116.4479990011950576
 20
230.8968527027423079
 30
0.0
 11
3116.4295936319617795
 21
230.8888019308367916
 31
0.0
  0
LINE
  5
3C48C
  8
0
 10
3116.4479990011950576
 20
230.8968527027423079
 30
0.0
 11
3116.4305090718821702
 21
230.8939936436750884
 31
0.0
  0
LINE
  5
3C48D
  8
0
 10
3116.4520832447451539
 20
230.8978379668832019
 30
0.0
 11
3116.448691186889846
 21
230.8970984578243133
 31
0.0
  0
LINE
  5
3C48E
  8
0
 10
3116.4506735606578331
 20
230.8980865324579952
 30
0.0
 11
3116.448691186889846
 21
230.8970984578243133
 31
0.0
  0
LINE
  5
3C48F
  8
0
 10
3116.4616897688551944
 20
230.8948379214367037
 30
0.0
 11
3116.4471635560321374
 21
230.8884348408365952
 31
0.0
  0
LINE
  5
3C490
  8
0
 10
3116.4644499844889651
 20
230.8932733536458102
 30
0.0
 11
3116.4471635560321374
 21
230.8884348408365952
 31
0.0
  0
LINE
  5
3C491
  8
0
 10
3116.4464076545109492
 20
230.8841479143030142
 30
0.0
 11
3116.4646459369409968
 21
230.8912510905917941
 31
0.0
  0
LINE
  5
3C492
  8
0
 10
3116.2950575255467811
 20
230.8626603561405943
 30
0.0
 11
3116.3058081701487936
 21
230.9236302336456959
 31
0.0
  0
LINE
  5
3C493
  8
0
 10
3116.2562531404469155
 20
230.932368130714309
 30
0.0
 11
3116.2557976360380962
 21
230.9297848396433039
 31
0.0
  0
LINE
  5
3C494
  8
0
 10
3116.2557976360380962
 20
230.9297848396433039
 30
0.0
 11
3116.2540193441877818
 21
230.9296309311374102
 31
0.0
  0
LINE
  5
3C495
  8
0
 10
3116.2540193441877818
 20
230.9296309311374102
 30
0.0
 11
3116.2195435460571389
 21
230.9365760798469012
 31
0.0
  0
LINE
  5
3C496
  8
0
 10
3116.2195435460571389
 20
230.9365760798469012
 30
0.0
 11
3116.2182085427339189
 21
230.9375187208661941
 31
0.0
  0
LINE
  5
3C497
  8
0
 10
3116.2182085427339189
 20
230.9375187208661941
 30
0.0
 11
3116.2184749262210062
 21
230.9390294555001901
 31
0.0
  0
LINE
  5
3C498
  8
0
 10
3116.2182085427339189
 20
230.9375187208661941
 30
0.0
 11
3116.2243265086449355
 21
230.937997662657807
 31
0.0
  0
LINE
  5
3C499
  8
0
 10
3116.2540193999097937
 20
230.9296309360275927
 30
0.0
 11
3116.2465206233491699
 21
230.9340842377008016
 31
0.0
  0
LINE
  5
3C49A
  8
0
 10
3116.2178456391461623
 20
230.9391404158957073
 30
0.0
 11
3116.2175918906018524
 21
230.9377013377240928
 31
0.0
  0
LINE
  5
3C49B
  8
0
 10
3116.2175918906018524
 20
230.9377013377240928
 30
0.0
 11
3116.2153710705561025
 21
230.9375606225989941
 31
0.0
  0
LINE
  5
3C49C
  8
0
 10
3116.2153710705561025
 20
230.9375606225989941
 30
0.0
 11
3116.2070580658869403
 21
230.9394676122934982
 31
0.0
  0
LINE
  5
3C49D
  8
0
 10
3116.2175918906018524
 20
230.9377013377240928
 30
0.0
 11
3116.214855869981875
 21
230.9396675933666927
 31
0.0
  0
LINE
  5
3C49E
  8
0
 10
3116.2568824273948849
 20
230.9322571703411882
 30
0.0
 11
3116.2564269231038452
 21
230.9296738792494068
 31
0.0
  0
LINE
  5
3C49F
  8
0
 10
3116.2564269231038452
 20
230.9296738792494068
 30
0.0
 11
3116.2580453307791686
 21
230.9289210404027983
 31
0.0
  0
LINE
  5
3C4A0
  8
0
 10
3116.2580453307791686
 20
230.9289210404027983
 30
0.0
 11
3116.29281736292387
 21
230.9236559166720895
 31
0.0
  0
LINE
  5
3C4A1
  8
0
 10
3116.29281736292387
 20
230.9236559166720895
 30
0.0
 11
3116.2943942580518524
 21
230.9240851109416042
 31
0.0
  0
LINE
  5
3C4A2
  8
0
 10
3116.2943942580518524
 20
230.9240851109416042
 30
0.0
 11
3116.2946606416230679
 21
230.9255958455607924
 31
0.0
  0
LINE
  5
3C4A3
  8
0
 10
3116.2943942580518524
 20
230.9240851109416042
 30
0.0
 11
3116.2888090591977743
 21
230.9266276384024081
 31
0.0
  0
LINE
  5
3C4A4
  8
0
 10
3116.2580452800898456
 20
230.9289210640559133
 30
0.0
 11
3116.2666149444930852
 21
230.9305410633560882
 31
0.0
  0
LINE
  5
3C4A5
  8
0
 10
3116.2952899286970023
 20
230.925484885165389
 30
0.0
 11
3116.2950361801417785
 21
230.9240458069959914
 31
0.0
  0
LINE
  5
3C4A6
  8
0
 10
3116.2950361801417785
 20
230.9240458069959914
 30
0.0
 11
3116.2970749406531468
 21
230.9231540121780881
 31
0.0
  0
LINE
  5
3C4A7
  8
0
 10
3116.2970749406531468
 20
230.9231540121780881
 30
0.0
 11
3116.3055388383440913
 21
230.9221027785218894
 31
0.0
  0
LINE
  5
3C4A8
  8
0
 10
3116.2950361801417785
 20
230.9240458069959914
 30
0.0
 11
3116.2982796978608349
 21
230.9249577076948867
 31
0.0
  0
ENDSEC
  0
EOF
