  0
SECTION
  2
HEADER
  9
$ACADVER
  1
AC1009
  9
$INSBASE
 10
3571.8339523811600884
 20
134.0130461911070938
 30
0.0
  9
$EXTMIN
 10
3570.4201290580108434
 20
132.6487442307868037
 30
0.0
  9
$EXTMAX
 10
3571.8448774981188762
 20
135.3769347209868101
 30
0.0
  9
$LIMMIN
 10
0.0
 20
0.0
  9
$LIMMAX
 10
11.6929133858000007
 20
8.2677165353999982
  9
$ORTHOMODE
 70
     1
  9
$REGENMODE
 70
     1
  9
$FILLMODE
 70
     1
  9
$QTEXTMODE
 70
     0
  9
$MIRRTEXT
 70
     0
  9
$DRAGMODE
 70
     2
  9
$LTSCALE
 40
0.6431102362
  9
$OSMODE
 70
  2039
  9
$ATTMODE
 70
     1
  9
$TEXTSIZE
 40
0.2
  9
$TRACEWID
 40
0.05
  9
$TEXTSTYLE
  7
STANDARD
  9
$CLAYER
  8
0
  9
$CELTYPE
  6
BYLAYER
  9
$CECOLOR
 62
   256
  9
$DIMSCALE
 40
1.0
  9
$DIMASZ
 40
0.1875
  9
$DIMEXO
 40
0.0625
  9
$DIMDLI
 40
0.4443307087
  9
$DIMRND
 40
0.0
  9
$DIMDLE
 40
0.0
  9
$DIMEXE
 40
0.125
  9
$DIMTP
 40
0.01
  9
$DIMTM
 40
0.01
  9
$DIMTXT
 40
2.0
  9
$DIMCEN
 40
0.1052362205
  9
$DIMTSZ
 40
0.0
  9
$DIMTOL
 70
     1
  9
$DIMLIM
 70
     0
  9
$DIMTIH
 70
     1
  9
$DIMTOH
 70
     1
  9
$DIMSE1
 70
     0
  9
$DIMSE2
 70
     0
  9
$DIMTAD
 70
     0
  9
$DIMZIN
 70
     0
  9
$DIMBLK
  1

  9
$DIMASO
 70
     1
  9
$DIMSHO
 70
     1
  9
$DIMPOST
  1
\X
  9
$DIMAPOST
  1

  9
$DIMALT
 70
     1
  9
$DIMALTD
 70
     2
  9
$DIMALTF
 40
25.3999999999999986
  9
$DIMLFAC
 40
1.0
  9
$DIMTOFL
 70
     0
  9
$DIMTVP
 40
0.0
  9
$DIMTIX
 70
     0
  9
$DIMSOXD
 70
     0
  9
$DIMSAH
 70
     0
  9
$DIMBLK1
  1

  9
$DIMBLK2
  1

  9
$DIMSTYLE
  2
STANDARD
  9
$DIMCLRD
 70
     0
  9
$DIMCLRE
 70
     0
  9
$DIMCLRT
 70
     0
  9
$DIMTFAC
 40
1.0
  9
$DIMGAP
 40
0.09
  9
$LUNITS
 70
     2
  9
$LUPREC
 70
     4
  9
$SKETCHINC
 40
0.1
  9
$FILLETRAD
 40
0.0
  9
$AUNITS
 70
     0
  9
$AUPREC
 70
     0
  9
$MENU
  1
.
  9
$ELEVATION
 40
0.0
  9
$PELEVATION
 40
0.0
  9
$THICKNESS
 40
0.0
  9
$LIMCHECK
 70
     0
  9
$BLIPMODE
 70
     0
  9
$CHAMFERA
 40
0.0
  9
$CHAMFERB
 40
0.0
  9
$SKPOLY
 70
     0
  9
$TDCREATE
 40
2458060.468368056230247
  9
$TDUPDATE
 40
2459270.3829050930216908
  9
$TDINDWG
 40
0.3721945602
  9
$TDUSRTIMER
 40
0.3721945602
  9
$USRTIMER
 70
     1
  9
$ANGBASE
 50
0.0
  9
$ANGDIR
 70
     0
  9
$PDMODE
 70
     0
  9
$PDSIZE
 40
0.3125
  9
$PLINEWID
 40
0.0
  9
$COORDS
 70
     1
  9
$SPLFRAME
 70
     0
  9
$SPLINETYPE
 70
     6
  9
$SPLINESEGS
 70
     8
  9
$ATTDIA
 70
     1
  9
$ATTREQ
 70
     1
  9
$HANDLING
 70
     1
  9
$HANDSEED
  5
1C6BF
  9
$SURFTAB1
 70
     6
  9
$SURFTAB2
 70
     6
  9
$SURFTYPE
 70
     6
  9
$SURFU
 70
     6
  9
$SURFV
 70
     6
  9
$UCSNAME
  2

  9
$UCSORG
 10
0.0
 20
0.0
 30
0.0
  9
$UCSXDIR
 10
1.0
 20
0.0
 30
0.0
  9
$UCSYDIR
 10
0.0
 20
1.0
 30
0.0
  9
$PUCSNAME
  2

  9
$PUCSORG
 10
0.0
 20
0.0
 30
0.0
  9
$PUCSXDIR
 10
1.0
 20
0.0
 30
0.0
  9
$PUCSYDIR
 10
0.0
 20
1.0
 30
0.0
  9
$USERI1
 70
     0
  9
$USERI2
 70
     0
  9
$USERI3
 70
     0
  9
$USERI4
 70
     0
  9
$USERI5
 70
     0
  9
$USERR1
 40
0.0
  9
$USERR2
 40
0.0
  9
$USERR3
 40
0.0
  9
$USERR4
 40
0.0
  9
$USERR5
 40
0.0
  9
$WORLDVIEW
 70
     1
  9
$SHADEDGE
 70
     3
  9
$SHADEDIF
 70
    70
  9
$TILEMODE
 70
     1
  9
$MAXACTVP
 70
    64
  9
$PLIMCHECK
 70
     0
  9
$PEXTMIN
 10
1.0000000000000000E+20
 20
1.0000000000000000E+20
 30
1.0000000000000000E+20
  9
$PEXTMAX
 10
-1.0000000000000000E+20
 20
-1.0000000000000000E+20
 30
-1.0000000000000000E+20
  9
$PLIMMIN
 10
0.0
 20
0.0
  9
$PLIMMAX
 10
12.0
 20
9.0
  9
$UNITMODE
 70
     0
  9
$VISRETAIN
 70
     1
  9
$PLINEGEN
 70
     0
  9
$PSLTSCALE
 70
     1
  0
ENDSEC
  0
SECTION
  2
TABLES
  0
TABLE
  2
VPORT
 70
     1
  0
VPORT
  2
*ACTIVE
 70
     0
 10
0.0
 20
0.0
 11
1.0
 21
1.0
 12
-232.4115641047480949
 22
8.0175772791369422
 13
0.0
 23
0.0
 14
1.0
 24
1.0
 15
0.0
 25
0.0
 16
0.0
 26
0.0
 36
17.1152628219792007
 17
3803.5440673828129547
 27
125.9952621967499056
 37
0.0
 40
2.7508938784679668
 41
2.6486111111111108
 42
50.0
 43
0.0
 44
0.0
 50
0.0
 51
0.0
 71
     0
 72
   100
 73
     1
 74
     1
 75
     0
 76
     0
 77
     0
 78
     1
  0
ENDTAB
  0
TABLE
  2
LTYPE
 70
     2
  0
LTYPE
  2
CONTINUOUS
 70
     0
  3
Solid line
 72
    65
 73
     0
 40
0.0
  0
LTYPE
  2
PHANTOM2
 70
     0
  3
___ _ _ ___ _ _ ___ _ _ ___ _ _
 72
    65
 73
     6
 40
1.25
 49
0.625
 49
-0.125
 49
0.125
 49
-0.125
 49
0.125
 49
-0.125
  0
ENDTAB
  0
TABLE
  2
LAYER
 70
     2
  0
LAYER
  2
0
 70
     0
 62
   255
  6
CONTINUOUS
  0
LAYER
  2
DEFPOINTS
 70
     0
 62
     7
  6
CONTINUOUS
  0
ENDTAB
  0
TABLE
  2
STYLE
 70
     1
  0
STYLE
  2
STANDARD
 70
     0
 40
0.0
 41
0.8
 50
0.0
 71
     0
 42
0.2
  3
txt
  4

  0
ENDTAB
  0
TABLE
  2
VIEW
 70
     0
  0
ENDTAB
  0
TABLE
  2
UCS
 70
     0
  0
ENDTAB
  0
TABLE
  2
APPID
 70
     9
  0
APPID
  2
ACAD
 70
     0
  0
APPID
  2
ACAD_MLEADERVER
 70
     0
  0
APPID
  2
ACAD_EXEMPT_FROM_CAD_STANDARDS
 70
     0
  0
APPID
  2
ACAD_NAV_VCDISPLAY
 70
     0
  0
APPID
  2
ACAECLAYERSTANDARD
 70
     0
  0
APPID
  2
ACCMTRANSPARENCY
 70
     0
  0
APPID
  2
ACAD_DSTYLE_DIMJAG
 70
     0
  0
APPID
  2
ACAD_DSTYLE_DIMTALN
 70
     0
  0
APPID
  2
ACDBATTR
 70
     0
  0
ENDTAB
  0
TABLE
  2
DIMSTYLE
 70
     1
  0
DIMSTYLE
  2
STANDARD
 70
     0
  3

  4

  5

  6

  7

 40
1.0
 41
0.1875
 42
0.0625
 43
0.38
 44
0.125
 45
0.0
 46
0.0
 47
0.01
 48
0.01
140
0.15625
141
0.09
142
0.0
143
25.3999999999999986
144
1.0
145
0.0
146
1.0
147
0.09
 71
     1
 72
     0
 73
     1
 74
     1
 75
     0
 76
     0
 77
     0
 78
     4
170
     0
171
     2
172
     0
173
     0
174
     0
175
     0
176
     0
177
     0
178
     0
  0
ENDTAB
  0
ENDSEC
  0
SECTION
  2
BLOCKS
  0
BLOCK
  8
0
  2
$MODEL_SPACE
 70
     0
 10
0.0
 20
0.0
 30
0.0
  3
$MODEL_SPACE
  1

  0
ENDBLK
  5
21
  8
0
  0
BLOCK
 67
     1
  8
0
  2
$PAPER_SPACE
 70
     0
 10
0.0
 20
0.0
 30
0.0
  3
$PAPER_SPACE
  1

  0
ENDBLK
  5
1D
 67
     1
  8
0
  0
BLOCK
  8
0
  2
_FILLED
 70
     0
 10
0.0
 20
0.0
 30
0.0
  3
_FILLED
  1

  0
SOLID
  5
1BA72
  8
0
  6
BYBLOCK
 62
     0
 10
0.0
 20
0.0
 30
0.0
 11
-1.0
 21
0.1666666667
 31
0.0
 12
-1.0
 22
-0.1666666667
 32
0.0
 13
-1.0
 23
-0.1666666667
 33
0.0
  0
ENDBLK
  5
1BA73
  8
0
  6
BYBLOCK
 62
     0
  0
ENDSEC
  0
SECTION
  2
ENTITIES
  0
ATTDEF
  5
1BD74
  8
DEFPOINTS
 10
3571.8342108314500365
 20
134.0169053902116048
 30
0.0
 40
0.001
  1
K-28214
  3

  2
MODELNUMBER
 70
     0
1001
ACDBATTR
1070
     0
1070
     1
  0
ATTDEF
  5
1BD75
  8
DEFPOINTS
 10
3571.8342108314500365
 20
134.0152387235449112
 30
0.0
 40
0.001
  1

  3

  2
TRADENAME
 70
     0
1001
ACDBATTR
1070
     0
1070
     1
  0
ATTDEF
  5
1BD76
  8
DEFPOINTS
 10
3571.8342108314500365
 20
134.0135720568783029
 30
0.0
 40
0.001
  1
INTERFACE
  3

  2
PRODUCT
 70
     0
1001
ACDBATTR
1070
     0
1070
     1
  0
LINE
  5
1C51E
  8
0
 10
3571.8339523812110201
 20
132.7713995669070925
 30
0.0
 11
3571.8339523811109757
 21
135.2546928153070951
 31
0.0
  0
ARC
  5
1C51F
  8
0
 10
3571.7945823023560479
 20
135.2546928153055035
 30
0.0
 40
0.0393700787547573
 50
0.0000000023075051
 51
85.9998118210903755
  0
LINE
  5
1C520
  8
0
 10
3571.7973287492100098
 20
135.2939669815071113
 30
0.0
 11
3571.1174194685168004
 21
135.3412658690319006
 31
0.0
  0
ARC
  5
1C521
  8
0
 10
3571.1189154593857893
 20
135.3239977762025035
 30
0.0
 40
0.0173327729646476
 50
94.9513566694910338
 51
174.2824036796423002
  0
LINE
  5
1C522
  8
0
 10
3571.1016689166099241
 20
135.3257245596070959
 30
0.0
 11
3571.1016689166099241
 21
132.7003678237389863
 31
0.0
  0
ARC
  5
1C523
  8
0
 10
3571.1177819220579295
 20
132.7005266182383139
 30
0.0
 40
0.0161137878926445
 50
180.5646345817588951
 51
270.2210067574930008
  0
LINE
  5
1C524
  8
0
 10
3571.1178440775470335
 20
132.6844129502219118
 30
0.0
 11
3571.7973286202768577
 21
132.7321253917048125
 31
0.0
  0
ARC
  5
1C525
  8
0
 10
3571.7945823023528646
 20
132.7713995670609108
 30
0.0
 40
0.0393700788573755
 50
274.0000000675001957
 51
359.9999997785561163
  0
ARC
  5
1C526
  8
0
 10
3571.087889388874828
 20
132.9656348602113951
 30
0.0
 40
0.0157480316690838
 50
273.4094053713114931
 51
331.0540307136989213
  0
ARC
  5
1C527
  8
0
 10
3571.0935086241270255
 20
132.8713139059383082
 30
0.0
 40
0.0787401592322065
 50
93.4094053713114931
 51
154.1295774797781917
  0
ARC
  5
1C528
  8
0
 10
3570.671780523929101
 20
133.0657935702207908
 30
0.0
 40
0.3856880543501177
 50
291.5801340396640171
 51
335.470584501825897
  0
ARC
  5
1C529
  8
0
 10
3570.4574811612719714
 20
133.7640115810827979
 30
0.0
 40
1.1152683013584661
 50
270.0748259977374914
 51
288.6233668775058163
  0
ARC
  5
1C52A
  8
0
 10
3570.435877765611167
 20
132.6646983502070896
 30
0.0
 40
0.0157480314999941
 50
180.0
 51
270.5114216359103239
  0
LINE
  5
1C52B
  8
0
 10
3570.4201297341101053
 20
132.6646983502070896
 30
0.0
 11
3570.4201297341101053
 21
135.3613940320070981
 31
0.0
  0
ARC
  5
1C52C
  8
0
 10
3570.4355293833427822
 20
135.3615383366671949
 30
0.0
 40
0.0154003253317359
 50
91.296241216325356
 51
180.5368827477030038
  0
ARC
  5
1C52D
  8
0
 10
3570.3931397879550786
 20
133.8588798723731088
 30
0.0
 40
1.5194169965166731
 50
73.9337101533040908
 51
87.573704326919497
  0
ARC
  5
1C52E
  8
0
 10
3570.671780523929101
 20
134.9602988119933968
 30
0.0
 40
0.3856880543501509
 50
24.5294154981755206
 51
68.4198659603354145
  0
ARC
  5
1C52F
  8
0
 10
3571.093508623010166
 20
135.1547784746070988
 30
0.0
 40
0.0787401574999875
 50
205.8704217819031896
 51
266.5905953201901752
  0
ARC
  5
1C530
  8
0
 10
3571.0878893891399457
 20
135.060457522329898
 30
0.0
 40
0.0157480313267903
 50
28.9459690309559896
 51
86.5905957565258149
  0
LINE
  5
1C531
  8
0
 10
3570.4574630800339037
 20
135.3769347209868101
 30
0.0
 11
3570.4351810010762165
 21
135.3769347209868101
 31
0.0
  0
ARC
  5
1C532
  8
0
 10
3570.4331568390748544
 20
131.061005436397096
 30
0.0
 40
1.5879480878688601
 50
89.0697448161601955
 51
89.896752624415214
  0
LINE
  5
1C533
  8
0
 10
3571.0221116169141169
 20
135.1216165126853923
 30
0.0
 11
3571.0221116169141169
 21
132.904475869528909
 31
0.0
  0
ENDSEC
  0
EOF
