  0
SECTION
  2
HEADER
  9
$ACADVER
  1
AC1009
  9
$INSBASE
 10
4427.3301130370218743
 20
233.1523521527091987
 30
0.0
  9
$EXTMIN
 10
4420.1420671292216866
 20
204.8080227918578942
 30
0.0
  9
$EXTMAX
 10
4437.2785207175238611
 20
240.3856564706267989
 30
0.0
  9
$LIMMIN
 10
0.0
 20
0.0
  9
$LIMMAX
 10
11.6929133858000007
 20
8.2677165353999982
  9
$ORTHOMODE
 70
     0
  9
$REGENMODE
 70
     1
  9
$FILLMODE
 70
     1
  9
$QTEXTMODE
 70
     0
  9
$MIRRTEXT
 70
     0
  9
$DRAGMODE
 70
     2
  9
$LTSCALE
 40
0.6431102362
  9
$OSMODE
 70
  4095
  9
$ATTMODE
 70
     1
  9
$TEXTSIZE
 40
0.2
  9
$TRACEWID
 40
0.05
  9
$TEXTSTYLE
  7
STANDARD
  9
$CLAYER
  8
0
  9
$CELTYPE
  6
BYLAYER
  9
$CECOLOR
 62
   256
  9
$DIMSCALE
 40
1.0
  9
$DIMASZ
 40
0.1875
  9
$DIMEXO
 40
0.0625
  9
$DIMDLI
 40
0.4443307087
  9
$DIMRND
 40
0.0
  9
$DIMDLE
 40
0.0
  9
$DIMEXE
 40
0.125
  9
$DIMTP
 40
0.01
  9
$DIMTM
 40
0.01
  9
$DIMTXT
 40
2.0
  9
$DIMCEN
 40
0.1052362205
  9
$DIMTSZ
 40
0.0
  9
$DIMTOL
 70
     1
  9
$DIMLIM
 70
     0
  9
$DIMTIH
 70
     1
  9
$DIMTOH
 70
     1
  9
$DIMSE1
 70
     0
  9
$DIMSE2
 70
     0
  9
$DIMTAD
 70
     0
  9
$DIMZIN
 70
     0
  9
$DIMBLK
  1

  9
$DIMASO
 70
     1
  9
$DIMSHO
 70
     1
  9
$DIMPOST
  1
\X
  9
$DIMAPOST
  1

  9
$DIMALT
 70
     1
  9
$DIMALTD
 70
     2
  9
$DIMALTF
 40
25.3999999999999986
  9
$DIMLFAC
 40
1.0
  9
$DIMTOFL
 70
     0
  9
$DIMTVP
 40
0.0
  9
$DIMTIX
 70
     0
  9
$DIMSOXD
 70
     0
  9
$DIMSAH
 70
     0
  9
$DIMBLK1
  1

  9
$DIMBLK2
  1

  9
$DIMSTYLE
  2
STANDARD
  9
$DIMCLRD
 70
     0
  9
$DIMCLRE
 70
     0
  9
$DIMCLRT
 70
     0
  9
$DIMTFAC
 40
1.0
  9
$DIMGAP
 40
0.09
  9
$LUNITS
 70
     2
  9
$LUPREC
 70
     4
  9
$SKETCHINC
 40
0.1
  9
$FILLETRAD
 40
0.0
  9
$AUNITS
 70
     0
  9
$AUPREC
 70
     0
  9
$MENU
  1
.
  9
$ELEVATION
 40
0.0
  9
$PELEVATION
 40
0.0
  9
$THICKNESS
 40
0.0
  9
$LIMCHECK
 70
     0
  9
$BLIPMODE
 70
     0
  9
$CHAMFERA
 40
0.0
  9
$CHAMFERB
 40
0.0
  9
$SKPOLY
 70
     0
  9
$TDCREATE
 40
2458060.468368056230247
  9
$TDUPDATE
 40
2459762.7266666670329869
  9
$TDINDWG
 40
0.5357246528
  9
$TDUSRTIMER
 40
0.5357246528
  9
$USRTIMER
 70
     1
  9
$ANGBASE
 50
0.0
  9
$ANGDIR
 70
     0
  9
$PDMODE
 70
     0
  9
$PDSIZE
 40
0.3125
  9
$PLINEWID
 40
0.0
  9
$COORDS
 70
     1
  9
$SPLFRAME
 70
     0
  9
$SPLINETYPE
 70
     6
  9
$SPLINESEGS
 70
     8
  9
$ATTDIA
 70
     1
  9
$ATTREQ
 70
     1
  9
$HANDLING
 70
     1
  9
$HANDSEED
  5
11C33
  9
$SURFTAB1
 70
     6
  9
$SURFTAB2
 70
     6
  9
$SURFTYPE
 70
     6
  9
$SURFU
 70
     6
  9
$SURFV
 70
     6
  9
$UCSNAME
  2

  9
$UCSORG
 10
0.0
 20
0.0
 30
0.0
  9
$UCSXDIR
 10
1.0
 20
0.0
 30
0.0
  9
$UCSYDIR
 10
0.0
 20
1.0
 30
0.0
  9
$PUCSNAME
  2

  9
$PUCSORG
 10
0.0
 20
0.0
 30
0.0
  9
$PUCSXDIR
 10
1.0
 20
0.0
 30
0.0
  9
$PUCSYDIR
 10
0.0
 20
1.0
 30
0.0
  9
$USERI1
 70
     0
  9
$USERI2
 70
     0
  9
$USERI3
 70
     0
  9
$USERI4
 70
     0
  9
$USERI5
 70
     0
  9
$USERR1
 40
0.0
  9
$USERR2
 40
0.0
  9
$USERR3
 40
0.0
  9
$USERR4
 40
0.0
  9
$USERR5
 40
0.0
  9
$WORLDVIEW
 70
     1
  9
$SHADEDGE
 70
     3
  9
$SHADEDIF
 70
    70
  9
$TILEMODE
 70
     1
  9
$MAXACTVP
 70
    64
  9
$PLIMCHECK
 70
     0
  9
$PEXTMIN
 10
1.0000000000000000E+20
 20
1.0000000000000000E+20
 30
1.0000000000000000E+20
  9
$PEXTMAX
 10
-1.0000000000000000E+20
 20
-1.0000000000000000E+20
 30
-1.0000000000000000E+20
  9
$PLIMMIN
 10
0.0
 20
0.0
  9
$PLIMMAX
 10
12.0
 20
9.0
  9
$UNITMODE
 70
     0
  9
$VISRETAIN
 70
     1
  9
$PLINEGEN
 70
     0
  9
$PSLTSCALE
 70
     1
  0
ENDSEC
  0
SECTION
  2
TABLES
  0
TABLE
  2
VPORT
 70
     1
  0
VPORT
  2
*ACTIVE
 70
     0
 10
0.0
 20
0.0
 11
1.0
 21
1.0
 12
631.696488284762836
 22
104.0287851132062968
 13
0.0
 23
0.0
 14
1.0
 24
1.0
 15
0.0
 25
0.0
 16
0.0
 26
0.0
 36
17.1152628219792007
 17
3803.5440673828129547
 27
125.9952621967499056
 37
0.0
 40
20.9962879809522391
 41
2.0416666666666661
 42
50.0
 43
0.0
 44
0.0
 50
0.0
 51
0.0
 71
     0
 72
   100
 73
     1
 74
     1
 75
     0
 76
     0
 77
     0
 78
     0
  0
ENDTAB
  0
TABLE
  2
LTYPE
 70
     2
  0
LTYPE
  2
CONTINUOUS
 70
     0
  3
Solid line
 72
    65
 73
     0
 40
0.0
  0
LTYPE
  2
PHANTOM2
 70
     0
  3
___ _ _ ___ _ _ ___ _ _ ___ _ _
 72
    65
 73
     6
 40
1.25
 49
0.625
 49
-0.125
 49
0.125
 49
-0.125
 49
0.125
 49
-0.125
  0
ENDTAB
  0
TABLE
  2
LAYER
 70
     2
  0
LAYER
  2
0
 70
     0
 62
   255
  6
CONTINUOUS
  0
LAYER
  2
DEFPOINTS
 70
     0
 62
     7
  6
CONTINUOUS
  0
ENDTAB
  0
TABLE
  2
STYLE
 70
     1
  0
STYLE
  2
STANDARD
 70
     0
 40
0.0
 41
0.8
 50
0.0
 71
     0
 42
0.2
  3
txt
  4

  0
ENDTAB
  0
TABLE
  2
VIEW
 70
     0
  0
ENDTAB
  0
TABLE
  2
UCS
 70
     0
  0
ENDTAB
  0
TABLE
  2
APPID
 70
     9
  0
APPID
  2
ACAD
 70
     0
  0
APPID
  2
ACAD_MLEADERVER
 70
     0
  0
APPID
  2
ACAD_EXEMPT_FROM_CAD_STANDARDS
 70
     0
  0
APPID
  2
ACAD_NAV_VCDISPLAY
 70
     0
  0
APPID
  2
ACAECLAYERSTANDARD
 70
     0
  0
APPID
  2
ACCMTRANSPARENCY
 70
     0
  0
APPID
  2
ACAD_DSTYLE_DIMJAG
 70
     0
  0
APPID
  2
ACAD_DSTYLE_DIMTALN
 70
     0
  0
APPID
  2
ACDBATTR
 70
     0
  0
ENDTAB
  0
TABLE
  2
DIMSTYLE
 70
     1
  0
DIMSTYLE
  2
STANDARD
 70
     0
  3

  4

  5

  6

  7

 40
1.0
 41
0.1875
 42
0.0625
 43
0.38
 44
0.125
 45
0.0
 46
0.0
 47
0.01
 48
0.01
140
0.15625
141
0.09
142
0.0
143
25.3999999999999986
144
1.0
145
0.0
146
1.0
147
0.09
 71
     1
 72
     0
 73
     1
 74
     1
 75
     0
 76
     0
 77
     0
 78
     4
170
     0
171
     2
172
     0
173
     0
174
     0
175
     0
176
     0
177
     0
178
     0
  0
ENDTAB
  0
ENDSEC
  0
SECTION
  2
BLOCKS
  0
BLOCK
  8
0
  2
$MODEL_SPACE
 70
     0
 10
0.0
 20
0.0
 30
0.0
  3
$MODEL_SPACE
  1

  0
ENDBLK
  5
21
  8
0
  0
BLOCK
 67
     1
  8
0
  2
$PAPER_SPACE
 70
     0
 10
0.0
 20
0.0
 30
0.0
  3
$PAPER_SPACE
  1

  0
ENDBLK
  5
1D
 67
     1
  8
0
  0
BLOCK
  8
0
  2
_FILLED
 70
     0
 10
0.0
 20
0.0
 30
0.0
  3
_FILLED
  1

  0
SOLID
  5
110D4
  8
0
  6
BYBLOCK
 62
     0
 10
0.0
 20
0.0
 30
0.0
 11
-1.0
 21
0.1666666667
 31
0.0
 12
-1.0
 22
-0.1666666667
 32
0.0
 13
-1.0
 23
-0.1666666667
 33
0.0
  0
ENDBLK
  5
110D5
  8
0
  6
BYBLOCK
 62
     0
  0
BLOCK
  8
0
  2
A$CECB4EA86
 70
     0
 10
0.0
 20
0.0
 30
0.0
  3
A$CECB4EA86
  1

  0
LINE
  5
11ABA
  8
0
 10
108.8282646020750946
 20
165.4199012668167086
 30
0.0
 11
110.3342138662468983
 21
165.4199012668167086
 31
0.0
  0
LINE
  5
11ABB
  8
0
 10
109.3233145542582037
 20
136.2086322479667047
 30
0.0
 11
104.0886935900582984
 21
136.2086322479667047
 31
0.0
  0
LINE
  5
11ABC
  8
0
 10
104.0886935900582984
 20
136.2086322479667047
 30
0.0
 11
104.1174810849753953
 21
137.2318446483824061
 31
0.0
  0
LINE
  5
11ABD
  8
0
 10
104.1646500553581944
 20
137.0431634680666946
 30
0.0
 11
104.1952327469581974
 21
138.1302172606667114
 31
0.0
  0
LINE
  5
11ABE
  8
0
 10
108.7809841846881937
 20
165.3761441074051106
 30
0.0
 11
109.3233145542582037
 21
165.3796527840814008
 31
0.0
  0
ARC
  5
11ABF
  8
0
 10
108.8288014131066035
 20
165.4000414323311929
 30
0.0
 40
0.0198670881579408
 50
91.5483270637752469
 51
164.6120137293210064
  0
ARC
  5
11AC0
  8
0
 10
108.9889203287120978
 20
165.381086917592512
 30
0.0
 40
0.1809033071751951
 50
172.3039051328374001
 51
181.5101432166690927
  0
ARC
  5
11AC1
  8
0
 10
6536.5433417800140887
 20
277.583908724227399
 30
0.0
 40
6428.7397664538102617
 50
180.9999387335828942
 51
181.0000960283169888
  0
ARC
  5
11AC2
  8
0
 10
108.3689624962956941
 20
165.3865833094843936
 30
0.0
 40
0.4136840643720424
 50
0.9999387335812825
 51
2.4431154047911239
  0
ARC
  5
11AC3
  8
0
 10
108.7627374740324058
 20
165.4015732114305024
 30
0.0
 40
0.0197112515499721
 50
7.7098994744085392
 51
90.0085213676110243
  0
ARC
  5
11AC4
  8
0
 10
108.7916258844528983
 20
82.7106447050434639
 30
0.0
 40
82.7106448036818165
 50
90.0200137720887454
 51
90.6859743092088451
  0
ARC
  5
11AC5
  8
0
 10
107.8394169054085978
 20
155.637178024302699
 30
0.0
 40
9.7782575626517652
 50
90.2227873155899971
 51
94.1748943341136453
  0
ARC
  5
11AC6
  8
0
 10
107.1297510832269069
 20
165.3691577710561944
 30
0.0
 40
0.0204499463504997
 50
96.184180150193427
 51
189.2004047042638888
  0
LINE
  5
11AC7
  8
0
 10
107.0525732051626022
 20
165.3690191489785946
 30
0.0
 11
107.0525732051626022
 21
165.3665234335801983
 31
0.0
  0
LINE
  5
11AC8
  8
0
 10
107.0525732051626022
 20
165.3665234335801983
 30
0.0
 11
107.068096860358196
 21
165.3650623606667125
 31
0.0
  0
LINE
  5
11AC9
  8
0
 10
107.068096860358196
 20
165.3650623606667125
 30
0.0
 11
108.7828915832575944
 21
165.3761564475676096
 31
0.0
  0
ARC
  5
11ACA
  8
0
 10
107.0615264117748069
 20
165.3568085161589067
 30
0.0
 40
0.0133261212941488
 50
38.4077055806591829
 51
97.8246145699613123
  0
ARC
  5
11ACB
  8
0
 10
107.2489396920532982
 20
163.9812237178643954
 30
0.0
 40
1.4016190480281201
 50
97.7589888329779058
 51
105.226907962896405
  0
LINE
  5
11ACC
  8
0
 10
106.8808151671582038
 20
165.3336364851666929
 30
0.0
 11
106.8429710638582009
 21
165.2834353975667057
 31
0.0
  0
LINE
  5
11ACD
  8
0
 10
106.8429710638582009
 20
165.2834353975667057
 30
0.0
 11
106.8429710638582009
 21
165.2440637138334125
 31
0.0
  0
LINE
  5
11ACE
  8
0
 10
102.617335542947302
 20
165.2440633238007024
 30
0.0
 11
109.3233145542582037
 21
165.2440633238007024
 31
0.0
  0
LINE
  5
11ACF
  8
0
 10
102.4994972471639016
 20
165.1198878847986862
 30
0.0
 11
102.5026035418639054
 21
165.0606142892648052
 31
0.0
  0
ARC
  5
11AD0
  8
0
 10
102.617335542947302
 20
165.1260633238007074
 30
0.0
 40
0.118
 50
90.0
 51
182.999900890709398
  0
LINE
  5
11AD1
  8
0
 10
102.6204418376473058
 20
164.9487897282666893
 30
0.0
 11
109.3233145542582037
 21
164.9487897282666893
 31
0.0
  0
ARC
  5
11AD2
  8
0
 10
102.6204418376473058
 20
165.066789728266798
 30
0.0
 40
0.118
 50
182.9999008907078064
 51
270.0000000000017053
  0
LINE
  5
11AD3
  8
0
 10
102.8918838812713972
 20
164.840973273441989
 30
0.0
 11
102.8886616029581944
 21
164.8041318262667119
 31
0.0
  0
ARC
  5
11AD4
  8
0
 10
103.009561867966994
 20
164.8306352311747958
 30
0.0
 40
0.1181312137864506
 50
91.8780607520315016
 51
174.9794398098611907
  0
ARC
  5
11AD5
  8
0
 10
102.8102192094007989
 20
164.8109964635494862
 30
0.0
 40
0.0787421891494706
 50
270.7888052467405942
 51
354.9986828361729181
  0
LINE
  5
11AD6
  8
0
 10
102.5919288490330956
 20
164.732254295166797
 30
0.0
 11
109.3233145542582037
 21
164.732254295166797
 31
0.0
  0
LINE
  5
11AD7
  8
0
 10
102.4747600680582025
 20
164.6172053069666958
 30
0.0
 11
102.1352686464582007
 21
151.531409721540598
 31
0.0
  0
ARC
  5
11AD8
  8
0
 10
102.5928969938050983
 20
164.6140800024942052
 30
0.0
 40
0.1181782583767641
 50
90.4693860836822665
 51
178.4845974425126087
  0
ARC
  5
11AD9
  8
0
 10
117.4851639220380974
 20
153.3001566407558016
 30
0.0
 40
15.5921065498708096
 50
190.1122132798076905
 51
204.3047255569321976
  0
ARC
  5
11ADA
  8
0
 10
92.072090231036853
 20
141.8331018049503029
 30
0.0
 40
12.2883124670783594
 50
12.1560093326071996
 51
24.2626087739130583
  0
ARC
  5
11ADB
  8
0
 10
52.1057659431352889
 20
140.7898136474202033
 30
0.0
 40
52.1057662550638767
 50
356.8325138939262047
 51
3.9957852252392931
  0
LINE
  5
11ADC
  8
0
 10
103.2749961715582003
 20
146.882608887466688
 30
0.0
 11
103.2192226733583027
 21
146.8629344734667086
 31
0.0
  0
LINE
  5
11ADD
  8
0
 10
103.2192226733583027
 20
146.8629344734667086
 30
0.0
 11
103.248889827858207
 21
146.6604856140666868
 31
0.0
  0
LINE
  5
11ADE
  8
0
 10
103.248889827858207
 20
146.6604856140666868
 30
0.0
 11
103.1820597695581938
 21
146.6369111924666981
 31
0.0
  0
LINE
  5
11ADF
  8
0
 10
103.1820597695581938
 20
146.6369111924666981
 30
0.0
 11
103.2680440615582
 21
146.2748131690667037
 31
0.0
  0
LINE
  5
11AE0
  8
0
 10
103.2680440615582
 20
146.2748131690667037
 30
0.0
 11
103.4775964997582065
 21
145.6807689205666918
 31
0.0
  0
LINE
  5
11AE1
  8
0
 10
103.4775964997582065
 20
145.6807689205666918
 30
0.0
 11
103.637836322858206
 21
145.3448649519667129
 31
0.0
  0
LINE
  5
11AE2
  8
0
 10
103.637836322858206
 20
145.3448649519667129
 30
0.0
 11
103.7073665019288029
 21
145.3693921123488053
 31
0.0
  0
LINE
  5
11AE3
  8
0
 10
103.7073665019288029
 20
145.3693921123488053
 30
0.0
 11
103.808588905958203
 21
145.1921850243666938
 31
0.0
  0
LINE
  5
11AE4
  8
0
 10
103.808588905958203
 20
145.1921850243666938
 30
0.0
 11
103.884713044759593
 21
145.2190382410443874
 31
0.0
  0
LINE
  5
11AE5
  8
0
 10
102.318688159335295
 20
152.3097747793524093
 30
0.0
 11
109.3233145542582037
 21
152.3097747793524093
 31
0.0
  0
LINE
  5
11AE6
  8
0
 10
102.3128822250582033
 20
152.9802857912667093
 30
0.0
 11
109.3233145542582037
 21
152.9802857912667093
 31
0.0
  0
LINE
  5
11AE7
  8
0
 10
102.2341822250582055
 20
152.9015857912667968
 30
0.0
 11
102.2341822250582055
 21
152.5803245024667092
 31
0.0
  0
ARC
  5
11AE8
  8
0
 10
102.3128822250582033
 20
152.9015857912667968
 30
0.0
 40
0.0787
 50
90.0
 51
180.0000000000015916
  0
LINE
  5
11AE9
  8
0
 10
102.3128822250582033
 20
152.5016245024667967
 30
0.0
 11
109.3233145542582037
 21
152.5016245024667967
 31
0.0
  0
ARC
  5
11AEA
  8
0
 10
102.3128822250582033
 20
152.5803245024667092
 30
0.0
 40
0.0787
 50
180.0000000000015916
 51
269.9999999999992042
  0
LINE
  5
11AEB
  8
0
 10
102.5943855147872057
 20
152.5016245024667967
 30
0.0
 11
102.9255728123929003
 21
152.46932171464249
 31
0.0
  0
LINE
  5
11AEC
  8
0
 10
102.9255728123929003
 20
152.46932171464249
 30
0.0
 11
102.9352177628851024
 21
152.4557236925471955
 31
0.0
  0
LINE
  5
11AED
  8
0
 10
102.9352177628851024
 20
152.4557236925471955
 30
0.0
 11
103.0050208103582037
 21
152.3370516760666931
 31
0.0
  0
ARC
  5
11AEE
  8
0
 10
103.0662870033030032
 20
152.3730885371689112
 30
0.0
 40
0.0710788418310045
 50
210.4641025786756927
 51
242.9681389912747989
  0
LINE
  5
11AEF
  8
0
 10
104.0542724769135958
 20
152.5016245024667967
 30
0.0
 11
103.5999595880404058
 21
152.3910143787657887
 31
0.0
  0
LINE
  5
11AF0
  8
0
 10
103.5999595880404058
 20
152.3910143787657887
 30
0.0
 11
103.5606916045582011
 21
152.3303038100667095
 31
0.0
  0
ARC
  5
11AF1
  8
0
 10
103.5173659289150976
 20
152.3583271337147096
 30
0.0
 40
0.0515986515154567
 50
289.7863079761415861
 51
327.1049533618947862
  0
LINE
  5
11AF2
  8
0
 10
104.9496326563348987
 20
152.5016245024667967
 30
0.0
 11
104.9523987065582986
 21
152.3521287702666882
 31
0.0
  0
ARC
  5
11AF3
  8
0
 10
104.9740870040214986
 20
152.3532311177451959
 30
0.0
 40
0.0217162938094634
 50
182.9096591821136997
 51
240.071902490157413
  0
ARC
  5
11AF4
  8
0
 10
105.1114165439851007
 20
152.6895959911884972
 30
0.0
 40
0.3848496127424622
 50
247.3567475423886037
 51
260.7278369878969784
  0
LINE
  5
11AF5
  8
0
 10
105.622498622858302
 20
152.5016245024667967
 30
0.0
 11
105.622498622858302
 21
152.3097747793524093
 31
0.0
  0
LINE
  5
11AF6
  8
0
 10
105.0290813173661064
 20
152.5016245024667967
 30
0.0
 11
105.0314119832515019
 21
152.3131541036549947
 31
0.0
  0
LINE
  5
11AF7
  8
0
 10
105.5831285441582992
 20
152.5016245024667967
 30
0.0
 11
105.5831285441582992
 21
152.3097747793524093
 31
0.0
  0
LINE
  5
11AF8
  8
0
 10
102.2399913149013031
 20
152.2317795318907088
 30
0.0
 11
102.2376869920890954
 21
151.9332292472332995
 31
0.0
  0
ARC
  5
11AF9
  8
0
 10
102.318688159335295
 20
152.2310747793524115
 30
0.0
 40
0.0787
 50
89.9999999999992042
 51
179.4869137770938039
  0
ARC
  5
11AFA
  8
0
 10
102.3084248196280015
 20
151.9325280495712036
 30
0.0
 40
0.0707413028087542
 50
179.4320669403481929
 51
252.9956032813337004
  0
LINE
  5
11AFB
  8
0
 10
102.2877368731008971
 20
151.8648793925885059
 30
0.0
 11
102.9137488386341062
 21
151.6508686871815996
 31
0.0
  0
LINE
  5
11AFC
  8
0
 10
102.4026778409938032
 20
151.8255852592918984
 30
0.0
 11
102.4496599030582047
 21
151.5875525748666917
 31
0.0
  0
ARC
  5
11AFD
  8
0
 10
102.5082506913470013
 20
151.5991170205579976
 30
0.0
 40
0.0597211593695247
 50
191.1653266207954118
 51
263.0272624377855095
  0
LINE
  5
11AFE
  8
0
 10
102.5010007183582985
 20
151.5398375572667078
 30
0.0
 11
102.6088066996342008
 21
151.5228822122666941
 31
0.0
  0
LINE
  5
11AFF
  8
0
 10
102.5332979776674023
 20
151.7809309888801863
 30
0.0
 11
102.5141384736268009
 21
151.5800868237500083
 31
0.0
  0
ARC
  5
11B00
  8
0
 10
102.5783137223611021
 20
151.5933439480295988
 30
0.0
 40
0.0655302517488828
 50
191.6718054584675031
 51
252.9125621016071079
  0
LINE
  5
11B01
  8
0
 10
102.6088066996342008
 20
151.5228822122666941
 30
0.0
 11
109.3233145542582037
 21
151.5228822122666941
 31
0.0
  0
LINE
  5
11B02
  8
0
 10
102.8723667814005012
 20
151.5228822122666941
 30
0.0
 11
102.9243928997814947
 21
151.6163706369524107
 31
0.0
  0
LINE
  5
11B03
  8
0
 10
102.8768451501582035
 20
151.7704757883666957
 30
0.0
 11
102.9413736641081982
 21
151.5613349459167125
 31
0.0
  0
ARC
  5
11B04
  8
0
 10
103.0073905119273974
 20
151.5817038467758096
 30
0.0
 40
0.0690877436177081
 50
197.147136637660509
 51
238.3647902828220992
  0
ARC
  5
11B05
  8
0
 10
102.8237776232649026
 20
151.7592342307729893
 30
0.0
 40
0.0542451382863535
 50
11.9604368522275504
 51
67.7835863178893732
  0
ARC
  5
11B06
  8
0
 10
101.5482138654299007
 20
148.6361184367576982
 30
0.0
 40
3.427806337246591
 50
67.7835863178893732
 51
70.3786074023063577
  0
LINE
  5
11B07
  8
0
 10
103.5463066672610069
 20
151.5228822122666941
 30
0.0
 11
103.5962816949581935
 21
151.6188815193667097
 31
0.0
  0
ARC
  5
11B08
  8
0
 10
100.5782447653010934
 20
145.5108373268872981
 30
0.0
 40
7.0984179050017762
 50
57.8820729396867009
 51
61.9508872035928775
  0
ARC
  5
11B09
  8
0
 10
104.4588365087431043
 20
151.1221383065665975
 30
0.0
 40
0.8493787371802323
 50
129.7143269419065064
 51
142.1463080758697117
  0
ARC
  5
11B0A
  8
0
 10
103.706162802553493
 20
151.707102414993102
 30
0.0
 40
0.1038792111928028
 50
272.0214274142913951
 51
322.1463080758696833
  0
ARC
  5
11B0B
  8
0
 10
103.678083543176399
 20
152.5026568222181993
 30
0.0
 40
0.8999289958560616
 50
264.3904122318543841
 51
272.0214274142913951
  0
ARC
  5
11B0C
  8
0
 10
103.1674828715475059
 20
150.3675196315651874
 30
0.0
 40
1.4740958906013051
 50
79.4464543333977815
 51
102.4511495936138061
  0
ARC
  5
11B0D
  8
0
 10
103.2537629794864955
 20
150.8306296298129894
 30
0.0
 40
1.003017205557138
 50
71.852479615253543
 51
79.4464543333977815
  0
ARC
  5
11B0E
  8
0
 10
101.5568332401210938
 20
150.0486880627383073
 30
0.0
 40
2.6547842216040731
 50
37.2989278778812903
 51
40.8107125520282565
  0
ARC
  5
11B0F
  8
0
 10
103.5998421974015997
 20
151.8073276784882921
 30
0.0
 40
0.1884797921935497
 50
268.9175821146064891
 51
288.2036078193348203
  0
ARC
  5
11B10
  8
0
 10
103.6526957586792008
 20
151.6466067678487946
 30
0.0
 40
0.0192914059003039
 50
288.2036078193364119
 51
34.0810189941731991
  0
LINE
  5
11B11
  8
0
 10
102.2877368731008971
 20
151.8648793925885059
 30
0.0
 11
109.3233145542582037
 21
151.8648793925885059
 31
0.0
  0
LINE
  5
11B12
  8
0
 10
104.1952327469638959
 20
138.1302172608689034
 30
0.0
 11
104.1847362614581982
 21
138.1261736346667135
 31
0.0
  0
ARC
  5
11B13
  8
0
 10
104.1919259353668963
 20
138.107510607210088
 30
0.0
 40
0.0200000001190487
 50
111.0684912535290039
 51
166.2625636698415121
  0
ARC
  5
11B14
  8
0
 10
106.6009834500731017
 20
137.5185778358724917
 30
0.0
 40
2.49999998365083
 50
166.2625636698415121
 51
190.5144130222707872
  0
ARC
  5
11B15
  8
0
 10
104.1626254775174942
 20
137.0660204180890958
 30
0.0
 40
0.0200004234258088
 50
190.5144130222691956
 51
245.707857013348189
  0
ARC
  5
11B16
  8
0
 10
313.2994226826381237
 20
600.4220880855092446
 30
0.0
 40
508.3870384869006784
 50
245.707857013348189
 51
245.7091247235184142
  0
LINE
  5
11B17
  8
0
 10
109.3233145542582037
 20
136.2086322479667047
 30
0.0
 11
114.5579355184581942
 21
136.2086322479667047
 31
0.0
  0
LINE
  5
11B18
  8
0
 10
114.5579355184581942
 20
136.2086322479667047
 30
0.0
 11
114.5291480235410972
 21
137.2318446483824061
 31
0.0
  0
LINE
  5
11B19
  8
0
 10
114.4819790531581987
 20
137.0431634680666946
 30
0.0
 11
114.4513963615581957
 21
138.1302172606667114
 31
0.0
  0
LINE
  5
11B1A
  8
0
 10
109.8656449238282988
 20
165.3761441074051106
 30
0.0
 11
109.3233145542582037
 21
165.3796527840814008
 31
0.0
  0
ARC
  5
11B1B
  8
0
 10
109.8550032240635943
 20
82.7106447050434639
 30
0.0
 40
82.7106448036818165
 50
89.3140256907911549
 51
89.6680366719975268
  0
ARC
  5
11B1C
  8
0
 10
110.8072122031078948
 20
155.637178024302699
 30
0.0
 40
9.7782575626517652
 50
85.8251056658863547
 51
89.7772126844100029
  0
ARC
  5
11B1D
  8
0
 10
111.5168780252895999
 20
165.3691577710561944
 30
0.0
 40
0.0204499463504997
 50
350.7995952957361965
 51
83.8158198498065872
  0
LINE
  5
11B1E
  8
0
 10
111.5940559033539046
 20
165.3690191489785946
 30
0.0
 11
111.5940559033539046
 21
165.3665234335801983
 31
0.0
  0
LINE
  5
11B1F
  8
0
 10
111.5940559033539046
 20
165.3665234335801983
 30
0.0
 11
111.5785322481582966
 21
165.3650623606667125
 31
0.0
  0
LINE
  5
11B20
  8
0
 10
111.5785322481582966
 20
165.3650623606667125
 30
0.0
 11
109.8637375252588981
 21
165.3761564475676096
 31
0.0
  0
ARC
  5
11B21
  8
0
 10
111.5851026967416999
 20
165.3568085161589067
 30
0.0
 40
0.0133261212941488
 50
82.1753854300387019
 51
141.5922944193077058
  0
ARC
  5
11B22
  8
0
 10
111.3976894164631943
 20
163.9812237178643954
 30
0.0
 40
1.4016190480281201
 50
74.7730920371036234
 51
82.2410111670221085
  0
LINE
  5
11B23
  8
0
 10
111.7658139413582035
 20
165.3336364851666929
 30
0.0
 11
111.8036580446582064
 21
165.2834353975667057
 31
0.0
  0
LINE
  5
11B24
  8
0
 10
111.8036580446582064
 20
165.2834353975667057
 30
0.0
 11
111.8036580446582064
 21
165.2440637138334125
 31
0.0
  0
LINE
  5
11B25
  8
0
 10
116.0292935655691053
 20
165.2440633238007024
 30
0.0
 11
109.3233145542582037
 21
165.2440633238007024
 31
0.0
  0
LINE
  5
11B26
  8
0
 10
116.1471318613525057
 20
165.1198878847986862
 30
0.0
 11
116.1440255666526014
 21
165.0606142892648052
 31
0.0
  0
ARC
  5
11B27
  8
0
 10
116.0292935655691053
 20
165.1260633238007074
 30
0.0
 40
0.118
 50
357.0000991092904883
 51
90.0
  0
LINE
  5
11B28
  8
0
 10
116.026187270869201
 20
164.9487897282666893
 30
0.0
 11
109.3233145542582037
 21
164.9487897282666893
 31
0.0
  0
ARC
  5
11B29
  8
0
 10
116.026187270869201
 20
165.066789728266798
 30
0.0
 40
0.118
 50
269.9999999999984084
 51
357.0000991092921936
  0
LINE
  5
11B2A
  8
0
 10
115.7547452272450954
 20
164.840973273441989
 30
0.0
 11
115.7579675055581987
 21
164.8041318262667119
 31
0.0
  0
ARC
  5
11B2B
  8
0
 10
115.6370672405494986
 20
164.8306352311747958
 30
0.0
 40
0.1181312137864506
 50
5.0205601901387524
 51
88.1219392479685126
  0
ARC
  5
11B2C
  8
0
 10
115.8364098991156936
 20
164.8109964635494862
 30
0.0
 40
0.0787421891494706
 50
185.0013171638271103
 51
269.2111947532592922
  0
LINE
  5
11B2D
  8
0
 10
116.054700259483397
 20
164.732254295166797
 30
0.0
 11
109.3233145542582037
 21
164.732254295166797
 31
0.0
  0
LINE
  5
11B2E
  8
0
 10
116.1718690404582048
 20
164.6172053069666958
 30
0.0
 11
116.5113604620582066
 21
151.5314781673683058
 31
0.0
  0
ARC
  5
11B2F
  8
0
 10
116.0537321147113943
 20
164.6140800024942052
 30
0.0
 40
0.1181782583767641
 50
1.5154025574873771
 51
89.5306139163177193
  0
ARC
  5
11B30
  8
0
 10
101.1614651864784946
 20
153.3001566407558016
 30
0.0
 40
15.5921065498707101
 50
335.695274443067774
 51
349.8877867201923095
  0
ARC
  5
11B31
  8
0
 10
126.5745388774796965
 20
141.8331018049503029
 30
0.0
 40
12.2883124670783594
 50
155.7373912260869133
 51
167.8439906673928022
  0
ARC
  5
11B32
  8
0
 10
166.5408631653812108
 20
140.7898136474202033
 30
0.0
 40
52.1057662550638767
 50
176.0042147747606975
 51
183.1674861060737101
  0
LINE
  5
11B33
  8
0
 10
116.3279409491811975
 20
152.3097747793524093
 30
0.0
 11
109.3233145542582037
 21
152.3097747793524093
 31
0.0
  0
LINE
  5
11B34
  8
0
 10
116.333746883458204
 20
152.9802857912667093
 30
0.0
 11
109.3233145542582037
 21
152.9802857912667093
 31
0.0
  0
LINE
  5
11B35
  8
0
 10
116.4124468834582018
 20
152.9015857912667968
 30
0.0
 11
116.4124468834582018
 21
152.5803245024667092
 31
0.0
  0
ARC
  5
11B36
  8
0
 10
116.333746883458204
 20
152.9015857912667968
 30
0.0
 40
0.0787
 50
359.9999999999984084
 51
90.0
  0
LINE
  5
11B37
  8
0
 10
116.333746883458204
 20
152.5016245024667967
 30
0.0
 11
109.3233145542582037
 21
152.5016245024667967
 31
0.0
  0
ARC
  5
11B38
  8
0
 10
116.333746883458204
 20
152.5803245024667092
 30
0.0
 40
0.0787
 50
270.0000000000007958
 51
359.9999999999984084
  0
LINE
  5
11B39
  8
0
 10
116.0522435937292016
 20
152.5016245024667967
 30
0.0
 11
115.721056296123507
 21
152.46932171464249
 31
0.0
  0
LINE
  5
11B3A
  8
0
 10
115.721056296123507
 20
152.46932171464249
 30
0.0
 11
115.7114113456314044
 21
152.4557236925471955
 31
0.0
  0
LINE
  5
11B3B
  8
0
 10
115.7114113456314044
 20
152.4557236925471955
 30
0.0
 11
115.6416082981583031
 21
152.3370516760666931
 31
0.0
  0
ARC
  5
11B3C
  8
0
 10
115.5803421052135036
 20
152.3730885371689112
 30
0.0
 40
0.0710788418310045
 50
297.0318610087251727
 51
329.5358974213243073
  0
LINE
  5
11B3D
  8
0
 10
114.5923566316028968
 20
152.5016245024667967
 30
0.0
 11
115.046669520476101
 21
152.3910143787657887
 31
0.0
  0
LINE
  5
11B3E
  8
0
 10
115.046669520476101
 20
152.3910143787657887
 30
0.0
 11
115.0859375039582062
 21
152.3303038100667095
 31
0.0
  0
ARC
  5
11B3F
  8
0
 10
115.129263179601395
 20
152.3583271337147096
 30
0.0
 40
0.0515986515154567
 50
212.8950466381052138
 51
250.2136920238584139
  0
LINE
  5
11B40
  8
0
 10
113.6969964521815939
 20
152.5016245024667967
 30
0.0
 11
113.694230401958194
 21
152.3521287702666882
 31
0.0
  0
ARC
  5
11B41
  8
0
 10
113.672542104494994
 20
152.3532311177451959
 30
0.0
 40
0.0217162938094634
 50
299.928097509842587
 51
357.0903408178862719
  0
ARC
  5
11B42
  8
0
 10
113.5352125645314061
 20
152.6895959911884972
 30
0.0
 40
0.3848496127424622
 50
279.2721630121030216
 51
292.643252457611311
  0
LINE
  5
11B43
  8
0
 10
113.0241304856582047
 20
152.5016245024667967
 30
0.0
 11
113.0241304856582047
 21
152.3097747793524093
 31
0.0
  0
LINE
  5
11B44
  8
0
 10
113.6175477911503009
 20
152.5016245024667967
 30
0.0
 11
113.6152171252650049
 21
152.3131541036549947
 31
0.0
  0
LINE
  5
11B45
  8
0
 10
113.0635005643581934
 20
152.5016245024667967
 30
0.0
 11
113.0635005643581934
 21
152.3097747793524093
 31
0.0
  0
LINE
  5
11B46
  8
0
 10
116.4066377936152037
 20
152.2317795318907088
 30
0.0
 11
116.4089421164273972
 21
151.9332292472332995
 31
0.0
  0
ARC
  5
11B47
  8
0
 10
116.3279409491811975
 20
152.2310747793524115
 30
0.0
 40
0.0787
 50
0.5130862229062502
 51
90.00000000000081
  0
ARC
  5
11B48
  8
0
 10
116.3382042888885053
 20
151.9325280495712036
 30
0.0
 40
0.0707413028087542
 50
287.0043967186663281
 51
0.5679330596517893
  0
LINE
  5
11B49
  8
0
 10
116.3588922354155955
 20
151.8648793925885059
 30
0.0
 11
115.7328802698824006
 21
151.6508686871815996
 31
0.0
  0
LINE
  5
11B4A
  8
0
 10
116.2439512675227036
 20
151.8255852592918984
 30
0.0
 11
116.1969692054582026
 21
151.5875525748666917
 31
0.0
  0
ARC
  5
11B4B
  8
0
 10
116.1383784171695055
 20
151.5991170205579976
 30
0.0
 40
0.0597211593695247
 50
276.9727375622143768
 51
348.8346733792046166
  0
LINE
  5
11B4C
  8
0
 10
116.1456283901581941
 20
151.5398375572667078
 30
0.0
 11
116.037822408882306
 21
151.5228822122666941
 31
0.0
  0
LINE
  5
11B4D
  8
0
 10
116.113331130849005
 20
151.7809309888801863
 30
0.0
 11
116.1324906348897059
 21
151.5800868237500083
 31
0.0
  0
ARC
  5
11B4E
  8
0
 10
116.0683153861554047
 20
151.5933439480295988
 30
0.0
 40
0.0655302517488828
 50
287.0874378983928068
 51
348.3281945415324117
  0
LINE
  5
11B4F
  8
0
 10
116.037822408882306
 20
151.5228822122666941
 30
0.0
 11
109.3233145542582037
 21
151.5228822122666941
 31
0.0
  0
LINE
  5
11B50
  8
0
 10
115.7742623271160056
 20
151.5228822122666941
 30
0.0
 11
115.7222362087349978
 21
151.6163706369524107
 31
0.0
  0
LINE
  5
11B51
  8
0
 10
115.7697839583582038
 20
151.7704757883666957
 30
0.0
 11
115.7052554444081949
 21
151.5613349459167125
 31
0.0
  0
ARC
  5
11B52
  8
0
 10
115.6392385965890952
 20
151.5817038467758096
 30
0.0
 40
0.0690877436177081
 50
301.6352097171778723
 51
342.8528633623394057
  0
ARC
  5
11B53
  8
0
 10
115.8228514852515048
 20
151.7592342307729893
 30
0.0
 40
0.0542451382863535
 50
112.2164136821105984
 51
168.0395631477724123
  0
ARC
  5
11B54
  8
0
 10
117.0984152430866061
 20
148.6361184367576982
 30
0.0
 40
3.427806337246591
 50
109.6213925976935997
 51
112.2164136821105984
  0
LINE
  5
11B55
  8
0
 10
115.1003224412554999
 20
151.5228822122666941
 30
0.0
 11
115.0503474135581996
 21
151.6188815193667097
 31
0.0
  0
ARC
  5
11B56
  8
0
 10
118.0683843432153992
 20
145.5108373268872981
 30
0.0
 40
7.0984179050017762
 50
118.0491127964071012
 51
122.1179270603133062
  0
ARC
  5
11B57
  8
0
 10
114.1877925997734025
 20
151.1221383065665975
 30
0.0
 40
0.8493787371802323
 50
37.8536919241303096
 51
50.285673058093451
  0
ARC
  5
11B58
  8
0
 10
114.9404663059629996
 20
151.707102414993102
 30
0.0
 40
0.1038792111928028
 50
217.8536919241302883
 51
267.9785725857087186
  0
ARC
  5
11B59
  8
0
 10
114.9685455653400936
 20
152.5026568222181993
 30
0.0
 40
0.8999289958560616
 50
267.9785725857087186
 51
275.6095877681456159
  0
ARC
  5
11B5A
  8
0
 10
115.4791462369690009
 20
150.3675196315651874
 30
0.0
 40
1.4740958906013051
 50
77.5488504063861512
 51
100.5535456666022043
  0
ARC
  5
11B5B
  8
0
 10
115.3928661290299971
 20
150.8306296298129894
 30
0.0
 40
1.003017205557138
 50
100.5535456666022043
 51
108.1475203847468975
  0
ARC
  5
11B5C
  8
0
 10
117.0897958683953988
 20
150.0486880627383073
 30
0.0
 40
2.6547842216040731
 50
139.1892874479717079
 51
142.7010721221186884
  0
ARC
  5
11B5D
  8
0
 10
115.0467869111149071
 20
151.8073276784882921
 30
0.0
 40
0.1884797921935497
 50
251.7963921806652081
 51
271.0824178853933972
  0
ARC
  5
11B5E
  8
0
 10
114.993933349837306
 20
151.6466067678487946
 30
0.0
 40
0.0192914059003039
 50
145.9189810058267938
 51
251.7963921806635881
  0
LINE
  5
11B5F
  8
0
 10
116.3588922354155955
 20
151.8648793925885059
 30
0.0
 11
109.3233145542582037
 21
151.8648793925885059
 31
0.0
  0
LINE
  5
11B60
  8
0
 10
114.4513963615525967
 20
138.1302172608689034
 30
0.0
 11
114.4618928470581949
 21
138.1261736346667135
 31
0.0
  0
ARC
  5
11B61
  8
0
 10
114.4547031731494968
 20
138.107510607210088
 30
0.0
 40
0.0200000001190487
 50
13.7374363301584808
 51
68.931508746471053
  0
ARC
  5
11B62
  8
0
 10
112.0456456584434051
 20
137.5185778358724917
 30
0.0
 40
2.49999998365083
 50
349.4855869777292128
 51
13.7374363301584808
  0
ARC
  5
11B63
  8
0
 10
114.4840036309989983
 20
137.0660204180890958
 30
0.0
 40
0.0200004234258088
 50
294.292142986651811
 51
349.4855869777308044
  0
ARC
  5
11B64
  8
0
 10
-94.6527935741215458
 20
600.4220880855092446
 30
0.0
 40
508.3870384869006784
 50
294.2908752764814722
 51
294.292142986651811
  0
LINE
  5
11B65
  8
0
 10
102.2341574693581947
 20
152.7423900691667029
 30
0.0
 11
102.1641304400856995
 21
152.7442221672835103
 31
0.0
  0
LINE
  5
11B66
  8
0
 10
116.4124468834582018
 20
152.7427564740090986
 30
0.0
 11
116.4824890719042969
 21
152.7445889687311933
 31
0.0
  0
LINE
  5
11B67
  8
0
 10
109.3233145542582037
 20
136.2086322479667047
 30
0.0
 11
114.6729358981501008
 21
132.3972595545970137
 31
0.0
  0
LINE
  5
11B68
  8
0
 10
102.1352686464582007
 20
150.5625478865225091
 30
0.0
 11
102.1352686464582007
 21
151.531409721540598
 31
0.0
  0
LINE
  5
11B69
  8
0
 10
116.5113604620582066
 20
151.5314781673683058
 30
0.0
 11
116.5113604620582066
 21
150.5625478865225091
 31
0.0
  0
ENDBLK
  5
11B6D
  8
0
  0
ENDSEC
  0
SECTION
  2
ENTITIES
  0
ATTDEF
  5
3930
  8
DEFPOINTS
 10
4427.3193542051258191
 20
233.1519591732829895
 30
0.0
 40
0.001
  1
K-28220T-SL
  3

  2
MODELNUMBER
 70
     0
1001
ACDBATTR
1070
     0
1070
     1
  0
ATTDEF
  5
3931
  8
DEFPOINTS
 10
4427.3193542051258191
 20
233.1502925066164096
 30
0.0
 40
0.001
  1

  3

  2
TRADENAME
 70
     0
1001
ACDBATTR
1070
     0
1070
     1
  0
ATTDEF
  5
3932
  8
DEFPOINTS
 10
4427.3193542051258191
 20
233.1486258399496876
 30
0.0
 40
0.001
  1
TOILET
  3

  2
PRODUCT
 70
     0
1001
ACDBATTR
1070
     0
1070
     1
  0
LINE
  5
119C3
  8
0
 10
4420.6250072229859143
 20
232.4523521527096932
 30
0.0
 11
4434.0352188510578344
 21
232.4523521527086132
 31
0.0
  0
ARC
  5
119C4
  8
0
 10
4489.9761022517686797
 20
231.2099563389043908
 30
0.0
 40
69.4783077762754147
 50
179.0712221259894932
 51
182.0694502385254054
  0
ARC
  5
119C5
  8
0
 10
4424.1988394479367344
 20
228.8797516584101004
 30
0.0
 40
3.6600963799330648
 50
182.7987843139721917
 51
200.9696058734319024
  0
ARC
  5
119C6
  8
0
 10
4426.4857389640374095
 20
344.3376513455235113
 30
0.0
 40
118.019216253428894
 50
268.9800508570991155
 51
270.4099288657416764
  0
ARC
  5
119C7
  8
0
 10
4424.6507883714220952
 20
241.2699448965263969
 30
0.0
 40
14.9351769634691802
 50
260.6213800596214014
 51
268.9800508570991155
  0
ARC
  5
119C8
  8
0
 10
4422.5221343054936369
 20
228.4707534201764076
 30
0.0
 40
1.960244409248316
 50
207.3587270616976923
 51
261.0443911419761776
  0
LINE
  5
119C9
  8
0
 10
4420.3389671292234198
 20
232.3701942065463868
 30
0.0
 11
4420.5125093173783171
 21
232.3701942065463868
 31
0.0
  0
ARC
  5
119CA
  8
0
 10
4420.3389671292234198
 20
232.1732942065463874
 30
0.0
 40
0.1969
 50
90.0
 51
180.0
  0
LINE
  5
119CB
  8
0
 10
4420.1420671292216866
 20
232.1732942065463874
 30
0.0
 11
4420.1484140299226056
 21
213.6698224509092086
 31
0.0
  0
ARC
  5
119CC
  8
0
 10
4420.6250072229859143
 20
232.3342521527096949
 30
0.0
 40
0.1181
 50
90.0
 51
179.0712221259886121
  0
ARC
  5
119CD
  8
0
 10
4439.9096433570030058
 20
213.4273766368698944
 30
0.0
 40
19.7627165260804212
 50
179.2970869998736987
 51
191.8362804583900072
  0
ARC
  5
119CE
  8
0
 10
4426.140738590296678
 20
210.5418021899182861
 30
0.0
 40
5.6946932689383534
 50
191.8362804583900072
 51
236.4656853113000068
  0
ARC
  5
119CF
  8
0
 10
4427.3152780769696619
 20
214.758348639756008
 30
0.0
 40
9.9503258478981031
 50
244.2651957791536859
 51
270.0854224201682996
  0
LINE
  5
119D0
  8
0
 10
4423.6293270269216009
 20
223.4327054108092057
 30
0.0
 11
4427.3301130370218743
 21
223.4327054108092057
 31
0.0
  0
LINE
  5
119D1
  8
0
 10
4423.5899270269228509
 20
223.3539652541091129
 30
0.0
 11
4423.5899270269228509
 21
223.3933054108092051
 31
0.0
  0
ARC
  5
119D2
  8
0
 10
4423.6293270269216009
 20
223.3933054108092051
 30
0.0
 40
0.0394
 50
90.0
 51
180.0000000000104876
  0
ARC
  5
119D3
  8
0
 10
4424.6433573482745487
 20
222.4475654919801002
 30
0.0
 40
1.0188762680686481
 50
90.3483065752751031
 51
104.7853506723864996
  0
ARC
  5
119D4
  8
0
 10
4428.7795124088443117
 20
-5290.0892192168266774
 30
0.0
 40
5513.5571982290230153
 50
90.015061867443066
 51
90.0430464619178963
  0
LINE
  5
119D5
  8
0
 10
4423.5741291229223862
 20
223.3539652541091129
 30
0.0
 11
4423.5702419875224223
 21
223.4327054115092039
 31
0.0
  0
LINE
  5
119D6
  8
0
 10
4423.5702419875224223
 20
223.4327054115092039
 30
0.0
 11
4423.129309620821914
 21
223.4327084972090915
 31
0.0
  0
ARC
  5
119D7
  8
0
 10
4423.129309111504881
 20
223.3599294846063117
 30
0.0
 40
0.0727790126046828
 50
89.9995990369631045
 51
184.6967903889388936
  0
ARC
  5
119D8
  8
0
 10
4422.959974578215224
 20
223.3341619805063942
 30
0.0
 40
0.0788518978453088
 50
14.5398493767372496
 51
89.9699532411264613
  0
ARC
  5
119D9
  8
0
 10
4422.9228503001650097
 20
152.5423582665667936
 30
0.0
 40
70.8706653460469198
 50
89.9699532411264613
 51
90.3052952725955436
  0
ARC
  5
119DA
  8
0
 10
4422.6308282087302359
 20
221.0259200314368968
 30
0.0
 40
2.3876325805935918
 50
92.0546690436254949
 51
114.2974509084221069
  0
ARC
  5
119DB
  8
0
 10
4422.7830856316440986
 20
220.8803859805668992
 30
0.0
 40
2.5841297970918009
 50
116.0468246794271039
 51
155.2968790592150015
  0
ARC
  5
119DC
  8
0
 10
4422.3578356413963775
 20
221.0760071873596928
 30
0.0
 40
2.1160430415076101
 50
155.2968790592157973
 51
182.2817373460790122
  0
ARC
  5
119DD
  8
0
 10
5278.9018805829327903
 20
219.3650785118379076
 30
0.0
 40
858.6599510781621802
 50
179.8914563681809113
 51
180.379950932548013
  0
ARC
  5
119DE
  8
0
 10
4436.5816585227776159
 20
213.0981243801946903
 30
0.0
 40
16.3309004962562092
 50
177.989669954650708
 51
193.1353389175748987
  0
ARC
  5
119DF
  8
0
 10
4426.2841677748929214
 20
210.660054474746687
 30
0.0
 40
5.748878634463213
 50
192.794934465463399
 51
234.0689657181164023
  0
ARC
  5
119E0
  8
0
 10
4427.3628494747563309
 20
214.3076968987157045
 30
0.0
 40
9.4210358184558345
 50
236.8545311716358128
 51
269.8009068717123
  0
LINE
  5
119E1
  8
0
 10
4427.3301130370218743
 20
223.3539652541091982
 30
0.0
 11
4422.4339931348849859
 21
223.3539652541091982
 31
0.0
  0
ARC
  5
119E2
  8
0
 10
4422.6388751979457084
 20
220.9348497526702033
 30
0.0
 40
2.4277760335473411
 50
94.8409968127963765
 51
125.7918418909739984
  0
ARC
  5
119E3
  8
0
 10
4422.7974931781282066
 20
220.7148544821534983
 30
0.0
 40
2.6989910454595369
 50
125.7918418909739984
 51
139.954502996557693
  0
LINE
  5
119E4
  8
0
 10
4424.9963695465721685
 20
230.0817625149591095
 30
0.0
 11
4429.6637994678721952
 21
230.0817625149591095
 31
0.0
  0
LINE
  5
119E5
  8
0
 10
4424.9963695465721685
 20
228.6992744036091949
 30
0.0
 11
4429.6637994678721952
 21
228.6992744036091949
 31
0.0
  0
LINE
  5
119E6
  8
0
 10
4424.8497695465721335
 20
229.9351625149591882
 30
0.0
 11
4424.8497695465721335
 21
228.8458744036092014
 31
0.0
  0
ARC
  5
119E7
  8
0
 10
4424.9963695465721685
 20
229.935162514959103
 30
0.0
 40
0.1466
 50
90.0
 51
179.9999999999942872
  0
ARC
  5
119E8
  8
0
 10
4424.9963695465721685
 20
228.8458744036092014
 30
0.0
 40
0.1466
 50
180.0000000000023874
 51
270.0
  0
LINE
  5
119E9
  8
0
 10
4425.173672281922336
 20
229.8770236372938882
 30
0.0
 11
4429.4864832232769913
 21
229.8770236372938882
 31
0.0
  0
LINE
  5
119EA
  8
0
 10
4425.173672281922336
 20
228.9040697622540108
 30
0.0
 11
4429.4864832232769913
 21
228.9040697622540108
 31
0.0
  0
LINE
  5
119EB
  8
0
 10
4425.0593722819221512
 20
229.7627236372937887
 30
0.0
 11
4425.0593722819221512
 21
229.0183697622539967
 31
0.0
  0
ARC
  5
119EC
  8
0
 10
4425.173672281922336
 20
229.7627236372937887
 30
0.0
 40
0.1143
 50
90.0
 51
180.0000000000073044
  0
ARC
  5
119ED
  8
0
 10
4425.173672281922336
 20
229.0183697622539967
 30
0.0
 40
0.1143
 50
179.9999999999967031
 51
270.0
  0
LINE
  5
119EE
  8
0
 10
4425.2021209350332356
 20
229.819745780852088
 30
0.0
 11
4426.7533186434220625
 21
229.8197468444091953
 31
0.0
  0
ARC
  5
119EF
  8
0
 10
4426.7533186704076797
 20
229.7803878361428076
 30
0.0
 40
0.0393590082663472
 50
359.9846990715145125
 51
90.0000392840618844
  0
LINE
  5
119F0
  8
0
 10
4426.7926776772710582
 20
229.7803773252576036
 30
0.0
 11
4426.7924695010078722
 21
229.0008415596921907
 31
0.0
  0
ARC
  5
119F1
  8
0
 10
4426.7530965167497925
 20
229.000852074310103
 30
0.0
 40
0.0393729856612059
 50
270.3259848881705238
 51
359.984699071515422
  0
LINE
  5
119F2
  8
0
 10
4426.7533205285217264
 20
228.9614797259091006
 30
0.0
 11
4425.2021210017674093
 21
228.9614801963695925
 31
0.0
  0
ARC
  5
119F3
  8
0
 10
4425.2021130117227585
 20
229.050043065309211
 30
0.0
 40
0.0885628692999953
 50
179.9999999999951115
 51
270.0051691621783903
  0
LINE
  5
119F4
  8
0
 10
4425.1135501424223548
 20
229.050043065309211
 30
0.0
 11
4425.1135501424223548
 21
229.7298723642120137
 31
0.0
  0
ARC
  5
119F5
  8
0
 10
4425.2034332565535806
 20
229.7298723642120137
 30
0.0
 40
0.0898831141316807
 50
90.841635776929138
 51
179.9999999999951115
  0
ARC
  5
119F6
  8
0
 10
4425.2434703339222324
 20
229.7803767655092031
 30
0.0
 40
0.0590551181000135
 50
41.8090069134392124
 51
138.297417703862493
  0
ARC
  5
119F7
  8
0
 10
4425.3722891776724282
 20
229.7931416937400115
 30
0.0
 40
0.0398188696032991
 50
90.1860965301111577
 51
138.0770950372198058
  0
LINE
  5
119F8
  8
0
 10
4425.3721598463225746
 20
229.8329603533090904
 30
0.0
 11
4425.6659615148973899
 21
229.832963103759397
 31
0.0
  0
ARC
  5
119F9
  8
0
 10
4425.6657661650424416
 20
229.7929931864294133
 30
0.0
 40
0.0399675687893946
 50
42.0181531945225473
 51
89.7199537374122542
  0
ARC
  5
119FA
  8
0
 10
4426.3852026174226921
 20
229.7803767657092067
 30
0.0
 40
0.0590551181000116
 50
41.8100256047565395
 51
138.190052963357914
  0
ARC
  5
119FB
  8
0
 10
4426.7001632473220525
 20
229.7803767657092067
 30
0.0
 40
0.0590551181
 50
41.8103066976737594
 51
138.1897718704244085
  0
ARC
  5
119FC
  8
0
 10
4425.1529191528215961
 20
229.6858885765091998
 30
0.0
 40
0.0590551180999966
 50
131.8089157932018054
 51
228.1910757070747877
  0
ARC
  5
119FD
  8
0
 10
4425.0894849644046189
 20
229.6655011949920038
 30
0.0
 40
0.0080339676378647
 50
99.2529038575187315
 51
132.8428434050638032
  0
LINE
  5
119FE
  8
0
 10
4425.0881931619542229
 20
229.6734306263988117
 30
0.0
 11
4425.0952737191219057
 21
229.6733207830091033
 31
0.0
  0
ARC
  5
119FF
  8
0
 10
4425.0888240971398773
 20
229.5872020445958981
 30
0.0
 40
0.0068805093003206
 50
225.6641504293750984
 51
267.9340865072850875
  0
LINE
  5
11A00
  8
0
 10
4425.0885760604232928
 20
229.5803260075090861
 30
0.0
 11
4425.1135501424223548
 21
229.5803260075090861
 31
0.0
  0
ARC
  5
11A01
  8
0
 10
4425.15291915292255
 20
229.0953373954091887
 30
0.0
 40
0.059055118100005
 50
131.8089244231564976
 51
228.1910755768386139
  0
ARC
  5
11A02
  8
0
 10
4425.2434703340222768
 20
229.0008492064091001
 30
0.0
 40
0.0590551180999986
 50
221.75546398126491
 51
318.1910424754161113
  0
ARC
  5
11A03
  8
0
 10
4425.8665251028351122
 20
228.9479559139213052
 30
0.0
 40
0.0193802419525534
 50
135.750553115436901
 51
180.0734849669877065
  0
LINE
  5
11A04
  8
0
 10
4425.8471448768223127
 20
228.9479310577092122
 30
0.0
 11
4425.8471553236677209
 21
228.9397857208124947
 31
0.0
  0
ARC
  5
11A05
  8
0
 10
4425.8720264919020337
 20
228.9398176194617065
 30
0.0
 40
0.0248711886910765
 50
180.0734849669908897
 51
198.4376032987663905
  0
ARC
  5
11A06
  8
0
 10
4426.1164818715224101
 20
228.9479582222091949
 30
0.0
 40
0.0193763074000144
 50
0.0
 51
44.2545006370964913
  0
LINE
  5
11A07
  8
0
 10
4426.1358581789218078
 20
228.9479582222091949
 30
0.0
 11
4426.1358581789218078
 21
228.939753343700005
 31
0.0
  0
ARC
  5
11A08
  8
0
 10
4426.1114522661109731
 20
228.939753343700005
 30
0.0
 40
0.024405912811566
 50
341.3749855471817227
 51
0.0
  0
ARC
  5
11A09
  8
0
 10
4426.3852026175227365
 20
229.000849206609189
 30
0.0
 40
0.0590551181000037
 50
221.8093737573269948
 51
318.1905914884181925
  0
ARC
  5
11A0A
  8
0
 10
4426.7001632474220969
 20
229.000849206609189
 30
0.0
 40
0.0590551181000065
 50
221.809498096258892
 51
318.1904671494502281
  0
LINE
  5
11A0B
  8
0
 10
4426.8130444027883641
 20
229.7822643218534893
 30
0.0
 11
4426.8116961673222249
 21
229.002655563909201
 31
0.0
  0
ARC
  5
11A0C
  8
0
 10
4426.7867774206215472
 20
229.492975190909192
 30
0.0
 40
0.0118110235999899
 50
300.008770885358615
 51
0.0
  0
LINE
  5
11A0D
  8
0
 10
4426.7985884442223323
 20
229.492975190909192
 30
0.0
 11
4426.7985884442223323
 21
229.6026518510091989
 31
0.0
  0
LINE
  5
11A0E
  8
0
 10
4426.7985884442223323
 20
229.6026518510091989
 30
0.0
 11
4426.7926302158257386
 21
229.6026534421635006
 31
0.0
  0
ARC
  5
11A0F
  8
0
 10
4426.7943671448028908
 20
229.4773825658872966
 30
0.0
 40
0.0120963134612325
 50
261.5688188993121912
 51
359.2638765495364055
  0
LINE
  5
11A10
  8
0
 10
4426.8064624600228854
 20
229.2665972382044117
 30
0.0
 11
4426.8064624600228854
 21
229.5146287342359983
 31
0.0
  0
ARC
  5
11A11
  8
0
 10
4426.8182315713620483
 20
229.5146402030958939
 30
0.0
 40
0.0117691204406171
 50
118.5948633971775052
 51
180.0708617306439123
  0
ARC
  5
11A12
  8
0
 10
4426.810399492194847
 20
229.5266458755936014
 30
0.0
 40
0.0118110480155815
 50
90.0001184023130918
 51
180.0002308339622914
  0
LINE
  5
11A13
  8
0
 10
4426.8103994677858282
 20
229.5384569236090897
 30
0.0
 11
4426.8126227685106642
 21
229.5384569282036011
 31
0.0
  0
LINE
  5
11A14
  8
0
 10
4426.7926829324223945
 20
229.6792177173092
 30
0.0
 11
4426.812865414089174
 21
229.6791828124960091
 31
0.0
  0
LINE
  5
11A15
  8
0
 10
4426.7926829324223945
 20
229.6585320857091972
 30
0.0
 11
4426.8128296392051197
 21
229.6584972427673108
 31
0.0
  0
LINE
  5
11A16
  8
0
 10
4426.7926829323569109
 20
229.642425121309202
 30
0.0
 11
4426.812801842990666
 21
229.6424250587091933
 31
0.0
  0
LINE
  5
11A17
  8
0
 10
4426.7926829324223945
 20
229.6150224350091946
 30
0.0
 11
4426.8127551789430072
 21
229.6150224350091946
 31
0.0
  0
ARC
  5
11A18
  8
0
 10
4426.7942580077879029
 20
229.3037611702179106
 30
0.0
 40
0.0122067656674198
 50
1.115511664205894
 51
98.0262138388928861
  0
ARC
  5
11A19
  8
0
 10
4426.7867774206215472
 20
229.2882507815091913
 30
0.0
 40
0.0118110235999852
 50
0.0000000522201279
 51
60.7473958451202876
  0
LINE
  5
11A1A
  8
0
 10
4426.7985884443232862
 20
229.1785741213091967
 30
0.0
 11
4426.7925169647696748
 21
229.1785741213091967
 31
0.0
  0
LINE
  5
11A1B
  8
0
 10
4426.7985884443232862
 20
229.1785741213091967
 30
0.0
 11
4426.7985884442223323
 21
229.2882507815091913
 31
0.0
  0
ARC
  5
11A1C
  8
0
 10
4426.818273483622761
 20
229.2665972382091866
 30
0.0
 40
0.0118110235999931
 50
180.0000000000341913
 51
238.652030960963998
  0
ARC
  5
11A1D
  8
0
 10
4426.8106828736954412
 20
229.2549381837993963
 30
0.0
 40
0.0122526079413115
 50
189.216487108319086
 51
276.6918024680808799
  0
LINE
  5
11A1E
  8
0
 10
4426.7925136611856942
 20
229.1662035374091886
 30
0.0
 11
4426.8119782363610284
 21
229.1662035374091886
 31
0.0
  0
LINE
  5
11A1F
  8
0
 10
4426.7925051955508025
 20
229.134503161530688
 30
0.0
 11
4426.8119234117220913
 21
229.1345031264091858
 31
0.0
  0
LINE
  5
11A20
  8
0
 10
4426.7925020418651911
 20
229.1226938866091984
 30
0.0
 11
4426.8119029881227107
 21
229.1226938866091984
 31
0.0
  0
LINE
  5
11A21
  8
0
 10
4426.7924965176716796
 20
229.1020080185624863
 30
0.0
 11
4426.8118672127220634
 21
229.1020080234090983
 31
0.0
  0
ARC
  5
11A22
  8
0
 10
4426.8525505269399218
 20
229.7821389656253075
 30
0.0
 40
0.039506322747345
 50
86.8615064099486176
 51
179.8184840512041944
  0
ARC
  5
11A23
  8
0
 10
4426.8969972085224072
 20
229.7804158173510132
 30
0.0
 40
0.0590160994565566
 50
43.9979990284500531
 51
135.7644398890755895
  0
LINE
  5
11A24
  8
0
 10
4426.8547541975221975
 20
229.8215568425092101
 30
0.0
 11
4427.3732549417227347
 21
229.8206601156090869
 31
0.0
  0
ARC
  5
11A25
  8
0
 10
4427.3300897919070849
 20
229.7804174804614945
 30
0.0
 40
0.0590144036842348
 50
42.9932415173655968
 51
136.8085770561177981
  0
LINE
  5
11A26
  8
0
 10
4427.3732549417227347
 20
229.8206601156090869
 30
0.0
 11
4429.1081129344220244
 21
229.8176597462091877
 31
0.0
  0
LINE
  5
11A27
  8
0
 10
4429.4698564888112742
 20
229.8492905291400916
 30
0.0
 11
4425.1903205077396706
 21
229.8492902168896137
 31
0.0
  0
ARC
  5
11A28
  8
0
 10
4425.1903205154958414
 20
229.7429902168896092
 30
0.0
 40
0.1063
 50
90.0000041804893129
 51
180.0141734270115137
  0
LINE
  5
11A29
  8
0
 10
4425.0840205187478205
 20
229.7429639211433994
 30
0.0
 11
4425.0841948460929416
 21
229.0382493237844983
 31
0.0
  0
ARC
  5
11A2A
  8
0
 10
4425.190535669638848
 20
229.0382756296301068
 30
0.0
 40
0.106340826799996
 50
180.0141734270115137
 51
269.8797829070261969
  0
LINE
  5
11A2B
  8
0
 10
4425.1903125471708336
 20
228.9319350369061965
 30
0.0
 11
4429.4698564649179389
 21
228.9320425197406905
 31
0.0
  0
ARC
  5
11A2C
  8
0
 10
4429.4700411633766635
 20
229.0381676722761881
 30
0.0
 40
0.1061253132584805
 50
269.9002834747814177
 51
0.0416304046092745
  0
LINE
  5
11A2D
  8
0
 10
4429.5761664486217342
 20
229.038244781609194
 30
0.0
 11
4429.5761646707333057
 21
229.742971983417192
 31
0.0
  0
ARC
  5
11A2E
  8
0
 10
4429.4698458562570522
 20
229.7429717151956083
 30
0.0
 40
0.1063188144762565
 50
0.0001445461159554
 51
89.9942700372457836
  0
LINE
  5
11A2F
  8
0
 10
4428.5434341181771742
 20
229.818639362894487
 30
0.0
 11
4428.5433327732716862
 21
229.8310444101647079
 31
0.0
  0
ARC
  5
11A30
  8
0
 10
4428.5840115056307695
 20
229.8313767412035986
 30
0.0
 40
0.0406800898510796
 50
153.8734040434896997
 51
180.468076098302987
  0
ARC
  5
11A31
  8
0
 10
4428.5989146263145813
 20
229.8320762091715892
 30
0.0
 40
0.0376208059869051
 50
358.4283884505202877
 51
27.2305975637980495
  0
LINE
  5
11A32
  8
0
 10
4428.636521280355737
 20
229.8310444073948133
 30
0.0
 11
4428.6364193500303372
 21
229.8184785312824943
 31
0.0
  0
ARC
  5
11A33
  8
0
 10
4429.0623679717227787
 20
229.7803767661092138
 30
0.0
 40
0.0590551180999974
 50
39.1856248889825665
 51
140.6539781532542008
  0
LINE
  5
11A34
  8
0
 10
4429.1081417730556495
 20
229.8176898480681132
 30
0.0
 11
4429.4630486836176715
 21
229.8169435033208003
 31
0.0
  0
ARC
  5
11A35
  8
0
 10
4429.4167019939886814
 20
229.7804294466691886
 30
0.0
 40
0.0590024742927145
 50
38.2326680581754204
 51
141.4422810738522003
  0
ARC
  5
11A36
  8
0
 10
4429.4586412775579447
 20
229.7284860389274002
 30
0.0
 40
0.0885671961568011
 50
359.2266663533554834
 51
92.6114339287263135
  0
ARC
  5
11A37
  8
0
 10
4429.5072498619865655
 20
229.6858885772086012
 30
0.0
 40
0.0590551177859578
 50
312.4191543514435807
 51
47.4248427088165982
  0
LINE
  5
11A38
  8
0
 10
4429.5472040001859568
 20
229.729376205074999
 30
0.0
 11
4429.5460348192227684
 21
229.0508642559096018
 31
0.0
  0
ARC
  5
11A39
  8
0
 10
4429.5073306280391989
 20
229.0953610455250953
 30
0.0
 40
0.0589743902149141
 50
311.0173937040178771
 51
48.7844249047934468
  0
ARC
  5
11A3A
  8
0
 10
4429.4574045062017831
 20
229.0474772527275888
 30
0.0
 40
0.0886950064924341
 50
269.3207882749367172
 51
2.1884905493072471
  0
ARC
  5
11A3B
  8
0
 10
4429.4167364163613456
 20
229.0007570261385865
 30
0.0
 40
0.0589629849055466
 50
225.1858684434805866
 51
314.615950120106902
  0
LINE
  5
11A3C
  8
0
 10
4429.4581491419894519
 20
228.9587853720719863
 30
0.0
 11
4429.0202272912210901
 21
228.9595427409091997
 31
0.0
  0
ARC
  5
11A3D
  8
0
 10
4429.062366139556616
 20
229.000691433909509
 30
0.0
 40
0.0588973469238451
 50
224.3188771289850081
 51
315.4829414362744728
  0
LINE
  5
11A3E
  8
0
 10
4429.0202272912210901
 20
228.9595427409091997
 30
0.0
 11
4427.2851735774993358
 21
228.9625019075058105
 31
0.0
  0
ARC
  5
11A3F
  8
0
 10
4427.330084507322681
 20
229.000849206709205
 30
0.0
 40
0.0590551180999952
 50
220.4393774292589967
 51
319.3098774423996247
  0
LINE
  5
11A40
  8
0
 10
4427.2851380882102603
 20
228.9625435102292101
 30
0.0
 11
4426.8511369322823157
 21
228.9630974759747062
 31
0.0
  0
ARC
  5
11A41
  8
0
 10
4426.8967816364420287
 20
229.001349173270313
 30
0.0
 40
0.0595536007632381
 50
219.9640659027614902
 51
320.0370151580087281
  0
ARC
  5
11A42
  8
0
 10
4426.8514157971103486
 20
229.0028164526750061
 30
0.0
 40
0.0397199556358403
 50
180.2320816404125026
 51
269.5977359808961751
  0
LINE
  5
11A43
  8
0
 10
4426.9371248323641339
 20
228.9575421201091956
 30
0.0
 11
4426.9580372632217404
 21
228.9575421201091956
 31
0.0
  0
ARC
  5
11A44
  8
0
 10
4426.9580372632217404
 20
228.9693531437090996
 30
0.0
 40
0.0118110235999893
 50
270.0
 51
327.7859997972929023
  0
ARC
  5
11A45
  8
0
 10
4427.7776729370252724
 20
228.9386764729119079
 30
0.0
 40
0.0211059457008172
 50
183.3436719507336932
 51
198.4425892168281962
  0
ARC
  5
11A46
  8
0
 10
4428.6551381426361331
 20
228.9420736183720919
 30
0.0
 40
0.8985471407959041
 50
179.4578019566899911
 51
180.2951148204832919
  0
ARC
  5
11A47
  8
0
 10
4427.7722914251326074
 20
228.9495938509031987
 30
0.0
 40
0.0156909945043268
 50
129.5759422856179128
 51
182.6146691656423116
  0
ARC
  5
11A48
  8
0
 10
4428.0259290875219449
 20
228.9479577488091877
 30
0.0
 40
0.0193779500000169
 50
0.0
 51
43.1657811415685302
  0
ARC
  5
11A49
  8
0
 10
4489.9601891990123477
 20
228.9479577488091877
 30
0.0
 40
61.9148821614911213
 50
180.0
 51
180.0075847273982106
  0
ARC
  5
11A4A
  8
0
 10
4428.0165328297998713
 20
228.9397577425548036
 30
0.0
 40
0.0287747504747993
 50
344.3732737159444923
 51
0.0075847273942086
  0
ARC
  5
11A4B
  8
0
 10
4426.9077037157367158
 20
229.8327141320316969
 30
0.0
 40
0.0355738693106075
 50
152.2272525725857122
 51
178.0836436876865889
  0
ARC
  5
11A4C
  8
0
 10
4426.9268511666514314
 20
229.8318939543732995
 30
0.0
 40
0.0384197536767772
 50
358.73296772917098
 51
26.9233497873847796
  0
LINE
  5
11A4D
  8
0
 10
4426.965261526622271
 20
229.8310444136091917
 30
0.0
 11
4426.9650474664940702
 21
229.8213660945791048
 31
0.0
  0
LINE
  5
11A4E
  8
0
 10
4429.6007832232771761
 20
229.7627236372937887
 30
0.0
 11
4429.6007832232771761
 21
229.0183697622539967
 31
0.0
  0
ARC
  5
11A4F
  8
0
 10
4429.4864832232769913
 20
229.7627236372937887
 30
0.0
 40
0.1143
 50
359.9999999999968168
 51
90.0
  0
ARC
  5
11A50
  8
0
 10
4429.4864832232769913
 20
229.0183697622539967
 30
0.0
 40
0.1143
 50
270.0
 51
0.000000000007328
  0
LINE
  5
11A51
  8
0
 10
4429.8103994678722302
 20
229.9351625149591882
 30
0.0
 11
4429.8103994678722302
 21
228.8458744036092014
 31
0.0
  0
ARC
  5
11A52
  8
0
 10
4429.6637994678721952
 20
229.9351625149591882
 30
0.0
 40
0.1466
 50
0.0
 51
90.0
  0
ARC
  5
11A53
  8
0
 10
4429.6637994678721952
 20
228.8458744036092014
 30
0.0
 40
0.1466
 50
270.0
 51
359.9999999999919282
  0
ARC
  5
11A54
  8
0
 10
4364.6841238222759785
 20
231.2099563389043908
 30
0.0
 40
69.4783077762754147
 50
357.9305497614745946
 51
0.9287778740105229
  0
ARC
  5
11A55
  8
0
 10
4430.4613866261088333
 20
228.8797516584101004
 30
0.0
 40
3.6600963799330648
 50
339.030394126568126
 51
357.2012156860278083
  0
ARC
  5
11A56
  8
0
 10
4428.1744871100081582
 20
344.3376513455235113
 30
0.0
 40
118.019216253428894
 50
269.5900711342583236
 51
271.0199491429008845
  0
ARC
  5
11A57
  8
0
 10
4430.0094377026216534
 20
241.2699448965263969
 30
0.0
 40
14.9351769634691802
 50
271.0199491429008845
 51
279.3786199403787123
  0
ARC
  5
11A58
  8
0
 10
4432.1380917685501117
 20
228.4707534201764076
 30
0.0
 40
1.960244409248316
 50
278.9556088580237088
 51
332.6412729383022793
  0
LINE
  5
11A59
  8
0
 10
4434.3212589448221479
 20
232.3701942065463868
 30
0.0
 11
4434.1477167566654316
 21
232.3701942065463868
 31
0.0
  0
ARC
  5
11A5A
  8
0
 10
4434.3212589448221479
 20
232.1732942065463874
 30
0.0
 40
0.1969
 50
0.0
 51
90.0
  0
LINE
  5
11A5B
  8
0
 10
4434.518158944822062
 20
232.1732942065463874
 30
0.0
 11
4434.5118120441220526
 21
213.6698224509092086
 31
0.0
  0
ARC
  5
11A5C
  8
0
 10
4434.0352188510578344
 20
232.3342521527096949
 30
0.0
 40
0.1181
 50
0.928777874011337
 51
90.0
  0
ARC
  5
11A5D
  8
0
 10
4414.7505827170416524
 20
213.4273766368698944
 30
0.0
 40
19.7627165260804212
 50
348.1637195416099075
 51
0.7029130001262659
  0
ARC
  5
11A5E
  8
0
 10
4428.5194874837470707
 20
210.5418021899182861
 30
0.0
 40
5.6946932689383534
 50
303.5343146887000216
 51
348.1637195416099075
  0
ARC
  5
11A5F
  8
0
 10
4427.3449479970749962
 20
214.758348639756008
 30
0.0
 40
9.9503258478981031
 50
269.9145775798318141
 51
295.7348042208462857
  0
LINE
  5
11A60
  8
0
 10
4431.0308990471212383
 20
223.4327054108092057
 30
0.0
 11
4427.3301130370218743
 21
223.4327054108092057
 31
0.0
  0
LINE
  5
11A61
  8
0
 10
4431.0702990471227167
 20
223.3539652541091129
 30
0.0
 11
4431.0702990471227167
 21
223.3933054108092051
 31
0.0
  0
ARC
  5
11A62
  8
0
 10
4431.0308990471212383
 20
223.3933054108092051
 30
0.0
 40
0.0394
 50
359.9999999999894271
 51
90.0
  0
ARC
  5
11A63
  8
0
 10
4430.0168687257710189
 20
222.4475654919801002
 30
0.0
 40
1.0188762680686481
 50
75.2146493276135431
 51
89.6516934247248969
  0
ARC
  5
11A64
  8
0
 10
4425.8807136652012559
 20
-5290.0892192168266774
 30
0.0
 40
5513.5571982290230153
 50
89.9569535380821037
 51
89.9849381325569766
  0
LINE
  5
11A65
  8
0
 10
4431.086096951122272
 20
223.3539652541091129
 30
0.0
 11
4431.0899840865222359
 21
223.4327054115092039
 31
0.0
  0
LINE
  5
11A66
  8
0
 10
4431.0899840865222359
 20
223.4327054115092039
 30
0.0
 11
4431.5309164532227442
 21
223.4327084972090915
 31
0.0
  0
ARC
  5
11A67
  8
0
 10
4431.5309169625388677
 20
223.3599294846063117
 30
0.0
 40
0.0727790126046828
 50
355.3032096110611064
 51
90.0004009630368955
  0
ARC
  5
11A68
  8
0
 10
4431.7002514958276151
 20
223.3341619805063942
 30
0.0
 40
0.0788518978453088
 50
90.0300467588735529
 51
165.4601506232627059
  0
ARC
  5
11A69
  8
0
 10
4431.7373757738796485
 20
152.5423582665667936
 30
0.0
 40
70.8706653460469198
 50
89.6947047274044706
 51
90.0300467588735529
  0
ARC
  5
11A6A
  8
0
 10
4432.0293978653144222
 20
221.0259200314368968
 30
0.0
 40
2.3876325805935918
 50
65.7025490915778931
 51
87.9453309563745051
  0
ARC
  5
11A6B
  8
0
 10
4431.8771404423996501
 20
220.8803859805668992
 30
0.0
 40
2.5841297970918009
 50
24.7031209407849417
 51
63.953175320572889
  0
ARC
  5
11A6C
  8
0
 10
4432.3023904326482807
 20
221.0760071873596928
 30
0.0
 40
2.1160430415076101
 50
357.7182626539209878
 51
24.7031209407841992
  0
ARC
  5
11A6D
  8
0
 10
3575.7583454911118679
 20
219.3650785118379076
 30
0.0
 40
858.6599510781621802
 50
359.6200490674518733
 51
0.1085436318190481
  0
ARC
  5
11A6E
  8
0
 10
4418.0785675512652233
 20
213.0981243801946903
 30
0.0
 40
16.3309004962562092
 50
346.8646610824250729
 51
2.0103300453492312
  0
ARC
  5
11A6F
  8
0
 10
4428.3760582991517367
 20
210.660054474746687
 30
0.0
 40
5.748878634463213
 50
305.9310342818836261
 51
347.2050655345365726
  0
ARC
  5
11A70
  8
0
 10
4427.2973765992883273
 20
214.3076968987157045
 30
0.0
 40
9.4210358184558345
 50
270.1990931282875863
 51
303.1454688283641872
  0
LINE
  5
11A71
  8
0
 10
4427.3301130370218743
 20
223.3539652541091982
 30
0.0
 11
4432.2262329391596722
 21
223.3539652541091982
 31
0.0
  0
ARC
  5
11A72
  8
0
 10
4432.0213508760971308
 20
220.9348497526702033
 30
0.0
 40
2.4277760335473411
 50
54.2081581090259235
 51
85.1590031872036235
  0
ARC
  5
11A73
  8
0
 10
4431.862732895917361
 20
220.7148544821534983
 30
0.0
 40
2.6989910454595369
 50
40.0454970034422573
 51
54.2081581090259235
  0
ENDSEC
  0
EOF
