  0
SECTION
  2
HEADER
  9
$ACADVER
  1
AC1009
  9
$INSBASE
 10
604.090531855653353
 20
-7.0059649065526477
 30
0.0
  9
$EXTMIN
 10
602.9264845517534468
 20
-7.0108951300231217
 30
0.0
  9
$EXTMAX
 10
607.3932406658045693
 20
11.0609121149617593
 30
0.0
  9
$LIMMIN
 10
0.0
 20
0.0
  9
$LIMMAX
 10
11.6929133858000007
 20
8.2677165353999982
  9
$ORTHOMODE
 70
     0
  9
$REGENMODE
 70
     1
  9
$FILLMODE
 70
     1
  9
$QTEXTMODE
 70
     0
  9
$MIRRTEXT
 70
     0
  9
$DRAGMODE
 70
     2
  9
$LTSCALE
 40
0.6431102362
  9
$OSMODE
 70
  4095
  9
$ATTMODE
 70
     1
  9
$TEXTSIZE
 40
0.2
  9
$TRACEWID
 40
0.05
  9
$TEXTSTYLE
  7
STANDARD
  9
$CLAYER
  8
0
  9
$CELTYPE
  6
BYLAYER
  9
$CECOLOR
 62
   256
  9
$DIMSCALE
 40
1.0
  9
$DIMASZ
 40
0.1875
  9
$DIMEXO
 40
0.0625
  9
$DIMDLI
 40
0.4443307087
  9
$DIMRND
 40
0.0
  9
$DIMDLE
 40
0.0
  9
$DIMEXE
 40
0.125
  9
$DIMTP
 40
0.01
  9
$DIMTM
 40
0.01
  9
$DIMTXT
 40
1.0
  9
$DIMCEN
 40
0.1052362205
  9
$DIMTSZ
 40
0.0
  9
$DIMTOL
 70
     1
  9
$DIMLIM
 70
     0
  9
$DIMTIH
 70
     1
  9
$DIMTOH
 70
     1
  9
$DIMSE1
 70
     0
  9
$DIMSE2
 70
     0
  9
$DIMTAD
 70
     0
  9
$DIMZIN
 70
     0
  9
$DIMBLK
  1

  9
$DIMASO
 70
     1
  9
$DIMSHO
 70
     1
  9
$DIMPOST
  1
\X
  9
$DIMAPOST
  1

  9
$DIMALT
 70
     1
  9
$DIMALTD
 70
     2
  9
$DIMALTF
 40
25.3999999999999986
  9
$DIMLFAC
 40
1.0
  9
$DIMTOFL
 70
     0
  9
$DIMTVP
 40
0.0
  9
$DIMTIX
 70
     0
  9
$DIMSOXD
 70
     0
  9
$DIMSAH
 70
     0
  9
$DIMBLK1
  1

  9
$DIMBLK2
  1

  9
$DIMSTYLE
  2
STANDARD
  9
$DIMCLRD
 70
     0
  9
$DIMCLRE
 70
     0
  9
$DIMCLRT
 70
     0
  9
$DIMTFAC
 40
1.0
  9
$DIMGAP
 40
0.09
  9
$LUNITS
 70
     2
  9
$LUPREC
 70
     4
  9
$SKETCHINC
 40
0.1
  9
$FILLETRAD
 40
0.0
  9
$AUNITS
 70
     0
  9
$AUPREC
 70
     0
  9
$MENU
  1
.
  9
$ELEVATION
 40
0.0
  9
$PELEVATION
 40
0.0
  9
$THICKNESS
 40
0.0
  9
$LIMCHECK
 70
     0
  9
$BLIPMODE
 70
     0
  9
$CHAMFERA
 40
0.0
  9
$CHAMFERB
 40
0.0
  9
$SKPOLY
 70
     0
  9
$TDCREATE
 40
2458306.6094560190103948
  9
$TDUPDATE
 40
2460675.7123495368286967
  9
$TDINDWG
 40
0.0908539352
  9
$TDUSRTIMER
 40
0.0908538079
  9
$USRTIMER
 70
     1
  9
$ANGBASE
 50
0.0
  9
$ANGDIR
 70
     0
  9
$PDMODE
 70
     0
  9
$PDSIZE
 40
0.3125
  9
$PLINEWID
 40
0.0
  9
$COORDS
 70
     1
  9
$SPLFRAME
 70
     0
  9
$SPLINETYPE
 70
     6
  9
$SPLINESEGS
 70
     8
  9
$ATTDIA
 70
     1
  9
$ATTREQ
 70
     1
  9
$HANDLING
 70
     1
  9
$HANDSEED
  5
33EB
  9
$SURFTAB1
 70
     6
  9
$SURFTAB2
 70
     6
  9
$SURFTYPE
 70
     6
  9
$SURFU
 70
     6
  9
$SURFV
 70
     6
  9
$UCSNAME
  2

  9
$UCSORG
 10
0.0
 20
0.0
 30
0.0
  9
$UCSXDIR
 10
1.0
 20
0.0
 30
0.0
  9
$UCSYDIR
 10
0.0
 20
1.0
 30
0.0
  9
$PUCSNAME
  2

  9
$PUCSORG
 10
0.0
 20
0.0
 30
0.0
  9
$PUCSXDIR
 10
1.0
 20
0.0
 30
0.0
  9
$PUCSYDIR
 10
0.0
 20
1.0
 30
0.0
  9
$USERI1
 70
     0
  9
$USERI2
 70
     0
  9
$USERI3
 70
     0
  9
$USERI4
 70
     0
  9
$USERI5
 70
     0
  9
$USERR1
 40
0.0
  9
$USERR2
 40
0.0
  9
$USERR3
 40
0.0
  9
$USERR4
 40
0.0
  9
$USERR5
 40
0.0
  9
$WORLDVIEW
 70
     1
  9
$SHADEDGE
 70
     3
  9
$SHADEDIF
 70
    70
  9
$TILEMODE
 70
     1
  9
$MAXACTVP
 70
    64
  9
$PLIMCHECK
 70
     0
  9
$PEXTMIN
 10
1.0000000000000000E+20
 20
1.0000000000000000E+20
 30
1.0000000000000000E+20
  9
$PEXTMAX
 10
-1.0000000000000000E+20
 20
-1.0000000000000000E+20
 30
-1.0000000000000000E+20
  9
$PLIMMIN
 10
0.0
 20
0.0
  9
$PLIMMAX
 10
12.0
 20
9.0
  9
$UNITMODE
 70
     0
  9
$VISRETAIN
 70
     1
  9
$PLINEGEN
 70
     0
  9
$PSLTSCALE
 70
     1
  0
ENDSEC
  0
SECTION
  2
TABLES
  0
TABLE
  2
VPORT
 70
     1
  0
VPORT
  2
*ACTIVE
 70
     0
 10
0.0
 20
0.0
 11
1.0
 21
1.0
 12
89.86409797760723
 22
7.925279192924032
 13
0.0
 23
0.0
 14
1.0
 24
1.0
 15
0.0
 25
0.0
 16
0.0
 26
0.0
 36
51.4704153786931471
 17
515.2957646311716644
 27
-5.900270700454711
 37
0.0
 40
18.2084928490845499
 41
2.204387990762124
 42
50.0
 43
0.0
 44
0.0
 50
0.0
 51
0.0
 71
     0
 72
   100
 73
     1
 74
     1
 75
     0
 76
     0
 77
     0
 78
     0
  0
ENDTAB
  0
TABLE
  2
LTYPE
 70
     1
  0
LTYPE
  2
CONTINUOUS
 70
     0
  3
Solid line
 72
    65
 73
     0
 40
0.0
  0
ENDTAB
  0
TABLE
  2
LAYER
 70
     3
  0
LAYER
  2
0
 70
     0
 62
   255
  6
CONTINUOUS
  0
LAYER
  2
DEFPOINT
 70
     0
 62
     7
  6
CONTINUOUS
  0
LAYER
  2
DEFPOINTS
 70
     0
 62
     7
  6
CONTINUOUS
  0
ENDTAB
  0
TABLE
  2
STYLE
 70
     1
  0
STYLE
  2
STANDARD
 70
     0
 40
0.0
 41
0.8
 50
0.0
 71
     0
 42
0.2
  3
txt
  4

  0
ENDTAB
  0
TABLE
  2
VIEW
 70
     0
  0
ENDTAB
  0
TABLE
  2
UCS
 70
     0
  0
ENDTAB
  0
TABLE
  2
APPID
 70
    10
  0
APPID
  2
ACAD
 70
     0
  0
APPID
  2
ACADANNOTATIVE
 70
     0
  0
APPID
  2
ACAD_MLEADERVER
 70
     0
  0
APPID
  2
ACAD_EXEMPT_FROM_CAD_STANDARDS
 70
     0
  0
APPID
  2
ACAD_DSTYLE_DIMJAG
 70
     0
  0
APPID
  2
ACAD_DSTYLE_DIMTALN
 70
     0
  0
APPID
  2
ACAD_NAV_VCDISPLAY
 70
     0
  0
APPID
  2
ACAECLAYERSTANDARD
 70
     0
  0
APPID
  2
ACCMTRANSPARENCY
 70
     0
  0
APPID
  2
ACDBATTR
 70
     0
  0
ENDTAB
  0
TABLE
  2
DIMSTYLE
 70
     1
  0
DIMSTYLE
  2
STANDARD
 70
     0
  3

  4

  5

  6

  7

 40
1.0
 41
0.1875
 42
0.0625
 43
0.38
 44
0.125
 45
0.0
 46
0.0
 47
0.01
 48
0.01
140
0.15625
141
0.09
142
0.0
143
25.3999999999999986
144
1.0
145
0.0
146
1.0
147
0.09
 71
     1
 72
     0
 73
     1
 74
     1
 75
     0
 76
     0
 77
     0
 78
     4
170
     0
171
     2
172
     0
173
     0
174
     0
175
     0
176
     0
177
     0
178
     0
  0
ENDTAB
  0
ENDSEC
  0
SECTION
  2
BLOCKS
  0
BLOCK
  8
0
  2
$MODEL_SPACE
 70
     0
 10
0.0
 20
0.0
 30
0.0
  3
$MODEL_SPACE
  1

  0
ENDBLK
  5
1598
  8
0
  0
BLOCK
 67
     1
  8
0
  2
$PAPER_SPACE
 70
     0
 10
0.0
 20
0.0
 30
0.0
  3
$PAPER_SPACE
  1

  0
ENDBLK
  5
1594
 67
     1
  8
0
  0
BLOCK
  8
0
  2
_FILLED
 70
     0
 10
0.0
 20
0.0
 30
0.0
  3
_FILLED
  1

  0
SOLID
  5
2C8D
  8
0
  6
BYBLOCK
 62
     0
 10
0.0
 20
0.0
 30
0.0
 11
-1.0
 21
0.1666666667
 31
0.0
 12
-1.0
 22
-0.1666666667
 32
0.0
 13
-1.0
 23
-0.1666666667
 33
0.0
  0
ENDBLK
  5
2C8E
  8
0
  6
BYBLOCK
 62
     0
  0
ENDSEC
  0
SECTION
  2
ENTITIES
  0
ATTDEF
  5
23C5
  8
DEFPOINT
 10
604.0847835121375056
 20
-7.0075617966897923
 30
0.0
 40
0.001
  1
K-28271-RT2
  3

  2
MODELNUMBER
 70
     0
1001
ACDBATTR
1070
     0
1070
     1
  0
ATTDEF
  5
23C6
  8
DEFPOINT
 10
604.0847835121375056
 20
-7.0092284633564574
 30
0.0
 40
0.001
  1
COMPONENTS
  3

  2
TRADENAME
 70
     0
1001
ACDBATTR
1070
     0
1070
     1
  0
ATTDEF
  5
23C7
  8
DEFPOINT
 10
604.0847835121375056
 20
-7.0108951300231217
 30
0.0
 40
0.001
  1
KITCHEN SINK FACUET
  3

  2
PRODUCT
 70
     0
1001
ACDBATTR
1070
     0
1070
     1
  0
LINE
  5
3192
  8
0
 10
602.9393179638020683
 20
-6.945964906551608
 30
0.0
 11
605.2417394884533905
 21
-6.945964906551608
 31
0.0
  0
LINE
  5
3193
  8
0
 10
605.2199058682532495
 20
-6.7270672687516111
 30
0.0
 11
602.9611515842020708
 21
-6.7270672687516111
 31
0.0
  0
LINE
  5
3194
  8
0
 10
606.5553944889878721
 20
-2.2266700126079679
 30
0.0
 11
606.5561490145879588
 21
-2.2265634135079599
 31
0.0
  0
LINE
  5
3195
  8
0
 10
607.3450306186880425
 20
-2.2267220994079651
 30
0.0
 11
606.8928306186878672
 21
-2.2290898347079628
 31
0.0
  0
LINE
  5
3196
  8
0
 10
603.4002177078880322
 20
-2.2266700127057808
 30
0.0
 11
606.5553944847411003
 21
-2.226670013207964
 31
0.0
  0
LINE
  5
3197
  8
0
 10
606.7752977078879439
 20
-2.217936638007969
 30
0.0
 11
606.6780012681671224
 21
-2.217936638007969
 31
0.0
  0
ARC
  5
3198
  8
0
 10
606.7750676232440128
 20
-2.1922811645399629
 30
0.0
 40
0.0256565051753198
 50
270.513828974317903
 51
358.7594268186954878
  0
LINE
  5
3199
  8
0
 10
607.3680511581879955
 20
-1.4953002287079611
 30
0.0
 11
607.3549782590880568
 21
-1.495368678907965
 31
0.0
  0
LINE
  5
319A
  8
0
 10
606.7752976261352842
 20
-0.5136700135339396
 30
0.0
 11
603.4002177078880322
 21
-0.5136810064409474
 31
0.0
  0
ARC
  5
319B
  8
0
 10
606.7750676254478321
 20
-0.539325485519271
 30
0.0
 40
0.0256565029399306
 50
1.240569977844816
 51
89.4863584791131643
  0
LINE
  5
319C
  8
0
 10
603.4110838496879978
 20
0.4508299867920301
 30
0.0
 11
604.7693515661879928
 21
0.4508299867920301
 31
0.0
  0
LINE
  5
319D
  8
0
 10
603.4007059995941518
 20
0.4823260497920359
 30
0.0
 11
604.7803576925533662
 21
0.4823287942483887
 31
0.0
  0
LINE
  5
319E
  8
0
 10
606.9436211801878471
 20
1.440634521892036
 30
0.0
 11
607.3577893543150594
 21
1.442803121192028
 31
0.0
  0
LINE
  5
319F
  8
0
 10
603.4005318556531847
 20
-6.7170672687516202
 30
0.0
 11
603.4002177078880322
 21
0.4258299867920386
 31
0.0
  0
LINE
  5
31A0
  8
0
 10
603.4110838496879978
 20
0.4823260497920359
 30
0.0
 11
603.4110838496879978
 21
0.4508299867920301
 31
0.0
  0
LINE
  5
31A1
  8
0
 10
603.4402586597074105
 20
10.4041600877944909
 30
0.0
 11
603.440531856053326
 21
6.5980553604221077
 31
0.0
  0
LINE
  5
31A2
  8
0
 10
603.4410318556532502
 20
6.5780294048763457
 30
0.0
 11
603.4408166595986813
 21
2.9199223971567529
 31
0.0
  0
LINE
  5
31A3
  8
0
 10
602.9312348815021778
 20
-6.7564663306516186
 30
0.0
 11
602.9284540069021432
 21
-6.9160436466516151
 31
0.0
  0
LINE
  5
31A4
  8
0
 10
605.2498225709532562
 20
-6.7564663306516186
 30
0.0
 11
605.2525904030533184
 21
-6.9155214486516172
 31
0.0
  0
LINE
  5
31A5
  8
0
 10
604.7399987975531985
 20
6.578172362322106
 30
0.0
 11
604.7396187632880356
 21
2.919801520790358
 31
0.0
  0
LINE
  5
31A6
  8
0
 10
604.7693515661879928
 20
0.4823260497920359
 30
0.0
 11
604.7693515661879928
 21
0.4508299867920301
 31
0.0
  0
LINE
  5
31A7
  8
0
 10
604.7805318556532939
 20
-6.7170672687516202
 30
0.0
 11
604.7802177078880277
 21
-2.226670013207964
 31
0.0
  0
LINE
  5
31A8
  8
0
 10
604.7802177078880277
 20
-0.5125896212079653
 30
0.0
 11
604.7802177078880277
 21
0.4258299867920386
 31
0.0
  0
LINE
  5
31A9
  8
0
 10
606.8007181146045923
 20
-2.19283663800796
 30
0.0
 11
606.8007181146045923
 21
-0.5387700135338065
 31
0.0
  0
LINE
  5
31AA
  8
0
 10
606.8518781797879456
 20
-2.1457106008079729
 30
0.0
 11
606.8518781797879456
 21
-2.149697572307971
 31
0.0
  0
LINE
  5
31AB
  8
0
 10
606.8653808550878921
 20
-2.1172849070079698
 30
0.0
 11
606.8653808550878921
 21
-2.1260800526079602
 31
0.0
  0
LINE
  5
31AC
  8
0
 10
606.8830986658045958
 20
-0.5212500546273305
 30
0.0
 11
606.8830986658045958
 21
-2.2190899718079602
 31
0.0
  0
LINE
  5
31AD
  8
0
 10
606.9137782590878487
 20
1.4106349321920391
 30
0.0
 11
606.9137782590878487
 21
-0.4750007303079684
 31
0.0
  0
LINE
  5
31AE
  8
0
 10
607.3549782590880568
 20
-2.216722236507962
 30
0.0
 11
607.3549782590880568
 21
-0.5375050642305581
 31
0.0
  0
LINE
  5
31AF
  8
0
 10
607.3932406658045693
 20
-1.47030057140796
 30
0.0
 11
607.3932406658045693
 21
1.417776702769018
 31
0.0
  0
ARC
  5
31B0
  8
0
 10
602.9611515842020708
 20
-6.7569885286516183
 30
0.0
 40
0.0299212598
 50
90.0
 51
179.0000000002000888
  0
ARC
  5
31B1
  8
0
 10
603.4105318556532893
 20
-6.7170672687516202
 30
0.0
 40
0.01
 50
180.0
 51
270.0
  0
ARC
  5
31B2
  8
0
 10
605.2199058682532495
 20
-6.7569885286516183
 30
0.0
 40
0.0299212598
 50
0.9999999997998191
 51
90.0
  0
ARC
  5
31B3
  8
0
 10
604.7705318556531893
 20
-6.7170672687516202
 30
0.0
 40
0.01
 50
270.0
 51
0.0
  0
ARC
  5
31B4
  8
0
 10
603.4252177078878958
 20
0.4258299867920386
 30
0.0
 40
0.025
 50
90.0
 51
180.0
  0
ARC
  5
31B5
  8
0
 10
604.7552177078880504
 20
0.4258299867920386
 30
0.0
 40
0.025
 50
0.0
 51
90.0
  0
ARC
  5
31B6
  8
0
 10
605.7453977078879461
 20
-1.3701700132079671
 30
0.0
 40
1.353499999999999
 50
32.8004641693320096
 51
37.5859922851408896
  0
ARC
  5
31B7
  8
0
 10
606.8101977078880509
 20
-0.5505782550746831
 30
0.0
 40
0.0098
 50
37.5859922851358021
 51
165.3085111163020997
  0
ARC
  5
31B8
  8
0
 10
605.7453977078879461
 20
-1.3701700132079671
 30
0.0
 40
1.353499999999999
 50
322.4140077148591104
 51
324.834886854697686
  0
ARC
  5
31B9
  8
0
 10
606.8102811154171832
 20
-2.1900378474465612
 30
0.0
 40
0.00956698502984
 50
178.3463764392469955
 51
323.4195899920101169
  0
ARC
  5
31BA
  8
0
 10
605.7453977078879461
 20
-1.3701700132079671
 30
0.0
 40
1.351207695999999
 50
324.9730937050015882
 51
325.983411957700298
  0
ARC
  5
31BB
  8
0
 10
606.8737782590878851
 20
-0.4750007303079684
 30
0.0
 40
0.04
 50
292.3336826578185992
 51
0.0
  0
ARC
  5
31BC
  8
0
 10
606.8945220138421064
 20
-0.5220176152253658
 30
0.0
 40
0.0114491060637434
 50
118.9606300962735048
 51
176.1559450506044868
  0
ARC
  5
31BD
  8
0
 10
606.9431677562347431
 20
1.4112422476811159
 30
0.0
 40
0.029395771373486
 50
89.1161889252792889
 51
181.1838127935903913
  0
ARC
  5
31BE
  8
0
 10
607.3676862336467366
 20
-1.4697423044041209
 30
0.0
 40
0.0255605294341716
 50
270.8180325931551238
 51
358.7485045309397833
  0
ARC
  5
31BF
  8
0
 10
607.3449782590879522
 20
-2.216722236507962
 30
0.0
 40
0.01
 50
270.2999999999993861
 51
0.0
  0
ARC
  5
31C0
  8
0
 10
606.8951368382161036
 20
-2.2171098602548218
 30
0.0
 40
0.0121999359330903
 50
189.3407165920295938
 51
259.1035047314446729
  0
ARC
  5
31C1
  8
0
 10
603.3861210635044472
 20
-0.808180288236926
 30
0.0
 40
0.3536821171750386
 50
20.9913503937757895
 51
56.3738166776702272
  0
ARC
  5
31C2
  8
0
 10
599.9473641338144034
 20
-1.3712876729539261
 30
0.0
 40
3.8315718177606
 50
349.6949617897116127
 51
10.3716287967152105
  0
ARC
  5
31C3
  8
0
 10
603.3942337259729811
 20
-1.9206188524355521
 30
0.0
 40
0.3504048739613809
 50
299.1412891417083983
 51
337.1456263672246791
  0
ARC
  5
31C4
  8
0
 10
606.6776994880284519
 20
-3.0786974696424769
 30
0.0
 40
0.8607608845361164
 50
89.979912274183377
 51
98.1687692894302586
  0
ARC
  5
31C5
  8
0
 10
607.0714200455921628
 20
-2.1470201066162948
 30
0.0
 40
0.2081778331730582
 50
154.7718603319339081
 51
171.7924832089587994
  0
LINE
  5
31C6
  8
0
 10
607.3457349018391369
 20
-0.5282052367268478
 30
0.0
 11
606.9221339211376289
 21
-0.5256251969440058
 31
0.0
  0
ARC
  5
31C7
  8
0
 10
607.3456782590880039
 20
-0.5375050642305439
 30
0.0
 40
0.0093
 50
359.9999999999943157
 51
89.6510311133730369
  0
ARC
  5
31C8
  8
0
 10
606.8976854313220883
 20
-0.5143123377476968
 30
0.0
 40
0.0090089331758026
 50
165.1285878629003889
 51
237.3919775429993138
  0
ARC
  5
31C9
  8
0
 10
607.0444829667081876
 20
0.5542807804641116
 30
0.0
 40
1.0868147077555841
 50
261.9788656573302887
 51
263.5361788854124256
  0
LINE
  5
31CA
  8
0
 10
607.3679202590880095
 20
1.442803121192028
 30
0.0
 11
607.3577893543150594
 21
1.442803121192028
 31
0.0
  0
ARC
  5
31CB
  8
0
 10
607.3678365962432508
 20
1.417396342075846
 30
0.0
 40
0.0254069168639237
 50
0.8577930437709904
 51
89.811329466215625
  0
ARC
  5
31CD
  8
0
 10
602.9583752668728494
 20
-6.9160436465809019
 30
0.0
 40
0.0299212599707088
 50
180.0000001354009953
 51
269.9999996731127112
  0
ARC
  5
31CE
  8
0
 10
602.9393179637886533
 20
-6.9579649064956746
 30
0.0
 40
0.0119999999440541
 50
89.9999999355526938
 51
179.0000001538469121
  0
LINE
  5
31CF
  8
0
 10
602.9273197915021001
 20
-6.9577554776516157
 30
0.0
 11
602.9264845517534468
 21
-7.0059649065536709
 31
0.0
  0
LINE
  5
31D0
  8
0
 10
602.9264845517534468
 20
-7.0059649065536709
 30
0.0
 11
605.2545791595533728
 21
-7.0059649065516112
 31
0.0
  0
LINE
  5
31D1
  8
0
 10
605.2545791595533728
 20
-7.0059649065516112
 30
0.0
 11
605.2537376608537443
 21
-6.9577554776762289
 31
0.0
  0
ARC
  5
31D2
  8
0
 10
605.2417394885128488
 20
-6.9579649065505711
 30
0.0
 40
0.0119999999989612
 50
0.9999999862140837
 51
90.0000002842872391
  0
ARC
  5
31D3
  8
0
 10
605.222682185353051
 20
-6.9160436464027271
 30
0.0
 40
0.0299212601488899
 50
270.0000005749774914
 51
0.9999995362887167
  0
LINE
  5
31D4
  8
0
 10
603.4007059995941518
 20
0.4823260497920359
 30
0.0
 11
603.4408166524880244
 21
6.1947027246946931
 31
0.0
  0
ARC
  5
31D5
  8
0
 10
603.4754448940338989
 20
6.5500093575986531
 30
0.0
 40
0.0516448238231476
 50
93.6605171204561771
 51
118.6905815936389956
  0
ARC
  5
31D6
  8
0
 10
603.4599696195479055
 20
6.5796360013405879
 30
0.0
 40
0.0182377394191406
 50
120.7262656156252945
 51
143.0488079448593055
  0
ARC
  5
31D7
  8
0
 10
603.4633966067465281
 20
6.5770581553457808
 30
0.0
 40
0.0225260410913955
 50
143.0488079448593055
 51
166.9846658406229949
  0
ARC
  5
31D8
  8
0
 10
603.4612912212159017
 20
6.5780399877098432
 30
0.0
 40
0.0202593683266755
 50
168.3492213067557088
 51
180.0299294485309076
  0
ARC
  5
31D9
  8
0
 10
603.4486154940634606
 20
6.579239968307518
 30
0.0
 40
0.0204783833323449
 50
94.0640607572648264
 51
113.2497624811224028
  0
ARC
  5
31DA
  8
0
 10
603.4352643626089048
 20
6.7671505813529356
 30
0.0
 40
0.1679059345028211
 50
274.0640607572648264
 51
276.9503891199848908
  0
ARC
  5
31DB
  8
0
 10
603.5068482048188798
 20
5.9355069361772053
 30
0.0
 40
0.6669448160795818
 50
92.9852060752372154
 51
94.4084617657184282
  0
ARC
  5
31DC
  8
0
 10
603.6399945490653636
 20
3.2268633925450132
 30
0.0
 40
3.3788569523301759
 50
90.7072474372954218
 51
92.8473767019416414
  0
ARC
  5
31DD
  8
0
 10
621.7188466835741565
 20
-1461.3091114562751045
 30
0.0
 40
1468.0264140529739052
 50
90.6970895531964629
 51
90.7072474372954218
  0
ARC
  5
31DE
  8
0
 10
604.0162411258214661
 20
-6.3532401910245824
 30
0.0
 40
12.9628520142718493
 50
89.6716333278410787
 51
90.6970895531964629
  0
ARC
  5
31DF
  8
0
 10
583.264986443877433
 20
-3627.1418171700320272
 30
0.0
 40
3633.8108927020530245
 50
89.6655132706574847
 51
89.6716333278410787
  0
ARC
  5
31E0
  8
0
 10
604.4430215780097342
 20
0.5005982363084769
 30
0.0
 40
6.1066595502799306
 50
88.2197778542578988
 51
89.6655132706574847
  0
ARC
  5
31E1
  8
0
 10
604.3924903550413319
 20
-1.1252067689517411
 30
0.0
 40
7.7332496398919091
 50
87.665412377027863
 51
88.2197778542578988
  0
ARC
  5
31E2
  8
0
 10
604.6910004276597874
 20
6.2651406612010438
 30
0.0
 40
0.3368879952423922
 50
81.5668260006140997
 51
87.192049154277484
  0
ARC
  5
31E3
  8
0
 10
604.1946209450411516
 20
3.8302562603172272
 30
0.0
 40
2.8180613818301761
 50
79.2238576450076408
 51
79.5671508066128581
  0
ARC
  5
31E4
  8
0
 10
604.7158236848994193
 20
6.5686912321039008
 30
0.0
 40
0.0304677258717262
 50
66.0495285972195347
 51
79.2238576450076408
  0
ARC
  5
31E5
  8
0
 10
604.7203365428371171
 20
6.5788509036617171
 30
0.0
 40
0.0193508552271137
 50
30.3408928146692709
 51
66.0495285972259012
  0
ARC
  5
31E6
  8
0
 10
604.7183393890230718
 20
6.5776819482776432
 30
0.0
 40
0.0216649598156555
 50
1.297073956490423
 51
30.3408928146691714
  0
ARC
  5
31E7
  8
0
 10
604.0558048599600625
 20
10.3696662472544308
 30
0.0
 40
0.6921967486736519
 50
8.5560943726320176
 51
86.9964445174014855
  0
ARC
  5
31E8
  8
0
 10
604.1134002576279727
 20
10.3879122512520894
 30
0.0
 40
0.6733376590116548
 50
91.8149561561896235
 51
178.6173017150651106
  0
LINE
  5
31E9
  8
0
 10
604.7402979290505982
 20
10.4726496305818202
 30
0.0
 11
604.7404070021671032
 21
6.598386083876135
 31
0.0
  0
LINE
  5
31EA
  8
0
 10
604.7803576925533662
 20
0.4823287942483887
 30
0.0
 11
604.7400318556533421
 21
6.5780579973221194
 31
0.0
  0
ARC
  5
31EB
  8
0
 10
604.0450855533028971
 20
559.0453441073914291
 30
0.0
 40
556.1348316091589368
 50
269.9964437196113067
 51
270.004682104360711
  0
ARC
  5
31EC
  8
0
 10
604.1870193466511409
 20
-43.6824030478831773
 30
0.0
 40
46.5932507383771934
 50
90.2169842783624318
 51
90.4372793131225166
  0
ARC
  5
31ED
  8
0
 10
604.2906188734425541
 20
-37.0843246279410721
 30
0.0
 40
39.9964514302008993
 50
90.6578198718720643
 51
90.9838076676381888
  0
ARC
  5
31EE
  8
0
 10
603.6485214764851435
 20
0.3069830895124852
 30
0.0
 40
2.5996309518703882
 50
90.9838076676381888
 51
92.4701271493342034
  0
ARC
  5
31EF
  8
0
 10
603.6653715043820512
 20
-0.0836191835820444
 30
0.0
 40
2.9905964991846461
 50
92.4701271493342034
 51
92.9538498420847077
  0
ARC
  5
31F0
  8
0
 10
603.5284698985479963
 20
2.569506094748462
 30
0.0
 40
0.3339414985877851
 50
92.9538498420847077
 51
95.7778669928062669
  0
ARC
  5
31F1
  8
0
 10
603.5096340414077076
 20
2.7556568592949162
 30
0.0
 40
0.1468401980700186
 50
95.7778669928062669
 51
98.5957446488538949
  0
ARC
  5
31F2
  8
0
 10
603.4883475684042651
 20
2.8964778391265611
 30
0.0
 40
0.0044194752321345
 50
98.5957446488538949
 51
129.2691031889686997
  0
ARC
  5
31F3
  8
0
 10
604.0767190489688119
 20
28.7149094441132888
 30
0.0
 40
25.8255143306982191
 50
269.7843023039307013
 51
270.0306447164539918
  0
ARC
  5
31F4
  8
0
 10
604.0627638836496089
 20
25.0080163596979617
 30
0.0
 40
22.1185949782000684
 50
269.0625530722509211
 51
269.7843023039307013
  0
ARC
  5
31F5
  8
0
 10
604.1206016136956123
 20
28.54268271624872
 30
0.0
 40
25.6537345023417487
 50
268.7120935144578766
 51
269.0625530722509211
  0
ARC
  5
31F6
  8
0
 10
603.5612953870431738
 20
3.664720576193218
 30
0.0
 40
0.7694859965659246
 50
265.7574273000175253
 51
268.7120935144578766
  0
ARC
  5
31F7
  8
0
 10
603.5149748093695052
 20
3.0459766165464819
 30
0.0
 40
0.1490113597359647
 50
258.6112107723391773
 51
265.9187111882745853
  0
LINE
  5
31F8
  8
0
 10
603.5126433809440414
 20
2.9030748987180739
 30
0.0
 11
603.5126433809440414
 21
2.8985616629473578
 31
0.0
  0
LINE
  5
31F9
  8
0
 10
603.5126433809440414
 20
2.8985616629473578
 30
0.0
 11
603.5668436324533559
 21
2.8985616629473578
 31
0.0
  0
LINE
  5
31FA
  8
0
 10
603.5668436324533559
 20
2.9013532552473569
 30
0.0
 11
603.5126433809440414
 21
2.9013532552473569
 31
0.0
  0
ARC
  5
31FB
  8
0
 10
603.5605481300144675
 20
2.4366675145941912
 30
0.0
 40
0.4671484801965013
 50
91.9464926878202959
 51
95.8858661482249772
  0
ARC
  5
31FC
  8
0
 10
603.0114380453027252
 20
18.5937205698878287
 30
0.0
 40
15.6992328501045399
 50
271.9464926878202959
 51
272.1263623729515757
  0
ARC
  5
31FD
  8
0
 10
603.0089225601244607
 20
18.6614703152834487
 30
0.0
 40
15.7670292782320693
 50
272.1263623729515757
 51
272.2563317362709086
  0
ARC
  5
31FE
  8
0
 10
603.4712337611047133
 20
2.9579623392826302
 30
0.0
 40
0.0597379056784286
 50
255.2475990289530898
 51
263.2600778467669898
  0
ARC
  5
31FF
  8
0
 10
603.4612166595635472
 20
2.9199211970826431
 30
0.0
 40
0.0204
 50
179.9966294518845018
 51
255.2475990289530898
  0
ARC
  5
3200
  8
0
 10
603.5448614131956901
 20
3.7759906930314742
 30
0.0
 40
0.8810514242745043
 50
264.7486270283081922
 51
268.4374066965698944
  0
ARC
  5
3201
  8
0
 10
603.7402652843976512
 20
9.3167168634174118
 30
0.0
 40
6.4251979569132356
 50
268.0428903859041156
 51
269.0300475053218179
  0
ARC
  5
3202
  8
0
 10
603.9602874327672453
 20
21.3171446573974208
 30
0.0
 40
18.4276384598774712
 50
268.9776671982211269
 51
269.5344133517140222
  0
ARC
  5
3203
  8
0
 10
604.0863604701145277
 20
36.0722016685056275
 30
0.0
 40
33.1832333536424571
 50
269.5237594011309739
 51
270.0072025165267178
  0
ARC
  5
3204
  8
0
 10
604.0918852262728933
 20
-33.8809377092667035
 30
0.0
 40
36.7918814451710574
 50
90.0021075960693082
 51
90.1276948655358296
  0
ARC
  5
3205
  8
0
 10
604.0847693500513742
 20
-30.6880998589161713
 30
0.0
 40
33.5990356652553714
 50
90.1276948655358296
 51
90.3341454209448784
  0
ARC
  5
3206
  8
0
 10
604.0492590345808139
 20
-24.5992295301532415
 30
0.0
 40
27.5100617892238297
 50
90.3341454209448784
 51
90.5458658898498356
  0
ARC
  5
3207
  8
0
 10
603.9798588094669185
 20
-17.3149867096150416
 30
0.0
 40
20.2254883727629817
 50
90.5458658898498356
 51
90.9028197621284733
  0
ARC
  5
3208
  8
0
 10
603.7919190017279334
 20
-5.3887229976938613
 30
0.0
 40
8.2977439297586386
 50
90.9028197621284733
 51
91.9213139938117081
  0
ARC
  5
3209
  8
0
 10
603.5447748199696889
 20
1.9786362847404031
 30
0.0
 40
0.926240484528005
 50
91.9213139938117081
 51
94.431723269038045
  0
ARC
  5
320A
  8
0
 10
603.4809872390644614
 20
2.8016722804383671
 30
0.0
 40
0.1007363320900516
 50
94.431723269038045
 51
100.6479804931409063
  0
ARC
  5
320B
  8
0
 10
603.4642528442011553
 20
2.8906794343871658
 30
0.0
 40
0.0101697078540581
 50
100.6479804931409063
 51
120.2568240779924054
  0
ARC
  5
320C
  8
0
 10
603.5722128579473065
 20
2.851144182963679
 30
0.0
 40
0.0504953415870443
 50
96.1038626595152721
 51
101.4035158235142973
  0
ARC
  5
320D
  8
0
 10
603.5632948666902848
 20
2.895358488392517
 30
0.0
 40
0.0053906259509301
 50
101.4035158235207064
 51
114.2085722845424982
  0
ARC
  5
320E
  8
0
 10
603.5614135431244449
 20
2.8995429486614621
 30
0.0
 40
0.0008026976491998
 50
114.2085722845498026
 51
137.027125783865614
  0
ARC
  5
320F
  8
0
 10
603.5609725766122438
 20
2.8999537664481201
 30
0.0
 40
0.0002000180339441
 50
137.0271257838946042
 51
235.7644668460459059
  0
ARC
  5
3210
  8
0
 10
603.562317820578869
 20
2.9019305945919731
 30
0.0
 40
0.002591153923029
 50
235.764466846045309
 51
253.7673450730754894
  0
ARC
  5
3211
  8
0
 10
603.5679652494266065
 20
2.921327901180347
 30
0.0
 40
0.0227938506606397
 50
253.7673450730754894
 51
267.1795076370626134
  0
LINE
  5
3212
  8
0
 10
604.090531855653353
 20
2.909203048747357
 30
0.0
 11
604.0105545680061141
 21
2.9090970788521551
 31
0.0
  0
LINE
  5
3213
  8
0
 10
604.0105545680061141
 20
2.9090970788521551
 30
0.0
 11
604.0105669306524305
 21
2.9105135694972679
 31
0.0
  0
ARC
  5
3214
  8
0
 10
604.0937726642373491
 20
-26.099996522720641
 30
0.0
 40
29.0084291909461811
 50
90.0064010585793142
 51
90.2144383268664853
  0
ARC
  5
3215
  8
0
 10
604.0570791611716004
 20
-16.2959047096191512
 30
0.0
 40
19.2042687122060016
 50
90.2144383268664853
 51
91.0298462478077255
  0
ARC
  5
3216
  8
0
 10
603.759591989735668
 20
0.253093567531053
 30
0.0
 40
2.6525968149537609
 50
91.0298462478077255
 51
92.941294591114854
  0
ARC
  5
3217
  8
0
 10
603.6347785205755372
 20
2.6822966724797359
 30
0.0
 40
0.2201893393904745
 50
92.941294591114854
 51
97.3162433087756114
  0
ARC
  5
3218
  8
0
 10
603.6074223419558393
 20
2.8953657645746058
 30
0.0
 40
0.0053712802920693
 50
97.3162433087756114
 51
113.5976626485830963
  0
ARC
  5
3219
  8
0
 10
603.6057390188773297
 20
2.8992191673496839
 30
0.0
 40
0.0011662488375259
 50
113.5976626485900027
 51
132.2680801148109992
  0
ARC
  5
321A
  8
0
 10
603.6050689079930862
 20
2.8999564343130402
 30
0.0
 40
0.0001699501009811
 50
132.2680801147876934
 51
231.5091752223048047
  0
ARC
  5
321B
  8
0
 10
603.6060950581394309
 20
2.9012469059759658
 30
0.0
 40
0.0018186772572509
 50
231.5091752223061121
 51
241.8552070124038949
  0
ARC
  5
321C
  8
0
 10
603.6062057644047627
 20
2.9014538508393168
 30
0.0
 40
0.0020533729190364
 50
241.8552070124038949
 51
259.2507175269186064
  0
ARC
  5
321D
  8
0
 10
603.6216123284305013
 20
2.9826081071060031
 30
0.0
 40
0.0846570987749311
 50
259.2507175269186064
 51
266.8927741092533097
  0
ARC
  5
321E
  8
0
 10
603.7635024139818825
 20
5.5964288790707277
 30
0.0
 40
2.702326257460212
 50
266.8927741092533097
 51
268.0280701148860771
  0
ARC
  5
321F
  8
0
 10
603.7756300032248191
 20
5.948665186986517
 30
0.0
 40
3.054771281591615
 50
268.0280701148860771
 51
268.6451420623130844
  0
ARC
  5
3220
  8
0
 10
603.7756300032248191
 20
5.948665186986517
 30
0.0
 40
3.054771281591615
 50
268.8515375423211253
 51
269.3022679562889721
  0
ARC
  5
3221
  8
0
 10
603.6550929910055174
 20
-3.9490036125458512
 30
0.0
 40
6.8436314600910642
 50
88.7965162231042342
 51
89.133014720900988
  0
ARC
  5
3222
  8
0
 10
603.6550929910055174
 20
-3.9490036125458512
 30
0.0
 40
6.8436314600910642
 50
89.2903502529488549
 51
89.3022679562889721
  0
ARC
  5
3223
  8
0
 10
603.8723514728164901
 20
6.3927754562640748
 30
0.0
 40
3.5004294231401398
 50
268.79651622310422
 51
268.8244842866401996
  0
ARC
  5
3224
  8
0
 10
603.8723514728164901
 20
6.3927754562640748
 30
0.0
 40
3.5004294231401398
 50
269.241637435981886
 51
270.047074713435677
  0
ARC
  5
3225
  8
0
 10
603.8970824653348473
 20
-13.9132208144547906
 30
0.0
 40
16.8055819077057009
 50
89.4170150891249591
 51
89.603704088098354
  0
ARC
  5
3226
  8
0
 10
603.8970824653348473
 20
-13.9132208144547906
 30
0.0
 40
16.8055819077057009
 50
89.7769709555655453
 51
89.9457863545358691
  0
ARC
  5
3227
  8
0
 10
604.0839174083757825
 20
3.4748910603352949
 30
0.0
 40
0.5693663415758666
 50
269.0221606250249238
 51
270.6656319668915103
  0
ARC
  5
3228
  8
0
 10
604.0783868586152039
 20
3.1508640248108861
 30
0.0
 40
0.2452921112961493
 50
267.6554982505562066
 51
269.0221606250249238
  0
ARC
  5
3229
  8
0
 10
604.0736795142156552
 20
3.0358884584438068
 30
0.0
 40
0.1302202209287515
 50
265.1289131726620099
 51
267.6554982505562066
  0
ARC
  5
322A
  8
0
 10
604.0638336009263867
 20
2.9203558262905882
 30
0.0
 40
0.0142688039440955
 50
255.6008743750865904
 51
265.12891317266849
  0
ARC
  5
322B
  8
0
 10
604.060397826712915
 20
2.906973521390412
 30
0.0
 40
0.0004524864576067
 50
224.9437929336739046
 51
255.6008743750998065
  0
LINE
  5
322C
  8
0
 10
604.0593457648824369
 20
2.9084122394768879
 30
0.0
 11
604.0600775567477285
 21
2.906653879178307
 31
0.0
  0
LINE
  5
322D
  8
0
 10
604.0162781820129112
 20
2.908329156838362
 30
0.0
 11
604.0153628085532773
 21
2.9061792829473481
 31
0.0
  0
ARC
  5
322E
  8
0
 10
604.0151878329719466
 20
2.9062537840629972
 30
0.0
 40
0.0001901758932025
 50
277.0101144444843726
 51
336.9366617111181199
  0
ARC
  5
322F
  8
0
 10
603.9903986085131464
 20
3.1078515975881231
 30
0.0
 40
0.2033063595600257
 50
275.5692367484140846
 51
277.0101144444843726
  0
ARC
  5
3230
  8
0
 10
603.9929030047672995
 20
3.5030349843618458
 30
0.0
 40
0.5977783244965506
 50
268.3486780820205126
 51
271.6513219179794874
  0
ARC
  5
3231
  8
0
 10
603.9807058013640244
 20
3.097222967189154
 30
0.0
 40
0.1917839987807305
 50
261.5119070701210831
 51
268.4974108801322927
  0
ARC
  5
3232
  8
0
 10
604.025550910877655
 20
2.935580037959709
 30
0.0
 40
0.0783431489218671
 50
200.6283608637180862
 51
200.9723504086707067
  0
ARC
  5
3233
  8
0
 10
603.9107258370408999
 20
3.395640117133254
 30
0.0
 40
0.4914636915303491
 50
263.5416936028740906
 51
268.0460788271104775
  0
ARC
  5
3234
  8
0
 10
603.9303261801959479
 20
3.9701676755112478
 30
0.0
 40
1.0663254912592699
 50
268.0460788271104775
 51
268.8243705282985729
  0
ARC
  5
3235
  8
0
 10
603.9096226141301713
 20
2.9612949754585278
 30
0.0
 40
0.0572403796063871
 50
268.8243705282985729
 51
273.7089055119199088
  0
ARC
  5
3236
  8
0
 10
603.912969348720253
 20
2.9096663061079648
 30
0.0
 40
0.0055033509776915
 50
273.7089055119199088
 51
288.4582404424426159
  0
LINE
  5
3237
  8
0
 10
603.9147117833532548
 20
2.904446076847349
 30
0.0
 11
603.9163080034319364
 21
2.907848055186022
 31
0.0
  0
LINE
  5
3238
  8
0
 10
603.8300867327599235
 20
2.9070224424599749
 30
0.0
 11
603.8276745353217621
 21
2.9023400908270531
 31
0.0
  0
ARC
  5
3239
  8
0
 10
603.8832287288761336
 20
3.8194112675956968
 30
0.0
 40
0.919129587417553
 50
263.4206941880693194
 51
264.9597538357252802
  0
ARC
  5
323A
  8
0
 10
603.8734609742906514
 20
3.7086613707221541
 30
0.0
 40
0.8079497840036999
 50
264.9597538357252802
 51
266.3127424757179256
  0
ARC
  5
323B
  8
0
 10
603.8269943625324458
 20
2.987620240834417
 30
0.0
 40
0.0854129634899876
 50
266.3127424757179256
 51
269.5025615802501875
  0
ARC
  5
323C
  8
0
 10
603.8263151545950222
 20
2.9093899134079768
 30
0.0
 40
0.0071796876243416
 50
269.5025615802567245
 51
280.9140965301127153
  0
ARC
  5
323D
  8
0
 10
603.8864164096258946
 20
4.0789454858821301
 30
0.0
 40
1.185760589570237
 50
261.7875514111898951
 51
263.8751565166538171
  0
LINE
  5
323E
  8
0
 10
603.7599014382534506
 20
2.899953485147349
 30
0.0
 11
603.7634007752450316
 21
2.9061183550543599
 31
0.0
  0
LINE
  5
323F
  8
0
 10
603.6773167908545474
 20
2.9044041851306721
 30
0.0
 11
603.7157442468534327
 21
2.8974140714473569
 31
0.0
  0
LINE
  5
3240
  8
0
 10
603.7157442468534327
 20
2.8974140714473569
 30
0.0
 11
603.7204188228533894
 21
2.9048649831473479
 31
0.0
  0
LINE
  5
3241
  8
0
 10
603.6582987241514502
 20
2.9037556616218998
 30
0.0
 11
603.6979496353372951
 21
2.8948817396409501
 31
0.0
  0
LINE
  5
3242
  8
0
 10
603.6979496353372951
 20
2.8948817396409501
 30
0.0
 11
603.7015190892850569
 21
2.9000016758286189
 31
0.0
  0
ARC
  5
3243
  8
0
 10
604.0905095615477194
 20
20.4848235263407901
 30
0.0
 40
17.5907330024934296
 50
269.7438480966602015
 51
270.0000726154053723
  0
ARC
  5
3244
  8
0
 10
604.0905095615689788
 20
20.4848235311291518
 30
0.0
 40
17.5907330072818411
 50
269.4825916563551118
 51
269.7438480966602015
  0
ARC
  5
3245
  8
0
 10
604.0233691858336442
 20
13.0501626074708597
 30
0.0
 40
10.1557689266809508
 50
269.0210882896005273
 51
269.4825916563551118
  0
ARC
  5
3246
  8
0
 10
603.9202446127459325
 20
7.0148605359778031
 30
0.0
 40
4.1195858801073202
 50
268.6421775733375057
 51
269.0210882896005273
  0
ARC
  5
3247
  8
0
 10
603.8899392531122885
 20
5.7363103376054161
 30
0.0
 40
2.8406765695693972
 50
267.6898707706296818
 51
268.6421775733375057
  0
ARC
  5
3248
  8
0
 10
603.788574896051955
 20
3.2236360191650841
 30
0.0
 40
0.3259585011903942
 50
265.3861902310675873
 51
267.6898707706296818
  0
ARC
  5
3249
  8
0
 10
603.7647597805482746
 20
2.9285317481299979
 30
0.0
 40
0.0298948416345404
 50
249.1980301446114936
 51
265.3861902310675873
  0
ARC
  5
324A
  8
0
 10
603.8239181195184528
 20
2.0164356802561652
 30
0.0
 40
0.8868530497156655
 50
90.8798511018727027
 51
94.1002765350613544
  0
ARC
  5
324B
  8
0
 10
604.0479202105910872
 20
-7.5301608011871499
 30
0.0
 40
10.4360839460707293
 50
90.8776331438153306
 51
91.2056739282516986
  0
ARC
  5
324C
  8
0
 10
604.1159072209552505
 20
-16.60996693248903
 30
0.0
 40
19.5159501448450214
 50
90.4095813864064439
 51
90.589996662576084
  0
ARC
  5
324D
  8
0
 10
604.0582353128015711
 20
-1.1554080728490841
 30
0.0
 40
4.0611979136966241
 50
89.8572647552526291
 51
90.678701762180836
  0
ARC
  5
324E
  8
0
 10
603.6728604123373998
 20
2.7725983589395891
 30
0.0
 40
0.1274890319652011
 50
71.3368465267657683
 51
77.8921173659741015
  0
ARC
  5
324F
  8
0
 10
603.7328688903570537
 20
3.0770239374918158
 30
0.0
 40
0.1846425654656158
 50
259.2603070600134743
 51
264.0277367798859132
  0
LINE
  5
3250
  8
0
 10
603.7136573844534269
 20
2.893383541547351
 30
0.0
 11
603.72119939493939
 21
2.9047548176350508
 31
0.0
  0
LINE
  5
3251
  8
0
 10
603.699256015405922
 20
2.8967555788013182
 30
0.0
 11
603.7024863079138868
 21
2.8956728773890168
 31
0.0
  0
LINE
  5
3252
  8
0
 10
603.6988029202695998
 20
2.8961056703786729
 30
0.0
 11
603.7024863079138868
 21
2.8956728773890168
 31
0.0
  0
ARC
  5
3253
  8
0
 10
603.6781762383079695
 20
2.6005299078899351
 30
0.0
 40
0.3025726626101481
 50
74.7429890502051961
 51
82.3741584940660942
  0
ARC
  5
3254
  8
0
 10
603.7810918749138409
 20
3.2411085438174041
 30
0.0
 40
0.3494473460179748
 50
259.3494935090033096
 51
266.1778780840555783
  0
ARC
  5
3255
  8
0
 10
603.688563409206381
 20
2.6725394968127461
 30
0.0
 40
0.2291823942932457
 50
75.4466757549069769
 51
82.6369845807840306
  0
ARC
  5
3256
  8
0
 10
603.7616652557742327
 20
3.122051382748253
 30
0.0
 40
0.2282108422206208
 50
258.6878956143864912
 51
266.1023016802764118
  0
LINE
  5
3257
  8
0
 10
603.7616317163539179
 20
2.8988010103196298
 30
0.0
 11
603.7577980129533444
 21
2.8924384366473528
 31
0.0
  0
ARC
  5
3258
  8
0
 10
603.8289829171229712
 20
3.2102733532324939
 30
0.0
 40
0.3184633712408005
 50
258.0948846761369282
 51
269.3857006282644875
  0
ARC
  5
3259
  8
0
 10
603.7780566901691373
 20
2.7386663491951988
 30
0.0
 40
0.1603619556982272
 50
72.765755100746631
 51
80.7392240598057356
  0
ARC
  5
325A
  8
0
 10
603.7441746103680771
 20
2.620407096173238
 30
0.0
 40
0.2816560426432097
 50
75.6750734098778111
 51
79.3080290511570638
  0
ARC
  5
325B
  8
0
 10
603.8132555450177961
 20
3.0625561286695131
 30
0.0
 40
0.1692512750204319
 50
256.439623988597873
 51
270.2053365857051972
  0
LINE
  5
325C
  8
0
 10
603.8255685626534159
 20
2.891828285747351
 30
0.0
 11
603.8280287949828562
 21
2.8963068982872779
 31
0.0
  0
ARC
  5
325D
  8
0
 10
603.8946519398523378
 20
3.0989252289690792
 30
0.0
 40
0.2074892445426696
 50
258.1778028282204218
 51
267.2136247826963995
  0
ARC
  5
325E
  8
0
 10
603.8992199265067029
 20
3.1927819332181708
 30
0.0
 40
0.3014570445306215
 50
267.2136247826963995
 51
272.5475376899134972
  0
ARC
  5
325F
  8
0
 10
603.8877740719588019
 20
2.8175233650596421
 30
0.0
 40
0.0781537494555561
 50
71.4640095756567888
 51
83.5195189349905291
  0
ARC
  5
3260
  8
0
 10
603.9032615735345644
 20
3.1298600843094699
 30
0.0
 40
0.2380822686117843
 50
259.5794754186356954
 51
265.999708091779496
  0
ARC
  5
3261
  8
0
 10
603.8943387655044717
 20
3.0022673262695738
 30
0.0
 40
0.1101778964919557
 50
265.999708091779496
 51
271.3814660921436825
  0
ARC
  5
3262
  8
0
 10
603.8965941157155157
 20
2.9087456631357038
 30
0.0
 40
0.016629042517689
 50
271.3814660921436825
 51
284.8968068010706816
  0
ARC
  5
3263
  8
0
 10
603.8824240902354177
 20
2.831427761805358
 30
0.0
 40
0.0639648769785468
 50
73.2401186583977051
 51
87.3136278449833867
  0
LINE
  5
3264
  8
0
 10
603.9126170823544726
 20
2.8916227296861332
 30
0.0
 11
603.9143023437950433
 21
2.8949793537769031
 31
0.0
  0
ARC
  5
3265
  8
0
 10
603.974424367447341
 20
2.9915599014860841
 30
0.0
 40
0.1000393973570286
 50
255.6192274041933103
 51
267.7336399609545765
  0
ARC
  5
3266
  8
0
 10
603.9976017750399251
 20
3.229908815753034
 30
0.0
 40
0.3393964082264596
 50
265.4145223649346121
 51
270.9080380215818877
  0
ARC
  5
3267
  8
0
 10
604.004003631689443
 20
2.9320945512997119
 30
0.0
 40
0.0415521228804162
 50
268.5889204255678919
 51
278.4970571636829959
  0
ARC
  5
3268
  8
0
 10
604.0082102737719651
 20
2.903927622370019
 30
0.0
 40
0.0130728020253858
 50
278.5033625872962944
 51
292.8494844200004081
  0
ARC
  5
3269
  8
0
 10
-1284.3106478874499317
 20
867.556230853117313
 30
0.0
 40
2076.875470513340133
 50
335.3969359705822058
 51
335.3970080216274141
  0
ARC
  5
326A
  8
0
 10
604.0013745503148357
 20
2.864669564428751
 30
0.0
 40
0.0297042242969055
 50
66.3579221189841206
 51
86.1378846647343295
  0
ARC
  5
326B
  8
0
 10
603.9624483778985677
 20
2.8944284002797072
 30
0.0
 40
0.0002638623070819
 50
150.4959683699875086
 51
238.2912301791176048
  0
ARC
  5
326C
  8
0
 10
603.9638083093811929
 20
2.8966295633319841
 30
0.0
 40
0.0028512417574416
 50
238.291230179118088
 51
251.2029982310363891
  0
ARC
  5
326D
  8
0
 10
603.9667543411413817
 20
2.9052849594006309
 30
0.0
 40
0.0119942710276918
 50
251.2029982310363891
 51
262.5655866947957975
  0
ARC
  5
326E
  8
0
 10
603.9924763457515837
 20
3.1024063752491311
 30
0.0
 40
0.2107868113990214
 50
262.5655866947957975
 51
270.5043759076075958
  0
ARC
  5
326F
  8
0
 10
603.9939106807349845
 20
2.939473893988207
 30
0.0
 40
0.0478480168573694
 50
270.5043759076075958
 51
278.1125081241402768
  0
ARC
  5
3270
  8
0
 10
604.0003831234811287
 20
2.8940672036943762
 30
0.0
 40
0.0019823429983732
 50
278.1125081241402768
 51
295.0487391531190724
  0
ARC
  5
3271
  8
0
 10
604.0010402668217466
 20
2.8926610793708392
 30
0.0
 40
0.0004302402364496
 50
295.0487391531257799
 51
356.3837626721091283
  0
ARC
  5
3272
  8
0
 10
603.9856757576906148
 20
2.8174866202589608
 30
0.0
 40
0.0771137384110085
 50
80.2409473375446964
 51
85.5538910587489028
  0
ARC
  5
3273
  8
0
 10
603.9969492521828442
 20
2.8829464430401108
 30
0.0
 40
0.0106902595520386
 50
64.9852189506660807
 51
80.3190771012746154
  0
ARC
  5
3274
  8
0
 10
604.0921074158642341
 20
3.101135329096194
 30
0.0
 40
0.2096526036984718
 50
266.2660661099160961
 51
269.5694124537453717
  0
ARC
  5
3275
  8
0
 10
604.083462109338825
 20
2.9686642818132891
 30
0.0
 40
0.0768997517775202
 50
261.4615744747302983
 51
266.2660661099160961
  0
ARC
  5
3276
  8
0
 10
604.0735958771617788
 20
2.90294928956473
 30
0.0
 40
0.0104482450707516
 50
252.9875874533134947
 51
261.4615744747302983
  0
ARC
  5
3277
  8
0
 10
604.0712984080321348
 20
2.8954404251272621
 30
0.0
 40
0.0025957671470429
 50
238.9888331482171964
 51
252.9875874533136937
  0
ARC
  5
3278
  8
0
 10
604.0701110835000236
 20
2.8934652573531419
 30
0.0
 40
0.0002912005326301
 50
203.7437809612933108
 51
238.9888331481934074
  0
ARC
  5
3279
  8
0
 10
604.0699886598481498
 20
2.8934114055172691
 30
0.0
 40
0.0001574561093515
 50
127.0044838892407029
 51
203.7437809613385866
  0
ARC
  5
327A
  8
0
 10
604.0709739461590289
 20
2.8921040992951532
 30
0.0
 40
0.0017944773898004
 50
100.1069041595763025
 51
127.004483889240305
  0
ARC
  5
327B
  8
0
 10
604.0731666623612455
 20
2.8814660494092399
 30
0.0
 40
0.012655602065142
 50
93.3657869062552663
 51
101.4283957720266045
  0
ARC
  5
327C
  8
0
 10
604.0937948920305871
 20
3.2305683395852181
 30
0.0
 40
0.3400884387411236
 50
266.3574923789000195
 51
269.450257462108425
  0
ARC
  5
327D
  8
0
 10
604.0805929216546701
 20
3.0231843236944078
 30
0.0
 40
0.1322846320656904
 50
262.1039101971965124
 51
266.3574923789000195
  0
ARC
  5
327E
  8
0
 10
604.0655953372772728
 20
2.915048350702008
 30
0.0
 40
0.0231135910695916
 50
253.2455189706049907
 51
262.1039101971965124
  0
ARC
  5
327F
  8
0
 10
604.0596625274705502
 20
2.8953413669507588
 30
0.0
 40
0.0025329341127525
 50
235.7314964373711916
 51
253.2455189706047918
  0
ARC
  5
3280
  8
0
 10
604.0586037280311302
 20
2.8937873906989888
 30
0.0
 40
0.0006525356325687
 50
190.9287634152375972
 51
235.7314964374035071
  0
ARC
  5
3281
  8
0
 10
604.0565207364337539
 20
2.8932434121015258
 30
0.0
 40
0.0015022733187904
 50
16.2454618367093815
 51
35.7468097260993289
  0
ARC
  5
3282
  8
0
 10
604.090095104630791
 20
16.1030035452973017
 30
0.0
 40
13.1997334931207497
 50
269.6752710548100254
 51
270.0018957951127732
  0
ARC
  5
3283
  8
0
 10
603.9894655113029103
 20
-1.6520790957815299
 30
0.0
 40
4.555634312323094
 50
89.6752710548099969
 51
90.8174540870158182
  0
ARC
  5
3284
  8
0
 10
603.9464224736155984
 20
1.364624960370463
 30
0.0
 40
1.538623197743435
 50
90.8174540870158182
 51
93.7479432231586429
  0
ARC
  5
3285
  8
0
 10
604.0896576437074827
 20
15.6836188924769395
 30
0.0
 40
12.7878355873014105
 50
269.5320426631488999
 51
270.0039168985700258
  0
ARC
  5
3286
  8
0
 10
604.0398893834974388
 20
9.5902261101317805
 30
0.0
 40
6.6942395652746454
 50
268.7572234606304278
 51
269.5320426631488999
  0
ARC
  5
3287
  8
0
 10
603.914115836639894
 20
3.792592338067251
 30
0.0
 40
0.895241691497463
 50
265.626513157086606
 51
268.7572234606304278
  0
ARC
  5
3288
  8
0
 10
604.1359781580036952
 20
559.0453441073914291
 30
0.0
 40
556.1348316091589368
 50
269.9953178956326951
 51
270.0035562803886933
  0
ARC
  5
3289
  8
0
 10
603.9940443646556787
 20
-43.6824030478831773
 30
0.0
 40
46.5932507383771934
 50
89.5627206868774977
 51
89.7830157216375824
  0
ARC
  5
328A
  8
0
 10
603.8904448378641519
 20
-37.0843246279410721
 30
0.0
 40
39.9964514302008993
 50
89.016192332361797
 51
89.3421801281279642
  0
ARC
  5
328B
  8
0
 10
604.5325422348215625
 20
0.3069830895124852
 30
0.0
 40
2.5996309518703882
 50
87.5298728506657966
 51
89.016192332361797
  0
ARC
  5
328C
  8
0
 10
604.5156922069246548
 20
-0.0836191835820444
 30
0.0
 40
2.9905964991846461
 50
87.0461501579153065
 51
87.5298728506657966
  0
ARC
  5
328D
  8
0
 10
604.6525938127587096
 20
2.569506094748462
 30
0.0
 40
0.3339414985877851
 50
84.2221330071937473
 51
87.0461501579153065
  0
ARC
  5
328E
  8
0
 10
604.671429669899112
 20
2.7556568592949162
 30
0.0
 40
0.1468401980700186
 50
81.4042553511461051
 51
84.2221330071937473
  0
ARC
  5
328F
  8
0
 10
604.6927161429024409
 20
2.8964778391265611
 30
0.0
 40
0.0044194752321345
 50
50.7308968110312719
 51
81.4042553511461051
  0
ARC
  5
3290
  8
0
 10
604.1043446623378941
 20
28.7149094441132888
 30
0.0
 40
25.8255143306982191
 50
269.9693552835460082
 51
270.2156976960694124
  0
ARC
  5
3291
  8
0
 10
604.1182998276569833
 20
25.0080163596979617
 30
0.0
 40
22.1185949782000684
 50
270.2156976960694124
 51
270.9374469277490789
  0
ARC
  5
3292
  8
0
 10
604.0604620976112074
 20
28.54268271624872
 30
0.0
 40
25.6537345023417487
 50
270.9374469277490789
 51
271.2879064855420097
  0
ARC
  5
3293
  8
0
 10
604.6197683242634184
 20
3.664720576193218
 30
0.0
 40
0.7694859965659246
 50
271.2879064855420097
 51
274.2425726999824747
  0
ARC
  5
3294
  8
0
 10
604.666088901937087
 20
3.0459766165464819
 30
0.0
 40
0.1490113597359647
 50
274.0812888117254147
 51
281.388789227660709
  0
LINE
  5
3295
  8
0
 10
604.6684203303626646
 20
2.9030748987180739
 30
0.0
 11
604.6684203303626646
 21
2.8985616629473578
 31
0.0
  0
LINE
  5
3296
  8
0
 10
604.6684203303626646
 20
2.8985616629473578
 30
0.0
 11
604.6142200788533501
 21
2.8985616629473578
 31
0.0
  0
LINE
  5
3297
  8
0
 10
604.6142200788533501
 20
2.9013532552473569
 30
0.0
 11
604.6684203303626646
 21
2.9013532552473569
 31
0.0
  0
ARC
  5
3298
  8
0
 10
604.6205155812921248
 20
2.4366675145941912
 30
0.0
 40
0.4671484801965013
 50
84.1141338517750512
 51
88.0535073121797041
  0
ARC
  5
3299
  8
0
 10
605.1696256660038671
 20
18.5937205698878287
 30
0.0
 40
15.6992328501045399
 50
267.8736376270484243
 51
268.0535073121797041
  0
ARC
  5
329A
  8
0
 10
605.1721411511821316
 20
18.6614703152834487
 30
0.0
 40
15.7670292782320693
 50
267.7436682637292051
 51
267.8736376270484243
  0
ARC
  5
329B
  8
0
 10
604.709829950201879
 20
2.9579623392826302
 30
0.0
 40
0.0597379056784286
 50
276.7399221532328966
 51
284.7524009710468818
  0
ARC
  5
329C
  8
0
 10
604.7206893394582039
 20
2.9186517773830469
 30
0.0
 40
0.0189643084881211
 50
283.2679776364695954
 51
3.4757854185491461
  0
ARC
  5
329D
  8
0
 10
604.6362022981111295
 20
3.7759906930314742
 30
0.0
 40
0.8810514242745043
 50
271.5625933034301056
 51
275.2513729716916941
  0
ARC
  5
329E
  8
0
 10
604.4407984269090548
 20
9.3167168634174118
 30
0.0
 40
6.4251979569132356
 50
270.9699524946781821
 51
271.9571096140958844
  0
ARC
  5
329F
  8
0
 10
604.2207762785394607
 20
21.3171446573974208
 30
0.0
 40
18.4276384598774712
 50
270.4655866482859778
 51
271.0223328017788731
  0
ARC
  5
32A0
  8
0
 10
604.0947032411921782
 20
36.0722016685056275
 30
0.0
 40
33.1832333536424571
 50
269.9927974834732822
 51
270.4762405988689125
  0
ARC
  5
32A1
  8
0
 10
604.089178485033699
 20
-33.8809377092667035
 30
0.0
 40
36.7918814451710574
 50
89.8723051344641846
 51
89.9978924039306776
  0
ARC
  5
32A2
  8
0
 10
604.0962943612553318
 20
-30.6880998589161713
 30
0.0
 40
33.5990356652553714
 50
89.6658545790551074
 51
89.8723051344641846
  0
ARC
  5
32A3
  8
0
 10
604.1318046767257783
 20
-24.5992295301532415
 30
0.0
 40
27.5100617892238297
 50
89.4541341101501644
 51
89.6658545790551074
  0
ARC
  5
32A4
  8
0
 10
604.2012049018396738
 20
-17.3149867096150416
 30
0.0
 40
20.2254883727629817
 50
89.0971802378715552
 51
89.4541341101501644
  0
ARC
  5
32A5
  8
0
 10
604.3891447095788862
 20
-5.3887229976938613
 30
0.0
 40
8.2977439297586386
 50
88.0786860061883203
 51
89.0971802378715552
  0
ARC
  5
32A6
  8
0
 10
604.636288891337017
 20
1.9786362847404031
 30
0.0
 40
0.926240484528005
 50
85.5682767309619692
 51
88.0786860061883203
  0
ARC
  5
32A7
  8
0
 10
604.7000764722422446
 20
2.8016722804383671
 30
0.0
 40
0.1007363320900516
 50
79.3520195068590652
 51
85.5682767309619692
  0
ARC
  5
32A8
  8
0
 10
604.7168108671055506
 20
2.8906794343871658
 30
0.0
 40
0.0101697078540581
 50
59.7431759220076231
 51
79.3520195068590652
  0
ARC
  5
32A9
  8
0
 10
604.6088508533593995
 20
2.851144182963679
 30
0.0
 40
0.0504953415870443
 50
78.5964841764857027
 51
83.8961373404781767
  0
ARC
  5
32AA
  8
0
 10
604.6177688446164211
 20
2.895358488392517
 30
0.0
 40
0.0053906259509301
 50
65.7914277154574592
 51
78.5964841764792652
  0
ARC
  5
32AB
  8
0
 10
604.6196501681821474
 20
2.8995429486614621
 30
0.0
 40
0.0008026976491998
 50
42.9728742161343291
 51
65.7914277154501548
  0
ARC
  5
32AC
  8
0
 10
604.6200911346943485
 20
2.8999537664481201
 30
0.0
 40
0.0002000180339441
 50
304.2355331539541226
 51
42.9728742161053816
  0
ARC
  5
32AD
  8
0
 10
604.6187458907277232
 20
2.9019305945919731
 30
0.0
 40
0.002591153923029
 50
286.2326549269245106
 51
304.2355331539545205
  0
ARC
  5
32AE
  8
0
 10
604.6130984618802131
 20
2.921327901180347
 30
0.0
 40
0.0227938506606397
 50
272.8204923629372729
 51
286.2326549269245106
  0
LINE
  5
32AF
  8
0
 10
604.090531855653353
 20
2.909203048747357
 30
0.0
 11
604.1705091433005919
 21
2.9090970788521551
 31
0.0
  0
LINE
  5
32B0
  8
0
 10
604.1705091433005919
 20
2.9090970788521551
 30
0.0
 11
604.1704967806541617
 21
2.9105135694972679
 31
0.0
  0
ARC
  5
32B1
  8
0
 10
604.0872910470692432
 20
-26.099996522720641
 30
0.0
 40
29.0084291909461811
 50
89.7855616731335147
 51
89.9935989414206716
  0
ARC
  5
32B2
  8
0
 10
604.1239845501352193
 20
-16.2959047096191512
 30
0.0
 40
19.2042687122060016
 50
88.9701537521922745
 51
89.7855616731335147
  0
ARC
  5
32B3
  8
0
 10
604.4214717215709243
 20
0.253093567531053
 30
0.0
 40
2.6525968149537609
 50
87.0587054088851744
 51
88.9701537521922745
  0
ARC
  5
32B4
  8
0
 10
604.5462851907312825
 20
2.6822966724797359
 30
0.0
 40
0.2201893393904745
 50
82.6837566912243744
 51
87.0587054088851744
  0
ARC
  5
32B5
  8
0
 10
604.5736413693507529
 20
2.8953657645746058
 30
0.0
 40
0.0053712802920693
 50
66.4023373514169037
 51
82.6837566912243744
  0
ARC
  5
32B6
  8
0
 10
604.5753246924293762
 20
2.8992191673496839
 30
0.0
 40
0.0011662488375259
 50
47.7319198851887805
 51
66.4023373514099831
  0
ARC
  5
32B7
  8
0
 10
604.5759948033137334
 20
2.8999564343130402
 30
0.0
 40
0.0001699501009811
 50
308.4908247776951953
 51
47.7319198852122568
  0
ARC
  5
32B8
  8
0
 10
604.5749686531672751
 20
2.9012469059759658
 30
0.0
 40
0.0018186772572509
 50
298.1447929875956788
 51
308.4908247776938879
  0
ARC
  5
32B9
  8
0
 10
604.5748579469019433
 20
2.9014538508393168
 30
0.0
 40
0.0020533729190364
 50
280.7492824730812231
 51
298.1447929875961904
  0
ARC
  5
32BA
  8
0
 10
604.5594513828762047
 20
2.9826081071060031
 30
0.0
 40
0.0846570987749311
 50
273.1072258907465766
 51
280.7492824730812231
  0
ARC
  5
32BB
  8
0
 10
604.4175612973247098
 20
5.5964288790707277
 30
0.0
 40
2.702326257460212
 50
271.9719298851139229
 51
273.1072258907465766
  0
ARC
  5
32BC
  8
0
 10
604.4054337080818868
 20
5.948665186986517
 30
0.0
 40
3.054771281591615
 50
271.3548579376869156
 51
271.9719298851139229
  0
ARC
  5
32BD
  8
0
 10
604.4054337080818868
 20
5.948665186986517
 30
0.0
 40
3.054771281591615
 50
270.6977320437110279
 51
271.1484624576788747
  0
ARC
  5
32BE
  8
0
 10
604.5259707203011885
 20
-3.9490036125458512
 30
0.0
 40
6.8436314600910642
 50
90.8669852790990262
 51
91.2034837768957658
  0
ARC
  5
32BF
  8
0
 10
604.5259707203011885
 20
-3.9490036125458512
 30
0.0
 40
6.8436314600910642
 50
90.6977320437110137
 51
90.7096497470511451
  0
ARC
  5
32C0
  8
0
 10
604.3087122384902159
 20
6.3927754562640748
 30
0.0
 40
3.5004294231401398
 50
271.1755157133596867
 51
271.20348377689578
  0
ARC
  5
32C1
  8
0
 10
604.3087122384902159
 20
6.3927754562640748
 30
0.0
 40
3.5004294231401398
 50
269.952925286564323
 51
270.758362564018114
  0
ARC
  5
32C2
  8
0
 10
604.283981245971745
 20
-13.9132208144547906
 30
0.0
 40
16.8055819077057009
 50
90.3962959119016602
 51
90.5829849108750267
  0
ARC
  5
32C3
  8
0
 10
604.283981245971745
 20
-13.9132208144547906
 30
0.0
 40
16.8055819077057009
 50
90.0542136454641167
 51
90.2230290444344405
  0
ARC
  5
32C4
  8
0
 10
604.0971463029308097
 20
3.4748910603352949
 30
0.0
 40
0.5693663415758666
 50
269.3343680331084897
 51
270.9778393749750762
  0
ARC
  5
32C5
  8
0
 10
604.1026768526915021
 20
3.1508640248108861
 30
0.0
 40
0.2452921112961493
 50
270.9778393749750762
 51
272.3445017494437934
  0
ARC
  5
32C6
  8
0
 10
604.1073841970910507
 20
3.0358884584438068
 30
0.0
 40
0.1302202209287515
 50
272.3445017494437934
 51
274.87108682733151
  0
ARC
  5
32C7
  8
0
 10
604.1172301103803193
 20
2.9203558262905882
 30
0.0
 40
0.0142688039440955
 50
274.87108682733151
 51
284.3991256249133812
  0
ARC
  5
32C8
  8
0
 10
604.1206658845939046
 20
2.906973521390412
 30
0.0
 40
0.0004524864576067
 50
284.399125624900023
 51
315.0562070663261238
  0
LINE
  5
32C9
  8
0
 10
604.121717946424269
 20
2.9084122394768879
 30
0.0
 11
604.1209861545588637
 21
2.906653879178307
 31
0.0
  0
LINE
  5
32CA
  8
0
 10
604.1647855292937948
 20
2.908329156838362
 30
0.0
 11
604.1657009027533149
 21
2.9061792829473481
 31
0.0
  0
ARC
  5
32CB
  8
0
 10
604.1658758783348731
 20
2.9062537840629972
 30
0.0
 40
0.0001901758932025
 50
203.0633382888819085
 51
262.9898855555156274
  0
ARC
  5
32CC
  8
0
 10
604.1906651027934458
 20
3.1078515975881231
 30
0.0
 40
0.2033063595600257
 50
262.9898855555156274
 51
264.4307632515859154
  0
ARC
  5
32CD
  8
0
 10
604.1881607065395201
 20
3.5030349843618458
 30
0.0
 40
0.5977783244965506
 50
268.3486780820205126
 51
271.6513219179794874
  0
ARC
  5
32CE
  8
0
 10
604.2003579099427952
 20
3.097222967189154
 30
0.0
 40
0.1917839987807305
 50
271.5025891198677073
 51
278.4880929298723231
  0
ARC
  5
32CF
  8
0
 10
604.1555128004289372
 20
2.935580037959709
 30
0.0
 40
0.0783431489218671
 50
339.027649591329407
 51
339.3716391362817717
  0
ARC
  5
32D0
  8
0
 10
604.2703378742656923
 20
3.395640117133254
 30
0.0
 40
0.4914636915303491
 50
271.9539211728895225
 51
276.4583063971257957
  0
ARC
  5
32D1
  8
0
 10
604.250737531110758
 20
3.9701676755112478
 30
0.0
 40
1.0663254912592699
 50
271.1756294717014271
 51
271.9539211728895225
  0
ARC
  5
32D2
  8
0
 10
604.271441097176421
 20
2.9612949754585278
 30
0.0
 40
0.0572403796063871
 50
266.2910944880800912
 51
271.1756294717014271
  0
ARC
  5
32D3
  8
0
 10
604.2680943625863392
 20
2.9096663061079648
 30
0.0
 40
0.0055033509776915
 50
251.5417595575572136
 51
266.2910944880800912
  0
LINE
  5
32D4
  8
0
 10
604.2663519279533375
 20
2.904446076847349
 30
0.0
 11
604.2647557078748832
 21
2.907848055186022
 31
0.0
  0
LINE
  5
32D5
  8
0
 10
604.3509769785468961
 20
2.9070224424599749
 30
0.0
 11
604.3533891759848302
 21
2.9023400908270531
 31
0.0
  0
ARC
  5
32D6
  8
0
 10
604.2978349824305724
 20
3.8194112675956968
 30
0.0
 40
0.919129587417553
 50
275.0402461642681828
 51
276.5793058119306806
  0
ARC
  5
32D7
  8
0
 10
604.3076027370161682
 20
3.7086613707221541
 30
0.0
 40
0.8079497840036999
 50
273.6872575242820744
 51
275.0402461642681828
  0
ARC
  5
32D8
  8
0
 10
604.3540693487741464
 20
2.987620240834417
 30
0.0
 40
0.0854129634899876
 50
270.4974384197432755
 51
273.6872575242820744
  0
ARC
  5
32D9
  8
0
 10
604.3547485567117974
 20
2.9093899134079768
 30
0.0
 40
0.0071796876243416
 50
259.0859034698873984
 51
270.4974384197432755
  0
ARC
  5
32DA
  8
0
 10
604.2946473016808113
 20
4.0789454858821301
 30
0.0
 40
1.185760589570237
 50
276.1248434833461829
 51
278.2124485888099912
  0
LINE
  5
32DB
  8
0
 10
604.4211622730532554
 20
2.899953485147349
 30
0.0
 11
604.4176629360616744
 21
2.9061183550543599
 31
0.0
  0
LINE
  5
32DC
  8
0
 10
604.5037469204521585
 20
2.9044041851306721
 30
0.0
 11
604.4653194644532732
 21
2.8974140714473569
 31
0.0
  0
LINE
  5
32DD
  8
0
 10
604.4653194644532732
 20
2.8974140714473569
 30
0.0
 11
604.4606448884533165
 21
2.9048649831473479
 31
0.0
  0
LINE
  5
32DE
  8
0
 10
604.5227649871552558
 20
2.9037556616218998
 30
0.0
 11
604.4831140759695245
 21
2.8948817396409501
 31
0.0
  0
LINE
  5
32DF
  8
0
 10
604.4831140759695245
 20
2.8948817396409501
 30
0.0
 11
604.479544622021649
 21
2.9000016758286189
 31
0.0
  0
ARC
  5
32E0
  8
0
 10
604.0905541497591003
 20
20.4848235263407901
 30
0.0
 40
17.5907330024934296
 50
269.9999273845946277
 51
270.2561519033397985
  0
ARC
  5
32E1
  8
0
 10
604.0905541497376134
 20
20.4848235311291518
 30
0.0
 40
17.5907330072818411
 50
270.2561519033397985
 51
270.5174083436447745
  0
ARC
  5
32E2
  8
0
 10
604.157694525472948
 20
13.0501626074708597
 30
0.0
 40
10.1557689266809508
 50
270.5174083436447745
 51
270.9789117103994727
  0
ARC
  5
32E3
  8
0
 10
604.2608190985608871
 20
7.0148605359778031
 30
0.0
 40
4.1195858801073202
 50
270.9789117103994727
 51
271.3578224266623806
  0
ARC
  5
32E4
  8
0
 10
604.2911244581943038
 20
5.7363103376054161
 30
0.0
 40
2.8406765695693972
 50
271.3578224266623806
 51
272.3101292293703182
  0
ARC
  5
32E5
  8
0
 10
604.3924888152546373
 20
3.2236360191650841
 30
0.0
 40
0.3259585011903942
 50
272.3101292293703182
 51
274.6138097689324127
  0
ARC
  5
32E6
  8
0
 10
604.4163039307583176
 20
2.9285317481299979
 30
0.0
 40
0.0298948416345404
 50
274.6138097689324127
 51
290.8019698553885064
  0
ARC
  5
32E7
  8
0
 10
604.3571455917882531
 20
2.0164356802561652
 30
0.0
 40
0.8868530497156655
 50
85.8997234649386456
 51
89.1201488981273116
  0
ARC
  5
32E8
  8
0
 10
604.1331435007156188
 20
-7.5301608011871499
 30
0.0
 40
10.4360839460707293
 50
88.7943260717482872
 51
89.1223668561846836
  0
ARC
  5
32E9
  8
0
 10
604.0651564903513417
 20
-16.60996693248903
 30
0.0
 40
19.5159501448450214
 50
89.410003337417379
 51
89.5904186135935845
  0
ARC
  5
32EA
  8
0
 10
604.1228283985052485
 20
-1.1554080728490841
 30
0.0
 40
4.0611979136966241
 50
89.3212982378191498
 51
90.1427352447473567
  0
ARC
  5
32EB
  8
0
 10
604.5082032989693062
 20
2.7725983589395891
 30
0.0
 40
0.1274890319652011
 50
102.1078826340258985
 51
108.6631534732342033
  0
ARC
  5
32EC
  8
0
 10
604.4481948209496522
 20
3.0770239374918158
 30
0.0
 40
0.1846425654656158
 50
275.9722632201140868
 51
280.7396929399864121
  0
LINE
  5
32ED
  8
0
 10
604.4674063268532791
 20
2.893383541547351
 30
0.0
 11
604.4598643163672023
 21
2.9047548176350508
 31
0.0
  0
LINE
  5
32EE
  8
0
 10
604.481807695900784
 20
2.8967555788013182
 30
0.0
 11
604.4785774033928192
 21
2.8956728773890168
 31
0.0
  0
LINE
  5
32EF
  8
0
 10
604.4822607910369925
 20
2.8961056703786729
 30
0.0
 11
604.4785774033928192
 21
2.8956728773890168
 31
0.0
  0
ARC
  5
32F0
  8
0
 10
604.5028874729987365
 20
2.6005299078899351
 30
0.0
 40
0.3025726626101481
 50
97.6258415059339058
 51
105.2570109497948039
  0
ARC
  5
32F1
  8
0
 10
604.3999718363927514
 20
3.2411085438174041
 30
0.0
 40
0.3494473460179748
 50
273.8221219159444217
 51
280.6505064909966904
  0
ARC
  5
32F2
  8
0
 10
604.4925003021003249
 20
2.6725394968127461
 30
0.0
 40
0.2291823942932457
 50
97.3630154192159836
 51
104.5533242450929947
  0
ARC
  5
32F3
  8
0
 10
604.4193984555324732
 20
3.122051382748253
 30
0.0
 40
0.2282108422206208
 50
273.8976983197237018
 51
281.3121043856135088
  0
LINE
  5
32F4
  8
0
 10
604.419431994952788
 20
2.8988010103196298
 30
0.0
 11
604.4232656983532479
 21
2.8924384366473528
 31
0.0
  0
ARC
  5
32F5
  8
0
 10
604.3520807941838484
 20
3.2102733532324939
 30
0.0
 40
0.3184633712408005
 50
270.6142993717355125
 51
281.9051153238630718
  0
ARC
  5
32F6
  8
0
 10
604.403007021137455
 20
2.7386663491951988
 30
0.0
 40
0.1603619556982272
 50
99.2607759401943071
 51
107.2342448992533974
  0
ARC
  5
32F7
  8
0
 10
604.4368891009386289
 20
2.620407096173238
 30
0.0
 40
0.2816560426432097
 50
100.6919709488428936
 51
104.3249265901222032
  0
ARC
  5
32F8
  8
0
 10
604.3678081662889099
 20
3.0625561286695131
 30
0.0
 40
0.1692512750204319
 50
269.7946634142949165
 51
283.560376011402127
  0
LINE
  5
32F9
  8
0
 10
604.3554951486534037
 20
2.891828285747351
 30
0.0
 11
604.3530349163237361
 21
2.8963068982872779
 31
0.0
  0
ARC
  5
32FA
  8
0
 10
604.2864117714542544
 20
3.0989252289690792
 30
0.0
 40
0.2074892445426696
 50
272.7863752173036005
 51
281.8221971717794077
  0
ARC
  5
32FB
  8
0
 10
604.2818437847998894
 20
3.1927819332181708
 30
0.0
 40
0.3014570445306215
 50
267.4524623100865028
 51
272.7863752173036005
  0
ARC
  5
32FC
  8
0
 10
604.2932896393477904
 20
2.8175233650596421
 30
0.0
 40
0.0781537494555561
 50
96.4804810650094851
 51
108.535990424343197
  0
ARC
  5
32FD
  8
0
 10
604.2778021377720279
 20
3.1298600843094699
 30
0.0
 40
0.2380822686117843
 50
274.000291908220504
 51
280.4205245813644183
  0
ARC
  5
32FE
  8
0
 10
604.2867249458021206
 20
3.0022673262695738
 30
0.0
 40
0.1101778964919557
 50
268.6185339078562038
 51
274.000291908220504
  0
ARC
  5
32FF
  8
0
 10
604.2844695955913039
 20
2.9087456631357038
 30
0.0
 40
0.016629042517689
 50
255.1031931989290911
 51
268.6185339078562038
  0
ARC
  5
3300
  8
0
 10
604.2986396210712883
 20
2.831427761805358
 30
0.0
 40
0.0639648769785468
 50
92.6863721550166417
 51
106.7598813416022949
  0
LINE
  5
3301
  8
0
 10
604.2684466289521197
 20
2.8916227296861332
 30
0.0
 11
604.266761367511549
 21
2.8949793537769031
 31
0.0
  0
ARC
  5
3302
  8
0
 10
604.2066393438592513
 20
2.9915599014860841
 30
0.0
 40
0.1000393973570286
 50
272.2663600390454235
 51
284.3807725958067749
  0
ARC
  5
3303
  8
0
 10
604.1834619362666672
 20
3.229908815753034
 30
0.0
 40
0.3393964082264596
 50
269.0919619784179986
 51
274.5854776350653879
  0
ARC
  5
3304
  8
0
 10
604.1770600796171493
 20
2.9320945512997119
 30
0.0
 40
0.0415521228804162
 50
261.5029428363170041
 51
271.4110795744319944
  0
ARC
  5
3305
  8
0
 10
604.1728534375346271
 20
2.903927622370019
 30
0.0
 40
0.0130728020253858
 50
247.1505155799995066
 51
261.4966374127037056
  0
ARC
  5
3306
  8
0
 10
2492.4917115987559555
 20
867.556230853117313
 30
0.0
 40
2076.875470513340133
 50
204.6029919783725859
 51
204.6030640294177942
  0
ARC
  5
3307
  8
0
 10
604.1796891609918703
 20
2.864669564428751
 30
0.0
 40
0.0297042242969055
 50
93.8621153352656847
 51
113.6420778810158936
  0
ARC
  5
3308
  8
0
 10
604.2186153334080245
 20
2.8944284002797072
 30
0.0
 40
0.0002638623070819
 50
301.7087698208824236
 51
29.5040316300124701
  0
ARC
  5
3309
  8
0
 10
604.2172554019253994
 20
2.8966295633319841
 30
0.0
 40
0.0028512417574416
 50
288.7970017689636961
 51
301.708769820881912
  0
ARC
  5
330A
  8
0
 10
604.2143093701653243
 20
2.9052849594006309
 30
0.0
 40
0.0119942710276918
 50
277.4344133052042025
 51
288.7970017689636961
  0
ARC
  5
330B
  8
0
 10
604.1885873655550085
 20
3.1024063752491311
 30
0.0
 40
0.2107868113990214
 50
269.4956240923924042
 51
277.4344133052042025
  0
ARC
  5
330C
  8
0
 10
604.1871530305716078
 20
2.939473893988207
 30
0.0
 40
0.0478480168573694
 50
261.8874918758597232
 51
269.4956240923924042
  0
ARC
  5
330D
  8
0
 10
604.1806805878255773
 20
2.8940672036943762
 30
0.0
 40
0.0019823429983732
 50
244.9512608468808992
 51
261.8874918758597232
  0
ARC
  5
330E
  8
0
 10
604.1800234444848456
 20
2.8926610793708392
 30
0.0
 40
0.0004302402364496
 50
183.6162373278909001
 51
244.9512608468737938
  0
ARC
  5
330F
  8
0
 10
604.1953879536159775
 20
2.8174866202589608
 30
0.0
 40
0.0771137384110085
 50
94.4461089412510972
 51
99.7590526624553036
  0
ARC
  5
3310
  8
0
 10
604.184114459123748
 20
2.8829464430401108
 30
0.0
 40
0.0106902595520386
 50
99.6809228987253846
 51
115.0147810493339051
  0
ARC
  5
3311
  8
0
 10
604.0889562954424719
 20
3.101135329096194
 30
0.0
 40
0.2096526036984718
 50
270.4305875462546283
 51
273.7339338900840175
  0
ARC
  5
3312
  8
0
 10
604.0976016019677672
 20
2.9686642818132891
 30
0.0
 40
0.0768997517775202
 50
273.7339338900840175
 51
278.538425525269588
  0
ARC
  5
3313
  8
0
 10
604.1074678341449271
 20
2.90294928956473
 30
0.0
 40
0.0104482450707516
 50
278.538425525269588
 51
287.0124125466865053
  0
ARC
  5
3314
  8
0
 10
604.1097653032745711
 20
2.8954404251272621
 30
0.0
 40
0.0025957671470429
 50
287.0124125466863916
 51
301.0111668517827752
  0
ARC
  5
3315
  8
0
 10
604.1109526278065687
 20
2.8934652573531419
 30
0.0
 40
0.0002912005326301
 50
301.0111668518065926
 51
336.2562190387067176
  0
ARC
  5
3316
  8
0
 10
604.1110750514585561
 20
2.8934114055172691
 30
0.0
 40
0.0001574561093515
 50
336.2562190386614134
 51
52.9955161107592971
  0
ARC
  5
3317
  8
0
 10
604.1100897651475634
 20
2.8921040992951532
 30
0.0
 40
0.0017944773898004
 50
52.9955161107596169
 51
79.8930958404236975
  0
ARC
  5
3318
  8
0
 10
604.1078970489453468
 20
2.8814660494092399
 30
0.0
 40
0.012655602065142
 50
78.5716042279736087
 51
86.6342130937447479
  0
ARC
  5
3319
  8
0
 10
604.0872688192761188
 20
3.2305683395852181
 30
0.0
 40
0.3400884387411236
 50
270.549742537891575
 51
273.6425076210999805
  0
ARC
  5
331A
  8
0
 10
604.1004707896519221
 20
3.0231843236944078
 30
0.0
 40
0.1322846320656904
 50
273.6425076210999805
 51
277.8960898028034876
  0
ARC
  5
331B
  8
0
 10
604.1154683740293194
 20
2.915048350702008
 30
0.0
 40
0.0231135910695916
 50
277.8960898028034876
 51
286.754481029394924
  0
ARC
  5
331C
  8
0
 10
604.121401183836042
 20
2.8953413669507588
 30
0.0
 40
0.0025329341127525
 50
286.7544810293950945
 51
304.2685035626286094
  0
ARC
  5
331D
  8
0
 10
604.122459983275462
 20
2.8937873906989888
 30
0.0
 40
0.0006525356325687
 50
304.2685035625964929
 51
349.0712365847624028
  0
ARC
  5
331E
  8
0
 10
604.1245429748729521
 20
2.8932434121015258
 30
0.0
 40
0.0015022733187904
 50
144.2531902739006
 51
163.7545381632905901
  0
ARC
  5
331F
  8
0
 10
604.0909686066758013
 20
16.1030035452973017
 30
0.0
 40
13.1997334931207497
 50
269.9981042048872837
 51
270.3247289451899746
  0
ARC
  5
3320
  8
0
 10
604.1915982000037957
 20
-1.6520790957815299
 30
0.0
 40
4.555634312323094
 50
89.1825459129776448
 51
90.3247289451900031
  0
ARC
  5
3321
  8
0
 10
604.2346412376911076
 20
1.364624960370463
 30
0.0
 40
1.538623197743435
 50
86.2520567768413713
 51
89.1825459129776448
  0
ARC
  5
3322
  8
0
 10
604.0914060675991095
 20
15.6836188924769395
 30
0.0
 40
12.7878355873014105
 50
269.9960831014299742
 51
270.4679573368509864
  0
ARC
  5
3323
  8
0
 10
604.1411743278091535
 20
9.5902261101317805
 30
0.0
 40
6.6942395652746454
 50
270.4679573368509864
 51
271.2427765393695722
  0
ARC
  5
3324
  8
0
 10
604.2669478746666982
 20
3.792592338067251
 30
0.0
 40
0.895241691497463
 50
271.2427765393695722
 51
274.3734868429132803
  0
ENDSEC
  0
EOF
