  0
SECTION
  2
HEADER
  9
$ACADVER
  1
AC1009
  9
$INSBASE
 10
4979.2174535095218744
 20
-5.9384807023202342
 30
0.0
  9
$EXTMIN
 10
4957.6701661360793878
 20
-6.9795953444336973
 30
-0.0015258207003583
  9
$EXTMAX
 10
4986.9658644347291556
 20
-2.4045642479584681
 30
0.0000000349246037
  9
$LIMMIN
 10
0.0
 20
0.0
  9
$LIMMAX
 10
11.6929133858000007
 20
8.2677165353999982
  9
$ORTHOMODE
 70
     0
  9
$REGENMODE
 70
     1
  9
$FILLMODE
 70
     1
  9
$QTEXTMODE
 70
     0
  9
$MIRRTEXT
 70
     0
  9
$DRAGMODE
 70
     2
  9
$LTSCALE
 40
0.6431102362
  9
$OSMODE
 70
  4095
  9
$ATTMODE
 70
     1
  9
$TEXTSIZE
 40
0.2
  9
$TRACEWID
 40
0.05
  9
$TEXTSTYLE
  7
STANDARD
  9
$CLAYER
  8
0
  9
$CELTYPE
  6
BYLAYER
  9
$CECOLOR
 62
   256
  9
$DIMSCALE
 40
1.0
  9
$DIMASZ
 40
0.1875
  9
$DIMEXO
 40
0.0625
  9
$DIMDLI
 40
0.4443307087
  9
$DIMRND
 40
0.0
  9
$DIMDLE
 40
0.0
  9
$DIMEXE
 40
0.125
  9
$DIMTP
 40
0.01
  9
$DIMTM
 40
0.01
  9
$DIMTXT
 40
2.0
  9
$DIMCEN
 40
0.1052362205
  9
$DIMTSZ
 40
0.0
  9
$DIMTOL
 70
     1
  9
$DIMLIM
 70
     0
  9
$DIMTIH
 70
     1
  9
$DIMTOH
 70
     1
  9
$DIMSE1
 70
     0
  9
$DIMSE2
 70
     0
  9
$DIMTAD
 70
     0
  9
$DIMZIN
 70
     0
  9
$DIMBLK
  1

  9
$DIMASO
 70
     1
  9
$DIMSHO
 70
     1
  9
$DIMPOST
  1
\X
  9
$DIMAPOST
  1

  9
$DIMALT
 70
     1
  9
$DIMALTD
 70
     2
  9
$DIMALTF
 40
25.3999999999999986
  9
$DIMLFAC
 40
1.0
  9
$DIMTOFL
 70
     0
  9
$DIMTVP
 40
0.0
  9
$DIMTIX
 70
     0
  9
$DIMSOXD
 70
     0
  9
$DIMSAH
 70
     0
  9
$DIMBLK1
  1

  9
$DIMBLK2
  1

  9
$DIMSTYLE
  2
STANDARD
  9
$DIMCLRD
 70
     0
  9
$DIMCLRE
 70
     0
  9
$DIMCLRT
 70
     0
  9
$DIMTFAC
 40
1.0
  9
$DIMGAP
 40
0.09
  9
$LUNITS
 70
     2
  9
$LUPREC
 70
     4
  9
$SKETCHINC
 40
0.1
  9
$FILLETRAD
 40
0.0
  9
$AUNITS
 70
     0
  9
$AUPREC
 70
     0
  9
$MENU
  1
.
  9
$ELEVATION
 40
0.0
  9
$PELEVATION
 40
0.0
  9
$THICKNESS
 40
0.0
  9
$LIMCHECK
 70
     0
  9
$BLIPMODE
 70
     0
  9
$CHAMFERA
 40
0.0
  9
$CHAMFERB
 40
0.0
  9
$SKPOLY
 70
     0
  9
$TDCREATE
 40
2458060.468368056230247
  9
$TDUPDATE
 40
2460028.6271990737877786
  9
$TDINDWG
 40
0.5239885417
  9
$TDUSRTIMER
 40
0.5239885417
  9
$USRTIMER
 70
     1
  9
$ANGBASE
 50
0.0
  9
$ANGDIR
 70
     0
  9
$PDMODE
 70
     0
  9
$PDSIZE
 40
0.3125
  9
$PLINEWID
 40
0.0
  9
$COORDS
 70
     1
  9
$SPLFRAME
 70
     0
  9
$SPLINETYPE
 70
     6
  9
$SPLINESEGS
 70
     8
  9
$ATTDIA
 70
     1
  9
$ATTREQ
 70
     1
  9
$HANDLING
 70
     1
  9
$HANDSEED
  5
20BE8
  9
$SURFTAB1
 70
     6
  9
$SURFTAB2
 70
     6
  9
$SURFTYPE
 70
     6
  9
$SURFU
 70
     6
  9
$SURFV
 70
     6
  9
$UCSNAME
  2

  9
$UCSORG
 10
0.0
 20
0.0
 30
0.0
  9
$UCSXDIR
 10
1.0
 20
0.0
 30
0.0
  9
$UCSYDIR
 10
0.0
 20
1.0
 30
0.0
  9
$PUCSNAME
  2

  9
$PUCSORG
 10
0.0
 20
0.0
 30
0.0
  9
$PUCSXDIR
 10
1.0
 20
0.0
 30
0.0
  9
$PUCSYDIR
 10
0.0
 20
1.0
 30
0.0
  9
$USERI1
 70
     0
  9
$USERI2
 70
     0
  9
$USERI3
 70
     0
  9
$USERI4
 70
     0
  9
$USERI5
 70
     0
  9
$USERR1
 40
0.0
  9
$USERR2
 40
0.0
  9
$USERR3
 40
0.0
  9
$USERR4
 40
0.0
  9
$USERR5
 40
0.0
  9
$WORLDVIEW
 70
     1
  9
$SHADEDGE
 70
     3
  9
$SHADEDIF
 70
    70
  9
$TILEMODE
 70
     1
  9
$MAXACTVP
 70
    64
  9
$PLIMCHECK
 70
     0
  9
$PEXTMIN
 10
1.0000000000000000E+20
 20
1.0000000000000000E+20
 30
1.0000000000000000E+20
  9
$PEXTMAX
 10
-1.0000000000000000E+20
 20
-1.0000000000000000E+20
 30
-1.0000000000000000E+20
  9
$PLIMMIN
 10
0.0
 20
0.0
  9
$PLIMMAX
 10
12.0
 20
9.0
  9
$UNITMODE
 70
     0
  9
$VISRETAIN
 70
     1
  9
$PLINEGEN
 70
     0
  9
$PSLTSCALE
 70
     1
  0
ENDSEC
  0
SECTION
  2
TABLES
  0
TABLE
  2
VPORT
 70
     1
  0
VPORT
  2
*ACTIVE
 70
     0
 10
0.0
 20
0.0
 11
1.0
 21
1.0
 12
1179.9601051291540443
 22
-124.8727362293014949
 13
0.0
 23
0.0
 14
1.0
 24
1.0
 15
0.0
 25
0.0
 16
0.0
 26
0.0
 36
5.1040778033513332
 17
3792.35791015625
 27
120.1806564331053977
 37
0.0
 40
10.3139212999793806
 41
2.8493975903614448
 42
50.0
 43
0.0
 44
0.0
 50
0.0
 51
0.0
 71
     0
 72
   100
 73
     1
 74
     1
 75
     0
 76
     0
 77
     0
 78
     0
  0
ENDTAB
  0
TABLE
  2
LTYPE
 70
     2
  0
LTYPE
  2
CONTINUOUS
 70
     0
  3
Solid line
 72
    65
 73
     0
 40
0.0
  0
LTYPE
  2
PHANTOM2
 70
     0
  3
___ _ _ ___ _ _ ___ _ _ ___ _ _
 72
    65
 73
     6
 40
1.25
 49
0.625
 49
-0.125
 49
0.125
 49
-0.125
 49
0.125
 49
-0.125
  0
ENDTAB
  0
TABLE
  2
LAYER
 70
     2
  0
LAYER
  2
0
 70
     0
 62
   255
  6
CONTINUOUS
  0
LAYER
  2
DEFPOINTS
 70
     0
 62
     7
  6
CONTINUOUS
  0
ENDTAB
  0
TABLE
  2
STYLE
 70
     1
  0
STYLE
  2
STANDARD
 70
     0
 40
0.0
 41
0.8
 50
0.0
 71
     0
 42
0.2
  3
txt
  4

  0
ENDTAB
  0
TABLE
  2
VIEW
 70
     0
  0
ENDTAB
  0
TABLE
  2
UCS
 70
     0
  0
ENDTAB
  0
TABLE
  2
APPID
 70
     9
  0
APPID
  2
ACAD
 70
     0
  0
APPID
  2
ACAD_MLEADERVER
 70
     0
  0
APPID
  2
ACAD_EXEMPT_FROM_CAD_STANDARDS
 70
     0
  0
APPID
  2
ACAD_NAV_VCDISPLAY
 70
     0
  0
APPID
  2
ACAECLAYERSTANDARD
 70
     0
  0
APPID
  2
ACCMTRANSPARENCY
 70
     0
  0
APPID
  2
ACAD_DSTYLE_DIMJAG
 70
     0
  0
APPID
  2
ACAD_DSTYLE_DIMTALN
 70
     0
  0
APPID
  2
ACDBATTR
 70
     0
  0
ENDTAB
  0
TABLE
  2
DIMSTYLE
 70
     1
  0
DIMSTYLE
  2
STANDARD
 70
     0
  3

  4

  5

  6

  7

 40
1.0
 41
0.1875
 42
0.0625
 43
0.38
 44
0.125
 45
0.0
 46
0.0
 47
0.01
 48
0.01
140
0.15625
141
0.09
142
0.0
143
25.3999999999999986
144
1.0
145
0.0
146
1.0
147
0.09
 71
     1
 72
     0
 73
     1
 74
     1
 75
     0
 76
     0
 77
     0
 78
     4
170
     0
171
     2
172
     0
173
     0
174
     0
175
     0
176
     0
177
     0
178
     0
  0
ENDTAB
  0
ENDSEC
  0
SECTION
  2
BLOCKS
  0
BLOCK
  8
0
  2
$MODEL_SPACE
 70
     0
 10
0.0
 20
0.0
 30
0.0
  3
$MODEL_SPACE
  1

  0
ENDBLK
  5
21
  8
0
  0
BLOCK
 67
     1
  8
0
  2
$PAPER_SPACE
 70
     0
 10
0.0
 20
0.0
 30
0.0
  3
$PAPER_SPACE
  1

  0
ENDBLK
  5
1D
 67
     1
  8
0
  0
BLOCK
  8
0
  2
_FILLED
 70
     0
 10
0.0
 20
0.0
 30
0.0
  3
_FILLED
  1

  0
SOLID
  5
1D416
  8
0
  6
BYBLOCK
 62
     0
 10
0.0
 20
0.0
 30
0.0
 11
-1.0
 21
0.1666666667
 31
0.0
 12
-1.0
 22
-0.1666666667
 32
0.0
 13
-1.0
 23
-0.1666666667
 33
0.0
  0
ENDBLK
  5
1D417
  8
0
  6
BYBLOCK
 62
     0
  0
ENDSEC
  0
SECTION
  2
ENTITIES
  0
ATTDEF
  5
3930
  8
DEFPOINTS
 10
4979.2175540751322842
 20
-5.9398688749205339
 30
0.0
 40
0.001
  1
K-28362T
  3

  2
MODELNUMBER
 70
     0
1001
ACDBATTR
1070
     0
1070
     1
  0
ATTDEF
  5
3931
  8
DEFPOINTS
 10
4979.2175540751322842
 20
-5.9415355415871991
 30
0.0
 40
0.001
  1
C3
  3

  2
TRADENAME
 70
     0
1001
ACDBATTR
1070
     0
1070
     1
  0
ATTDEF
  5
3932
  8
DEFPOINTS
 10
4979.2175540751322842
 20
-5.9432022082538651
 30
0.0
 40
0.001
  1
TOILET SEAT
  3

  2
PRODUCT
 70
     0
1001
ACDBATTR
1070
     0
1070
     1
  0
ARC
  5
20504
  8
0
 10
4965.4643666536685487
 20
889.5532288082240484
 30
0.0
 40
892.0225311110516486
 50
270.4737377556695037
 51
270.688127132847228
  0
ARC
  5
20505
  8
0
 10
4972.0113084653512487
 20
-2.8062783395657069
 30
0.0
 40
0.2626919293158408
 50
132.5827773421927986
 51
178.8446910386581976
  0
ARC
  5
20506
  8
0
 10
4972.1214358107627049
 20
-2.9510793899369641
 30
0.0
 40
0.4441485944053791
 50
108.3694605209505966
 51
130.4029685877233078
  0
ARC
  5
20507
  8
0
 10
4972.5137140349579568
 20
-4.3410404745156219
 30
0.0
 40
1.891304944348436
 50
93.645061991876247
 51
103.9594937435416
  0
ARC
  5
20508
  8
0
 10
4972.843499653008621
 20
-9.3107170708608891
 30
0.0
 40
6.8719069456261064
 50
90.0310307427289302
 51
93.7548623029953916
  0
ARC
  5
20509
  8
0
 10
4972.2904763549486233
 20
-3.3768191031507371
 30
0.0
 40
0.9018486897423906
 50
104.9735145072355067
 51
110.0379025079088962
  0
ARC
  5
2050A
  8
0
 10
4957.610386816015307
 20
-2.7944940767068678
 30
0.0
 40
14.1382846099970596
 50
352.3015225354475888
 51
359.9737083546731924
  0
ARC
  5
2050B
  8
0
 10
4971.8217459603483803
 20
-4.6470012299410959
 30
0.0
 40
0.2360162562754423
 50
211.8378494175046001
 51
245.1540147464257018
  0
ARC
  5
2050C
  8
0
 10
4971.885349255078836
 20
-4.5744857134426828
 30
0.0
 40
0.3296725018393505
 50
240.4132556639110874
 51
271.5578151879092275
  0
ARC
  5
2050D
  8
0
 10
4972.2763098551313306
 20
-2.7706931900938652
 30
0.0
 40
2.1672738110284042
 50
259.8481555682964199
 51
264.7425744314630265
  0
ARC
  5
2050E
  8
0
 10
4972.8425832211369197
 20
3.3331416240068981
 30
0.0
 40
8.2973194432933397
 50
264.7108610856387259
 51
267.8985922364807948
  0
ARC
  5
2050F
  8
0
 10
4974.1067346316312978
 20
40.2111560787928966
 30
0.0
 40
45.1969749478278615
 50
268.0113552212466743
 51
269.7299419395654922
  0
ARC
  5
20510
  8
0
 10
4975.2345472632532619
 20
156.1337806491731044
 30
0.0
 40
161.124676662765296
 50
269.5231918884160791
 51
269.7935781477942783
  0
ARC
  5
20511
  8
0
 10
4978.1996664001535464
 20
1333.1018345308680182
 30
0.0
 40
1338.0963823466940994
 50
269.8481808672974012
 51
269.9317410189792099
  0
ARC
  5
20512
  8
0
 10
4981.0650263038623962
 20
-5.9356458550584961
 30
0.0
 40
9.1646194927493152
 50
177.9251609453033893
 51
178.0722569789836882
  0
LINE
  5
20513
  8
0
 10
4971.905593575104831
 20
-5.6273561629425179
 30
0.0
 11
4972.1832058689860787
 21
-5.9049661941639746
 31
0.0
  0
ARC
  5
20514
  8
0
 10
4972.2287040338405859
 20
-5.9187976066374262
 30
0.0
 40
0.0196830956799048
 50
224.9976677575104986
 51
270.0000001776958243
  0
ARC
  5
20515
  8
0
 10
4975.9497098392839689
 20
-5.938480702317392
 30
0.0
 40
0.0196850393999992
 50
179.9999999999967031
 51
269.9942247700981284
  0
LINE
  5
20516
  8
0
 10
4975.9497078550957667
 20
-5.9581657416173783
 30
0.0
 11
4977.3937255872842798
 21
-5.9581657416173783
 31
0.0
  0
LINE
  5
20517
  8
0
 10
4976.0186074770826963
 20
-5.9581657416173783
 30
0.0
 11
4976.0186074770826963
 21
-5.973913773117359
 31
0.0
  0
LINE
  5
20518
  8
0
 10
4976.0186074770826963
 20
-5.973913773117359
 30
0.0
 11
4976.1957728313836924
 21
-5.973913773117359
 31
0.0
  0
LINE
  5
20519
  8
0
 10
4976.1957728313836924
 20
-5.9581657416173783
 30
0.0
 11
4976.1957728313836924
 21
-5.973913773117359
 31
0.0
  0
ARC
  5
2051A
  8
0
 10
4976.2253003903842909
 20
-5.938480702317392
 30
0.0
 40
0.0196850394000001
 50
269.999999990099127
 51
0.0
  0
LINE
  5
2051B
  8
0
 10
4976.7272688943839967
 20
-5.973913773117359
 30
0.0
 11
4976.7272688943839967
 21
-5.9581657416173783
 31
0.0
  0
LINE
  5
2051C
  8
0
 10
4976.9044342486840833
 20
-5.973913773117359
 30
0.0
 11
4976.7272688943839967
 21
-5.973913773117359
 31
0.0
  0
LINE
  5
2051D
  8
0
 10
4976.9044342486840833
 20
-5.973913773117359
 30
0.0
 11
4976.9044342486840833
 21
-5.9581657416173783
 31
0.0
  0
ARC
  5
2051E
  8
0
 10
4977.0520720439826619
 20
-5.9384807023173352
 30
0.0
 40
0.0196850394000006
 50
180.0000000000032117
 51
269.9942247700981284
  0
LINE
  5
2051F
  8
0
 10
4977.3937255872842798
 20
-5.938480702317392
 30
0.0
 11
4977.3937255872842798
 21
-6.0872270267731627
 31
0.0
  0
LINE
  5
20520
  8
0
 10
4977.7756153510836157
 20
-5.938480702317392
 30
0.0
 11
4977.7756153510836157
 21
-6.0872270268442739
 31
0.0
  0
LINE
  5
20521
  8
0
 10
4977.7756153510836157
 20
-5.9581657416173783
 30
0.0
 11
4977.8633559679547034
 21
-5.9581657416173783
 31
0.0
  0
LINE
  5
20522
  8
0
 10
4978.0933865451834208
 20
-5.9581657416173783
 30
0.0
 11
4978.2134893667844153
 21
-5.9581657416173783
 31
0.0
  0
LINE
  5
20523
  8
0
 10
4977.8623243187839762
 20
-5.938480702317392
 30
0.0
 11
4977.8658643213830146
 21
-6.0060279773173733
 31
0.0
  0
LINE
  5
20524
  8
0
 10
4978.0944181943841613
 20
-5.938480702317392
 30
0.0
 11
4978.090878191687807
 21
-6.0060279773173733
 31
0.0
  0
ARC
  5
20525
  8
0
 10
4977.8776637482224032
 20
-6.005407026910162
 30
0.0
 40
0.0118157544450597
 50
183.0124385709000023
 51
268.9666473385448739
  0
ARC
  5
20526
  8
0
 10
4978.0790833546852809
 20
-6.0054098361235191
 30
0.0
 40
0.0118110235938297
 50
269.9999999880668042
 51
357.0000000979387096
  0
LINE
  5
20527
  8
0
 10
4977.8774506578420187
 20
-6.0172208597173693
 30
0.0
 11
4978.0790833546843714
 21
-6.0172208597173693
 31
0.0
  0
LINE
  5
20528
  8
0
 10
4977.3914627018839383
 20
-6.0888834505173426
 30
0.0
 11
4977.4710188413837386
 21
-6.0306486506173513
 31
0.0
  0
LINE
  5
20529
  8
0
 10
4977.5051143296841474
 20
-6.0223293935173814
 30
0.0
 11
4977.6642266085773372
 21
-6.0223305038261818
 31
0.0
  0
LINE
  5
2052A
  8
0
 10
4977.6983220968841124
 20
-6.030648650544137
 30
0.0
 11
4977.7778782382129066
 21
-6.0888834518560051
 31
0.0
  0
LINE
  5
2052B
  8
0
 10
4977.7831536572839468
 20
-6.0972027073173498
 30
0.0
 11
4977.7831528267834074
 21
-6.1895258960819737
 31
0.0
  0
LINE
  5
2052C
  8
0
 10
4977.3861872808838598
 20
-6.0972027076173703
 30
0.0
 11
4977.3861881114844437
 21
-6.1895261140017928
 31
0.0
  0
ARC
  5
2052D
  8
0
 10
4977.3971985083262553
 20
-6.0983529074077722
 30
0.0
 40
0.0110711376715219
 50
121.2039818313685942
 51
174.036681098359395
  0
ARC
  5
2052E
  8
0
 10
4977.5025510890109217
 20
-6.085852041253176
 30
0.0
 40
0.0635743421367198
 50
87.6892770449026955
 51
119.7350633026824056
  0
ARC
  5
2052F
  8
0
 10
4977.6667951762356097
 20
-6.0858386857795921
 30
0.0
 40
0.0635601031689834
 50
60.2631350911821571
 51
92.3160467827146363
  0
ARC
  5
20530
  8
0
 10
4977.7721424315050172
 20
-6.0983529065886577
 30
0.0
 40
0.0110711359636354
 50
5.9633171237013132
 51
58.796011206698978
  0
ARC
  5
20531
  8
0
 10
4977.7729868845490273
 20
-6.1892385760792052
 30
0.0
 40
0.0101700016878707
 50
336.4372623799586108
 51
358.381080482333914
  0
ARC
  5
20532
  8
0
 10
4977.3961543792665907
 20
-6.1892831338038681
 30
0.0
 40
0.0099692293037602
 50
181.3966093208844939
 51
203.7791989212275894
  0
ARC
  5
20533
  8
0
 10
4977.3896512801329663
 20
-6.192404008031402
 30
0.0
 40
0.0027692121457408
 50
198.9117428975457926
 51
237.8879153679924059
  0
ARC
  5
20534
  8
0
 10
4977.5255305354121447
 20
-5.9136857772974594
 30
0.0
 40
0.3128293942056453
 50
243.9559912024542996
 51
270.033680851494978
  0
ARC
  5
20535
  8
0
 10
4977.6435413810913815
 20
-5.912492764659234
 30
0.0
 40
0.3140264258360105
 50
270.0155363095897769
 51
295.9926741534119969
  0
ARC
  5
20536
  8
0
 10
4977.7796397086149227
 20
-6.1923771850142506
 30
0.0
 40
0.0028255809169967
 50
302.6810892737686913
 51
340.8506587249686959
  0
LINE
  5
20537
  8
0
 10
4977.4710188413837386
 20
-6.0306486506173513
 30
0.0
 11
4977.4710188420840495
 21
-6.1133166894173741
 31
0.0
  0
LINE
  5
20538
  8
0
 10
4977.5051143296841474
 20
-6.0223293935173814
 30
0.0
 11
4977.5051161404835511
 21
-6.104971615617373
 31
0.0
  0
ARC
  5
20539
  8
0
 10
4977.4933495616342043
 20
-6.1040348001558717
 30
0.0
 40
0.0118038129870339
 50
267.6868307248324754
 51
355.4479046850843247
  0
ARC
  5
2053A
  8
0
 10
4977.4942758128490823
 20
-6.1520654657342533
 30
0.0
 40
0.0362636086731242
 50
92.2167438798083765
 51
115.1904999152965985
  0
ARC
  5
2053B
  8
0
 10
4977.4758185123691874
 20
-6.1153955767706369
 30
0.0
 40
0.004898620782764
 50
220.3277994435611049
 51
308.0973671085088199
  0
ARC
  5
2053C
  8
0
 10
4977.4818409593599426
 20
-6.1138531949905959
 30
0.0
 40
0.0108354077263074
 50
177.1618899731882948
 51
205.7804173478126017
  0
LINE
  5
2053D
  8
0
 10
4977.6983220968759269
 20
-6.0306486506173513
 30
0.0
 11
4977.698322096177435
 21
-6.1133166894173741
 31
0.0
  0
LINE
  5
2053E
  8
0
 10
4977.6642266085518713
 20
-6.0223305038261818
 30
0.0
 11
4977.6642247977761144
 21
-6.104971615617373
 31
0.0
  0
ARC
  5
2053F
  8
0
 10
4977.6759913766245518
 20
-6.1040348001558717
 30
0.0
 40
0.0118038129870339
 50
184.5520953149151921
 51
272.3131692751674109
  0
ARC
  5
20540
  8
0
 10
4977.6750651254096738
 20
-6.1520654657342533
 30
0.0
 40
0.0362636086731242
 50
64.8095000847034157
 51
87.7832561201916235
  0
ARC
  5
20541
  8
0
 10
4977.6935224258922972
 20
-6.1153955767706369
 30
0.0
 40
0.0048986207827643
 50
231.9026328914912085
 51
319.6722005564388951
  0
ARC
  5
20542
  8
0
 10
4977.6874999788979039
 20
-6.1138531949905959
 30
0.0
 40
0.010835407726288
 50
334.2195826521777917
 51
2.8381100268442272
  0
LINE
  5
20543
  8
0
 10
4977.5051155024239051
 20
-6.0758515069430672
 30
0.0
 11
4977.6642254357593629
 21
-6.0758549932514114
 31
0.0
  0
LINE
  5
20544
  8
0
 10
4977.6983221039827185
 20
-6.0841707691173346
 30
0.0
 11
4977.7778774234666344
 21
-6.1424049688654199
 31
0.0
  0
LINE
  5
20545
  8
0
 10
4977.471018841836667
 20
-6.08417076375882
 30
0.0
 11
4977.3914627017838939
 21
-6.1424055640173796
 31
0.0
  0
LINE
  5
20546
  8
0
 10
4977.3914627017838939
 20
-6.1424055640173796
 30
0.0
 11
4977.3914627003141504
 21
-6.1715547435310176
 31
0.0
  0
ARC
  5
20547
  8
0
 10
4977.3570012036743719
 20
-6.1698613652010721
 30
0.0
 40
0.0345030763953952
 50
327.7708089569521235
 51
357.1868472388574105
  0
ARC
  5
20548
  8
0
 10
4977.8095772704236879
 20
-6.1703241905056947
 30
0.0
 40
0.031721952979407
 50
182.1781164095150984
 51
213.5917077573504912
  0
LINE
  5
20549
  8
0
 10
4977.7778774234666344
 20
-6.1424049688654199
 30
0.0
 11
4977.7778782363839127
 21
-6.1715298197173487
 31
0.0
  0
ARC
  5
2054A
  8
0
 10
4977.4452740740498484
 20
-5.9908607449613518
 30
0.0
 40
0.2469022280611552
 50
307.4657662682889736
 51
332.472759708204876
  0
ARC
  5
2054B
  8
0
 10
4977.4549237056889979
 20
-5.9850599232900521
 30
0.0
 40
0.2766752477893025
 50
308.5639605143878725
 51
331.1488183880150018
  0
ARC
  5
2054C
  8
0
 10
4977.7256725153938532
 20
-5.9895204797813193
 30
0.0
 40
0.2489459364591187
 50
207.629992636501612
 51
232.429044334655714
  0
ARC
  5
2054D
  8
0
 10
4977.6999584751720249
 20
-5.998498519040524
 30
0.0
 40
0.2571553579209853
 50
208.0439075031789002
 51
232.2363454987566911
  0
ARC
  5
2054E
  8
0
 10
4977.5460714625769469
 20
-6.1959384462577267
 30
0.0
 40
0.0068692843624309
 50
238.4295177056812065
 51
291.4814807624522928
  0
ARC
  5
2054F
  8
0
 10
4977.5787587498007269
 20
-6.2963719689219451
 30
0.0
 40
0.0987629522559727
 50
99.6330048826700505
 51
107.7880466311299017
  0
ARC
  5
20550
  8
0
 10
4977.5602695597854108
 20
-6.1854645083455893
 30
0.0
 40
0.0136786026181419
 50
278.2489221638771255
 51
354.2508495992469193
  0
LINE
  5
20551
  8
0
 10
4977.5738793590835485
 20
-6.1868347392173604
 30
0.0
 11
4977.5738793640839503
 21
-6.147596102841745
 31
0.0
  0
ARC
  5
20552
  8
0
 10
4977.5525996030419265
 20
-6.1473692475434936
 30
0.0
 40
0.0212809700683657
 50
359.3892149676955228
 51
44.8777345205360376
  0
ARC
  5
20553
  8
0
 10
4977.5672021441023389
 20
-6.1081133054520791
 30
0.0
 40
0.01949025239046
 50
176.2157432008750106
 51
225.3293875171005993
  0
LINE
  5
20554
  8
0
 10
4977.5051155024611944
 20
-6.0758515069430672
 30
0.0
 11
4977.5477543874640105
 21
-6.1068269540312343
 31
0.0
  0
LINE
  5
20555
  8
0
 10
4977.5534999112842343
 20
-6.1219739964173376
 30
0.0
 11
4977.5676795982508338
 21
-6.1323534747849493
 31
0.0
  0
ARC
  5
20556
  8
0
 10
4977.6232563143657899
 20
-6.1960295712021169
 30
0.0
 40
0.0067797025452168
 50
248.3400076172165996
 51
307.6724383335504172
  0
ARC
  5
20557
  8
0
 10
4977.5905254951831012
 20
-6.2965729977292852
 30
0.0
 40
0.0989716903965989
 50
72.2162550656030504
 51
80.3547481064365741
  0
ARC
  5
20558
  8
0
 10
4977.6090686791558255
 20
-6.1854661242652318
 30
0.0
 40
0.0136755352099542
 50
185.7343821223726934
 51
261.7568018189285226
  0
LINE
  5
20559
  8
0
 10
4977.595461579183393
 20
-6.186832540610836
 30
0.0
 11
4977.5954615741839007
 21
-6.147596102841745
 31
0.0
  0
ARC
  5
2055A
  8
0
 10
4977.6167413352259246
 20
-6.1473692475434936
 30
0.0
 40
0.0212809700683657
 50
135.1222654794638913
 51
180.6107850323041077
  0
ARC
  5
2055B
  8
0
 10
4977.6021387941646026
 20
-6.1081133054520791
 30
0.0
 40
0.01949025239046
 50
314.670612482899287
 51
3.78425679912504
  0
LINE
  5
2055C
  8
0
 10
4977.6642254357666388
 20
-6.0758549932514114
 30
0.0
 11
4977.6215865508038405
 21
-6.1068269540312343
 31
0.0
  0
LINE
  5
2055D
  8
0
 10
4977.6158410269836168
 20
-6.1219739964173376
 30
0.0
 11
4977.6016613400161077
 21
-6.1323534747849493
 31
0.0
  0
ARC
  5
2055E
  8
0
 10
4977.5254702262527644
 20
-5.9024121501874873
 30
0.0
 40
0.3006588640969099
 50
243.5310428388056891
 51
270.671292851695398
  0
ARC
  5
2055F
  8
0
 10
4977.6441511153252577
 20
-5.9038402862256438
 30
0.0
 40
0.2992334026267091
 50
269.2715890676004733
 51
296.5449031012934142
  0
LINE
  5
20560
  8
0
 10
4977.4710189240877298
 20
-6.2217291413063398
 30
0.0
 11
4977.4710199377841491
 21
-6.2463992756173488
 31
0.0
  0
ARC
  5
20561
  8
0
 10
4977.486936938998042
 20
-6.1845695616744791
 30
0.0
 40
0.0638456298732048
 50
255.5636415936745891
 51
288.9880148399660129
  0
ARC
  5
20562
  8
0
 10
4977.476306703741102
 20
-6.1508843562940987
 30
0.0
 40
0.0991608347207102
 50
288.4631517866844206
 51
299.8444277387288821
  0
LINE
  5
20563
  8
0
 10
4977.5257501580390453
 20
-6.2204022416336073
 30
0.0
 11
4977.5256155252163808
 21
-6.2434369252236328
 31
0.0
  0
ARC
  5
20564
  8
0
 10
4977.464110672805873
 20
-6.199904602173361
 30
0.0
 40
0.0649582894113911
 50
341.6059323973573782
 51
357.2242150731062225
  0
LINE
  5
20565
  8
0
 10
4977.5289927580133735
 20
-6.190591209332851
 30
0.0
 11
4977.5289927462426931
 21
-6.2030503786497633
 31
0.0
  0
ARC
  5
20566
  8
0
 10
4977.5821841649458293
 20
-5.8687497480499209
 30
0.0
 40
0.4051551267514055
 50
255.2206413586553992
 51
257.8815144555638881
  0
ARC
  5
20567
  8
0
 10
4977.508344262511855
 20
-6.200255963549111
 30
0.0
 40
0.065586390531272
 50
260.1534411595973211
 51
283.0615937565672766
  0
ARC
  5
20568
  8
0
 10
4977.5040519801023038
 20
-6.1803072673742321
 30
0.0
 40
0.0859896387738123
 50
282.8436151305804174
 51
293.6981530035512833
  0
ARC
  5
20569
  8
0
 10
4977.4866698911637286
 20
-6.2475895869136897
 30
0.0
 40
0.0156951547236686
 50
175.6505455916062886
 51
225.6633118922345034
  0
ARC
  5
2056A
  8
0
 10
4977.4810067847602113
 20
-6.2527101645715533
 30
0.0
 40
0.0080886665143932
 50
229.0077205630313131
 51
254.3893342008535967
  0
LINE
  5
2056B
  8
0
 10
4977.6983220151996647
 20
-6.2217041458370508
 30
0.0
 11
4977.6983210004773355
 21
-6.2463992756173488
 31
0.0
  0
ARC
  5
2056C
  8
0
 10
4977.6824165548341625
 20
-6.184687445493906
 30
0.0
 40
0.0637283403861693
 50
250.9626137848100882
 51
284.4518491074920803
  0
ARC
  5
2056D
  8
0
 10
4977.6930342345185636
 20
-6.1508843562940987
 30
0.0
 40
0.0991608347207102
 50
240.1812837640015061
 51
251.5368482133156078
  0
LINE
  5
2056E
  8
0
 10
4977.6435907802206202
 20
-6.2204022416336073
 30
0.0
 11
4977.643723597265307
 21
-6.2431262587901841
 31
0.0
  0
ARC
  5
2056F
  8
0
 10
4977.5871567733138363
 20
-5.8687497480499209
 30
0.0
 40
0.4051551267514055
 50
282.1184855444361119
 51
284.7793586413445723
  0
ARC
  5
20570
  8
0
 10
4977.6610018972141916
 20
-6.2003271322404174
 30
0.0
 40
0.0655153776604179
 50
257.2263969070040162
 51
279.8527033739259195
  0
ARC
  5
20571
  8
0
 10
4977.6652268481939245
 20
-6.1804695373786984
 30
0.0
 40
0.0858160816987214
 50
246.2957931484232006
 51
257.4067379396777824
  0
ARC
  5
20572
  8
0
 10
4977.682671047095937
 20
-6.2475895869136897
 30
0.0
 40
0.0156951547236725
 50
314.3366881077665766
 51
4.3494544083871221
  0
ARC
  5
20573
  8
0
 10
4977.6883341535012732
 20
-6.2527101645715533
 30
0.0
 40
0.0080886665143748
 50
285.6106657990922031
 51
310.992279436970307
  0
ARC
  5
20574
  8
0
 10
4977.7051694177853278
 20
-6.1999115916158161
 30
0.0
 40
0.064898346222311
 50
182.772058961801406
 51
198.4051634800329111
  0
LINE
  5
20575
  8
0
 10
4977.6403470075310906
 20
-6.1904069268557427
 30
0.0
 11
4977.640347012958955
 21
-6.2030502497673723
 31
0.0
  0
ARC
  5
20576
  8
0
 10
4977.5376545764993352
 20
-6.2434964850173591
 30
0.0
 40
0.0120440998980396
 50
133.9380389544523098
 51
226.0619610455472923
  0
ARC
  5
20577
  8
0
 10
4977.5842736366148529
 20
-6.3465775546870731
 30
0.0
 40
0.1280394567226161
 50
89.8226853946626989
 51
103.6555803579343973
  0
ARC
  5
20578
  8
0
 10
4977.5639471156628133
 20
-6.2720142815337994
 30
0.0
 40
0.0508305555309035
 50
101.2328845957055989
 51
132.9743349647177126
  0
ARC
  5
20579
  8
0
 10
4977.5842736366148529
 20
-6.140415415347646
 30
0.0
 40
0.1280394567226161
 50
256.3444196420655885
 51
270.1773146053373011
  0
ARC
  5
2057A
  8
0
 10
4977.5639471156628133
 20
-6.2149786885009197
 30
0.0
 40
0.0508305555309035
 50
227.0256650352822021
 51
258.7671154042943726
  0
ARC
  5
2057B
  8
0
 10
4977.631685188944175
 20
-6.2434964850173591
 30
0.0
 40
0.0120440998980414
 50
313.9380389544546119
 51
46.0619610455464965
  0
ARC
  5
2057C
  8
0
 10
4977.5850661288277479
 20
-6.3465775546870731
 30
0.0
 40
0.1280394567226161
 50
76.3444196420656169
 51
90.1773146053373154
  0
ARC
  5
2057D
  8
0
 10
4977.605392649780697
 20
-6.2720142815337994
 30
0.0
 40
0.0508305555309035
 50
47.0256650352822305
 51
78.7671154042943442
  0
ARC
  5
2057E
  8
0
 10
4977.5850661288277479
 20
-6.140415415347646
 30
0.0
 40
0.1280394567226161
 50
269.8226853946626989
 51
283.6555803579344115
  0
ARC
  5
2057F
  8
0
 10
4977.605392649780697
 20
-6.2149786885009197
 30
0.0
 40
0.0508305555309035
 50
281.2328845957056274
 51
312.9743349647176842
  0
LINE
  5
20580
  8
0
 10
4978.2134893667844153
 20
-5.9384807023173352
 30
0.0
 11
4978.2134893667844153
 21
-6.560691436817577
 31
0.0
  0
ARC
  5
20581
  8
0
 10
4978.5238120673357116
 20
-6.5519172545358941
 30
0.0
 40
0.3104467180581611
 50
181.6195712103568951
 51
227.9049309318675114
  0
ARC
  5
20582
  8
0
 10
4978.3317647591793502
 20
-6.7627518666638897
 30
0.0
 40
0.0252860783065301
 50
230.5566892757321966
 51
299.1635246905427721
  0
LINE
  5
20583
  8
0
 10
4978.3512846423836891
 20
-6.7740721788182858
 30
0.0
 11
4978.3512846423836891
 21
-5.7010630682996029
 31
0.0
  0
ARC
  5
20584
  8
0
 10
4978.3385177771979215
 20
-6.7733196485642528
 30
0.0
 40
0.012789024531267
 50
295.8139536950507136
 51
356.6266600525290755
  0
LINE
  5
20585
  8
0
 10
4978.3709696817841177
 20
-5.701076367462619
 30
0.0
 11
4978.3709696817841177
 21
-5.7010627249173771
 31
0.0
  0
LINE
  5
20586
  8
0
 10
4978.3709696817841177
 20
-5.7010661116582781
 30
0.0
 11
4978.3709696817841177
 21
-6.8059967877175458
 31
0.0
  0
ARC
  5
20587
  8
0
 10
4978.3957292505083387
 20
-6.8047285423032093
 30
0.0
 40
0.0247920287558681
 50
182.9322666676829954
 51
238.2676462079072053
  0
ARC
  5
20588
  8
0
 10
4978.7242134700727547
 20
-6.3142890093084096
 30
0.0
 40
0.6150583212325799
 50
236.2706635694077875
 51
264.1702537082853723
  0
LINE
  5
20589
  8
0
 10
4978.6617402763758946
 20
-6.9261663161174019
 30
0.0
 11
4978.9550670704065851
 21
-6.9252344540711164
 31
0.0
  0
ARC
  5
2058A
  8
0
 10
4979.2174635134160781
 20
-6.3134301615528301
 30
0.0
 40
0.6656999216219728
 50
246.78601452842409
 51
269.9991389800123898
  0
ARC
  5
2058B
  8
0
 10
4979.2253950828408051
 20
-6.8494797062250958
 30
0.0
 40
0.1965016946616949
 50
92.316227316095123
 51
141.0243694077728094
  0
ARC
  5
2058C
  8
0
 10
4979.5374907885361608
 20
-7.1343676046862887
 30
0.0
 40
0.6188328224377422
 50
138.6932504832072937
 51
160.2481117804736925
  0
LINE
  5
2058D
  8
0
 10
4971.9259746311608978
 20
-5.6038421005602714
 30
0.0
 11
4971.9259747033329404
 21
-5.6357673277847624
 31
0.0
  0
LINE
  5
2058E
  8
0
 10
4971.9142765479609807
 20
-5.6038421005602714
 30
0.0
 11
4971.914276591851376
 21
-5.6232567879304582
 31
0.0
  0
ARC
  5
2058F
  8
0
 10
4971.9339616308079712
 20
-5.6232567435168761
 30
0.0
 40
0.0196850389572401
 50
180.0001292713039049
 51
225.0001299318741133
  0
LINE
  5
20590
  8
0
 10
4971.9200422376616189
 20
-5.6371761994396792
 30
0.0
 11
4971.9317403493532765
 21
-5.6496866116981286
 31
0.0
  0
ARC
  5
20591
  8
0
 10
4971.945659742735188
 20
-5.6357671553814583
 30
0.0
 40
0.0196850394030096
 50
180.0005018013308131
 51
221.1562706517443075
  0
ARC
  5
20592
  8
0
 10
4975.8964390818491665
 20
-5.819891079760267
 30
0.0
 40
0.1185976229653885
 50
270.6655154690196241
 51
339.8360858401882751
  0
ARC
  5
20593
  8
0
 10
4974.9737884171781843
 20
-5.8200903958071271
 30
0.0
 40
0.1184142777664183
 50
200.0955852827578951
 51
268.8471088088280112
  0
ARC
  5
20594
  8
0
 10
4974.9104661311339441
 20
-5.7612148003180863
 30
0.0
 40
0.0790486908919036
 50
188.6739812754589138
 51
199.9608898103205092
  0
LINE
  5
20595
  8
0
 10
4974.8361662219431309
 20
-5.7882003339619672
 30
0.0
 11
4974.8625831143472169
 21
-5.8607760419408086
 31
0.0
  0
LINE
  5
20596
  8
0
 10
4974.7563424232903344
 20
-5.7184815810261247
 30
0.0
 11
4974.7762179327883132
 21
-5.7731364117860693
 31
0.0
  0
LINE
  5
20597
  8
0
 10
4974.7762179327883132
 20
-5.7731364117860693
 30
0.0
 11
4976.0929689512840923
 21
-5.7731334350282131
 31
0.0
  0
LINE
  5
20598
  8
0
 10
4976.0929689512840923
 20
-5.7731334350282131
 30
0.0
 11
4976.1140093569702003
 21
-5.7152870672050957
 31
0.0
  0
LINE
  5
20599
  8
0
 10
4976.0341813161367099
 20
-5.7881960506285131
 30
0.0
 11
4976.007767893410346
 21
-5.8607725167411067
 31
0.0
  0
ARC
  5
2059A
  8
0
 10
4976.1842610345211142
 20
-5.7407426842329272
 30
0.0
 40
0.0747213934356004
 50
141.2847596151532059
 51
160.0820723599358928
  0
ARC
  5
2059B
  8
0
 10
4974.6828350960322496
 20
-5.7451549352425531
 30
0.0
 40
0.0781971545881108
 50
19.9441437492073703
 51
71.8836342559151262
  0
LINE
  5
2059C
  8
0
 10
4974.0725429055919449
 20
-5.6449578949470123
 30
0.0
 11
4974.0221569477944286
 21
-5.7834018010796484
 31
0.0
  0
ARC
  5
2059D
  8
0
 10
4973.9111478859013005
 20
-5.7411514921191014
 30
0.0
 40
0.1187775249340121
 50
282.1674292857834985
 51
339.1630580253146832
  0
ARC
  5
2059E
  8
0
 10
4973.1408565556748727
 20
-5.7414359677369902
 30
0.0
 40
0.1183542949880557
 50
200.0518779360643862
 51
258.1330871535211031
  0
LINE
  5
2059F
  8
0
 10
4973.0296765954590228
 20
-5.7820162041639804
 30
0.0
 11
4972.9337523294670973
 21
-5.5183662646588649
 31
0.0
  0
ARC
  5
205A0
  8
0
 10
4972.8637879998414064
 20
-5.5436841344965577
 30
0.0
 40
0.0744043140752344
 50
19.8935818284473704
 51
33.9929202008503424
  0
ARC
  5
205A1
  8
0
 10
4975.9578453401236402
 20
-5.7607880716491726
 30
0.0
 40
0.0811072040307022
 50
340.2496256241466881
 51
351.2448644888739864
  0
LINE
  5
205A2
  8
0
 10
4971.9062779232899629
 20
-5.6038421005602714
 30
0.0
 11
4971.930497762226878
 21
-4.9102316999576914
 31
0.0
  0
LINE
  5
205A3
  8
0
 10
4971.9289608761873751
 20
-4.9542452107321964
 30
0.0
 11
4971.9171161388267137
 21
-4.9542452375094248
 31
0.0
  0
ARC
  5
205A4
  8
0
 10
4971.9171161701660822
 20
-4.9660562760503089
 30
0.0
 40
0.011811038540939
 50
90.0001520242361153
 51
159.0295087153245106
  0
ARC
  5
205A5
  8
0
 10
4972.3985274936767382
 20
-5.1510945430086252
 30
0.0
 40
0.5275590557337605
 50
158.9761467361934137
 51
201.0243227101823038
  0
ARC
  5
205A6
  8
0
 10
4971.9171170081099262
 20
-5.336134987962267
 30
0.0
 40
0.0118110376311573
 50
200.980139354450813
 51
260.7515800595855922
  0
ARC
  5
205A7
  8
0
 10
4972.2249639732835931
 20
-5.8632077495173434
 30
0.0
 40
0.059055118100017
 50
225.0002334936071975
 51
242.4182422293640968
  0
LINE
  5
205A8
  8
0
 10
4971.9317403493532765
 20
-5.6496866116981286
 30
0.0
 11
4972.2147854168842969
 21
-5.9327150905173616
 31
0.0
  0
ARC
  5
205A9
  8
0
 10
4972.1727322187171012
 20
-5.123290244002745
 30
0.0
 40
0.2056654999341274
 50
185.9485924979950937
 51
232.7092989665212031
  0
ARC
  5
205AA
  8
0
 10
4969.9634580637057297
 20
-18.7412809867070003
 30
0.0
 40
13.5664975888621893
 50
77.3888377487353409
 51
80.1611010854448551
  0
ARC
  5
205AB
  8
0
 10
4973.9566700204277367
 20
-1.277039506788227
 30
0.0
 40
4.3490655949595327
 50
256.2841575706759727
 51
266.0823634340534909
  0
ARC
  5
205AC
  8
0
 10
4975.1109768522910599
 20
12.0607478982561904
 30
0.0
 40
17.7361800115359216
 50
265.3059340622613149
 51
268.6953473378480908
  0
ARC
  5
205AD
  8
0
 10
4976.5467573224495936
 20
63.513517675012352
 30
0.0
 40
69.208805114701434
 50
268.4768682047978814
 51
269.6516319215053841
  0
ARC
  5
205AE
  8
0
 10
4978.3258327811108757
 20
336.995173454870212
 30
0.0
 40
342.6962425390440217
 50
269.6321979784455038
 51
270.0075464904297178
  0
ARC
  5
205AF
  8
0
 10
4972.0903105198458434
 20
-5.0348139012524911
 30
0.0
 40
0.1642042809519463
 50
175.6150610671184893
 51
175.6231153471663049
  0
ARC
  5
205B0
  8
0
 10
4972.0905032080336241
 20
-5.0347772555087849
 30
0.0
 40
0.1643972099865766
 50
180.3894731831597085
 51
221.9175856147506067
  0
ARC
  5
205B1
  8
0
 10
4972.3366403865638858
 20
-4.8717282781513367
 30
0.0
 40
0.505585731279922
 50
235.2044320351847091
 51
263.7592945315709017
  0
ARC
  5
205B2
  8
0
 10
4972.1909689463273025
 20
-4.89733029556605
 30
0.0
 40
0.3328394535712213
 50
227.9810695523306947
 51
260.5061689800398881
  0
ARC
  5
205B3
  8
0
 10
4972.3970419341758316
 20
-3.9875998988813839
 30
0.0
 40
1.265218476537864
 50
258.0963599627004896
 51
265.3123309029595021
  0
ARC
  5
205B4
  8
0
 10
4972.5460687158984001
 20
-2.788638073486069
 30
0.0
 40
2.472865445424191
 50
264.1411481186274273
 51
269.1064197005219967
  0
ARC
  5
205B5
  8
0
 10
4972.6257500068413719
 20
2.274478455793556
 30
0.0
 40
7.5366089155649201
 50
269.1010155878344108
 51
272.9369038098647025
  0
ARC
  5
205B6
  8
0
 10
4970.6373039636791873
 20
47.3738264686971391
 30
0.0
 40
52.6796040331105004
 50
272.5835480062302736
 51
273.5116621908530874
  0
ARC
  5
205B7
  8
0
 10
4977.7572873820927271
 20
75.9855925311650253
 30
0.0
 40
81.0293653784534342
 50
270.3206500480022214
 51
271.0325378290352205
  0
ARC
  5
205B8
  8
0
 10
4979.1540268839526107
 20
-85.6995940286476952
 30
0.0
 40
80.6626055727027875
 50
90.670032609737703
 51
90.9063303699359437
  0
ARC
  5
205B9
  8
0
 10
4979.211499815373827
 20
-88.4585197715708063
 30
0.0
 40
83.422096389422137
 50
90.9158260617667651
 51
91.2315450111539832
  0
ARC
  5
205BA
  8
0
 10
4979.1249265737096721
 20
-84.7960210767470102
 30
0.0
 40
79.7585834035207455
 50
91.2259161390215638
 51
91.8619162845748463
  0
ARC
  5
205BB
  8
0
 10
4979.2366626792691022
 20
-87.8389685744171942
 30
0.0
 40
82.8035557169988436
 50
91.8707795617151675
 51
92.7953041714074232
  0
ARC
  5
205BC
  8
0
 10
4982.8434705278959882
 20
-157.2768839562129983
 30
0.0
 40
152.3348993975496057
 50
92.8766110571477839
 51
93.3792850947970265
  0
ARC
  5
205BD
  8
0
 10
4972.7405105884554359
 20
-1.8069108503172371
 30
0.0
 40
3.5967927697231432
 50
262.6710086754750932
 51
272.6507193244348741
  0
ARC
  5
205BE
  8
0
 10
4953.6230723508506344
 20
438.2070473425940236
 30
0.0
 40
444.0258417009604841
 50
272.489104746061173
 51
272.8052387650512856
  0
ARC
  5
205BF
  8
0
 10
4979.179368083377085
 20
-92.4740903139855703
 30
0.0
 40
87.2712580494376198
 50
91.1078454378504574
 51
92.5121352673267978
  0
ARC
  5
205C0
  8
0
 10
4979.3862241167307729
 20
-114.6088162737213025
 30
0.0
 40
109.4060693800154951
 50
90.0883849258936635
 51
90.9920330912772641
  0
ARC
  5
205C1
  8
0
 10
4972.1117089207245954
 20
-3.562678611348459
 30
0.0
 40
0.390809903011932
 50
182.1907537300396882
 51
252.7724201345025961
  0
ARC
  5
205C2
  8
0
 10
4972.9945951594545477
 20
-1.2745847268001711
 30
0.0
 40
2.8425618223714011
 50
249.4322979493996968
 51
267.4631230884863271
  0
ARC
  5
205C3
  8
0
 10
4974.7454310713792438
 20
18.7039088630227894
 30
0.0
 40
22.8953107969820095
 50
265.2983757407927783
 51
269.1905104026182016
  0
ARC
  5
205C4
  8
0
 10
4976.8912243481636324
 20
115.8020536230770006
 30
0.0
 40
120.0165747863631935
 50
268.8210979921179273
 51
269.7104392581618981
  0
ARC
  5
205C5
  8
0
 10
4974.6638152644964066
 20
-349.6114486723265031
 30
0.0
 40
345.4022633306589114
 50
89.5262162738953862
 51
89.7311264286339991
  0
ARC
  5
205C6
  8
0
 10
4992.9705403653733811
 20
889.5532288082254126
 30
0.0
 40
892.0225311110531266
 50
269.311872867152772
 51
269.5262622443304963
  0
ARC
  5
205C7
  8
0
 10
4986.423598553690681
 20
-2.8062783395657069
 30
0.0
 40
0.2626919293158408
 50
1.155308961341722
 51
47.4172226578072085
  0
ARC
  5
205C8
  8
0
 10
4986.3134712082801343
 20
-2.9510793899369641
 30
0.0
 40
0.4441485944053791
 50
49.597031412276678
 51
71.6305394790494319
  0
ARC
  5
205C9
  8
0
 10
4985.921192984083973
 20
-4.3410404745156219
 30
0.0
 40
1.891304944348436
 50
76.0405062564584142
 51
86.3549380081237388
  0
ARC
  5
205CA
  8
0
 10
4985.5914073660323993
 20
-9.3107170708608891
 30
0.0
 40
6.8719069456261064
 50
86.2451376970046084
 51
89.9689692572710982
  0
ARC
  5
205CB
  8
0
 10
4986.1444306640933064
 20
-3.3768191031507371
 30
0.0
 40
0.9018486897423906
 50
69.9620974921466114
 51
75.0264854927644222
  0
ARC
  5
205CC
  8
0
 10
5003.6063759236240003
 20
-2.696166936352923
 30
0.0
 40
16.9204634862324816
 50
180.3549245160058092
 51
187.0452099241701944
  0
ARC
  5
205CD
  8
0
 10
4985.9147628370992607
 20
-3.5186192089695818
 30
0.0
 40
1.5675538484878591
 50
300.9159880038890833
 51
304.9907444536880803
  0
ARC
  5
205CE
  8
0
 10
4987.9806494008007576
 20
-10.8582298265228996
 30
0.0
 40
6.1258611845351494
 50
101.8744750046528935
 51
103.5962091411520021
  0
ARC
  5
205CF
  8
0
 10
4986.1585971639096897
 20
-2.7706931900938652
 30
0.0
 40
2.1672738110284042
 50
275.2574255685369735
 51
280.1518444317035801
  0
ARC
  5
205D0
  8
0
 10
4985.5923237979059195
 20
3.3331416240068981
 30
0.0
 40
8.2973194432933397
 50
272.1014077635193189
 51
275.2891389143612741
  0
ARC
  5
205D1
  8
0
 10
4984.3281723874097224
 20
40.2111560787928966
 30
0.0
 40
45.1969749478278615
 50
270.2700580604345078
 51
271.9886447787533257
  0
ARC
  5
205D2
  8
0
 10
4983.2003597557877583
 20
156.1337806491731044
 30
0.0
 40
161.124676662765296
 50
270.2064218522057217
 51
270.4768081115839209
  0
ARC
  5
205D3
  8
0
 10
4980.2352406188947498
 20
1333.1018345269649217
 30
0.0
 40
1338.0963823427910029
 50
270.0682589810207901
 51
270.1518191327024851
  0
ARC
  5
205D4
  8
0
 10
4977.3698807151804431
 20
-5.9356458550584961
 30
0.0
 40
9.1646194927493152
 50
1.9277430210162461
 51
2.0748390546966169
  0
LINE
  5
205D5
  8
0
 10
4986.5293134439370988
 20
-5.6273561629425179
 30
0.0
 11
4986.2517011500549415
 21
-5.9049661941639746
 31
0.0
  0
ARC
  5
205D6
  8
0
 10
4986.2062029852013438
 20
-5.9187976066374262
 30
0.0
 40
0.0196830956799048
 50
269.9999998223041757
 51
315.0023322424893877
  0
ARC
  5
205D7
  8
0
 10
4982.4851971797579608
 20
-5.938480702317392
 30
0.0
 40
0.0196850393999992
 50
270.0057752299018716
 51
359.9999999917275204
  0
LINE
  5
205D8
  8
0
 10
4982.485199163946163
 20
-5.9581657416173783
 30
0.0
 11
4980.2214176522566049
 21
-5.9581657416173783
 31
0.0
  0
LINE
  5
205D9
  8
0
 10
4982.416299541958324
 20
-5.9581657416173783
 30
0.0
 11
4982.416299541958324
 21
-5.973913773117359
 31
0.0
  0
LINE
  5
205DA
  8
0
 10
4982.416299541958324
 20
-5.973913773117359
 30
0.0
 11
4982.2391341876582374
 21
-5.973913773117359
 31
0.0
  0
LINE
  5
205DB
  8
0
 10
4982.2391341876582374
 20
-5.9581657416173783
 30
0.0
 11
4982.2391341876582374
 21
-5.973913773117359
 31
0.0
  0
ARC
  5
205DC
  8
0
 10
4982.2096066286567293
 20
-5.938480702317392
 30
0.0
 40
0.0196850394000001
 50
180.000000008272508
 51
270.000000009900873
  0
LINE
  5
205DD
  8
0
 10
4981.7076381246579331
 20
-5.973913773117359
 30
0.0
 11
4981.7076381246579331
 21
-5.9581657416173783
 31
0.0
  0
LINE
  5
205DE
  8
0
 10
4981.5304727703578465
 20
-5.973913773117359
 30
0.0
 11
4981.7076381246579331
 21
-5.973913773117359
 31
0.0
  0
LINE
  5
205DF
  8
0
 10
4981.5304727703578465
 20
-5.973913773117359
 30
0.0
 11
4981.5304727703578465
 21
-5.9581657416173783
 31
0.0
  0
ARC
  5
205E0
  8
0
 10
4981.3828349750583584
 20
-5.9384807023173352
 30
0.0
 40
0.0196850394000006
 50
270.0057752299018716
 51
359.9999999915622197
  0
LINE
  5
205E1
  8
0
 10
4980.2214176522566049
 20
-5.938480702317448
 30
0.0
 11
4980.2214176522566049
 21
-6.560691436817577
 31
0.0
  0
ARC
  5
205E2
  8
0
 10
4979.9110949517062181
 20
-6.5519172545358941
 30
0.0
 40
0.3104467180581611
 50
312.0950690681324886
 51
358.3804287896430765
  0
ARC
  5
205E3
  8
0
 10
4980.1031422598625795
 20
-6.7627518666638897
 30
0.0
 40
0.0252860783065301
 50
240.8364753094573132
 51
309.4433107242679171
  0
LINE
  5
205E4
  8
0
 10
4980.0836223766582407
 20
-6.7740721788182858
 30
0.0
 11
4980.0836223766582407
 21
-5.7010630682996029
 31
0.0
  0
ARC
  5
205E5
  8
0
 10
4980.0963892418440082
 20
-6.7733196485642528
 30
0.0
 40
0.012789024531267
 50
183.373339947470896
 51
244.1860463049492864
  0
LINE
  5
205E6
  8
0
 10
4980.0639373372569025
 20
-5.701076367462619
 30
0.0
 11
4980.0639373372569025
 21
-5.7010627249173771
 31
0.0
  0
LINE
  5
205E7
  8
0
 10
4980.0639373372569025
 20
-5.7010661116582781
 30
0.0
 11
4980.0639373372569025
 21
-6.8059967877175458
 31
0.0
  0
ARC
  5
205E8
  8
0
 10
4980.0391777685326815
 20
-6.8047285423032093
 30
0.0
 40
0.0247920287558681
 50
301.7323537920927947
 51
357.067733332316493
  0
ARC
  5
205E9
  8
0
 10
4979.7106935489700845
 20
-6.3142890093084096
 30
0.0
 40
0.6150583212325799
 50
275.829746291662218
 51
303.7293364305921841
  0
LINE
  5
205EA
  8
0
 10
4979.7731667426651256
 20
-6.9261663161174019
 30
0.0
 11
4979.4798399486353446
 21
-6.9252344540711164
 31
0.0
  0
ARC
  5
205EB
  8
0
 10
4979.2174435056258517
 20
-6.3134301615528301
 30
0.0
 40
0.6656999216219815
 50
270.0008610199874965
 51
293.2139854715758815
  0
ARC
  5
205EC
  8
0
 10
4979.2095119362002151
 20
-6.8494797062250958
 30
0.0
 40
0.1965016946616949
 50
38.9756305922271835
 51
87.683772683904877
  0
ARC
  5
205ED
  8
0
 10
4978.8974162305048594
 20
-7.1343676046862887
 30
0.0
 40
0.6188328224377422
 50
19.7518882195263217
 51
41.3067495167926424
  0
LINE
  5
205EE
  8
0
 10
4986.5089323878810319
 20
-5.6038421005602714
 30
0.0
 11
4986.5089323157089893
 21
-5.6357673277847624
 31
0.0
  0
LINE
  5
205EF
  8
0
 10
4986.5206304710818586
 20
-5.6038421005602714
 30
0.0
 11
4986.5206304271896443
 21
-5.6232567879304582
 31
0.0
  0
ARC
  5
205F0
  8
0
 10
4986.5009453882339585
 20
-5.6232567435168761
 30
0.0
 40
0.0196850389572401
 50
314.9998700681259152
 51
359.9998707286961235
  0
LINE
  5
205F1
  8
0
 10
4986.5148647813803109
 20
-5.6371761994396792
 30
0.0
 11
4986.5031666696886532
 21
-5.6496866116981286
 31
0.0
  0
ARC
  5
205F2
  8
0
 10
4986.4892472763058322
 20
-5.6357671553814583
 30
0.0
 40
0.0196850394030096
 50
318.8437293482555788
 51
359.9994981986690732
  0
ARC
  5
205F3
  8
0
 10
4982.538525723280145
 20
-5.8198468085083022
 30
0.0
 40
0.1186671299470886
 50
200.1743618799897888
 51
268.6439121562975174
  0
ARC
  5
205F4
  8
0
 10
4983.4495247083414142
 20
-5.8112315444784448
 30
0.0
 40
0.1324171433525881
 50
286.0601225995021082
 51
338.027921799153205
  0
ARC
  5
205F5
  8
0
 10
4983.5244408879079856
 20
-5.7612148003180863
 30
0.0
 40
0.0790486908919036
 50
340.0391101896794908
 51
351.3260187245410862
  0
LINE
  5
205F6
  8
0
 10
4983.5987407970978893
 20
-5.7882003339619672
 30
0.0
 11
4983.5723239046947128
 21
-5.8607760419408086
 31
0.0
  0
LINE
  5
205F7
  8
0
 10
4983.6785645957515953
 20
-5.7184815810261247
 30
0.0
 11
4983.6586890862527071
 21
-5.7731364117860693
 31
0.0
  0
LINE
  5
205F8
  8
0
 10
4983.6586890862527071
 20
-5.7731364117860693
 30
0.0
 11
4982.3419380677569279
 21
-5.7731334350282131
 31
0.0
  0
LINE
  5
205F9
  8
0
 10
4982.3419380677569279
 20
-5.7731334350282131
 30
0.0
 11
4982.3208976620717294
 21
-5.7152870672050957
 31
0.0
  0
LINE
  5
205FA
  8
0
 10
4982.4007257029052198
 20
-5.7881960506285131
 30
0.0
 11
4982.4271391256334027
 21
-5.8607725167411067
 31
0.0
  0
ARC
  5
205FB
  8
0
 10
4982.2506459845208155
 20
-5.7407426842329272
 30
0.0
 40
0.0747213934356004
 50
19.9179276400641001
 51
38.715240384846787
  0
ARC
  5
205FC
  8
0
 10
4983.7520719230096802
 20
-5.7451549352425531
 30
0.0
 40
0.0781971545881108
 50
108.1163657440849022
 51
160.0558562507926013
  0
LINE
  5
205FD
  8
0
 10
4984.3623641134508944
 20
-5.6449578949470123
 30
0.0
 11
4984.4127500712493202
 21
-5.7834018010796484
 31
0.0
  0
ARC
  5
205FE
  8
0
 10
4984.5237591331397198
 20
-5.7411514921191014
 30
0.0
 40
0.1187775249340121
 50
200.8369419746848905
 51
257.8325707142163878
  0
ARC
  5
205FF
  8
0
 10
4985.2940504633670571
 20
-5.7414359677369902
 30
0.0
 40
0.1183542949880557
 50
281.8669128464788969
 51
339.9481220639356138
  0
LINE
  5
20600
  8
0
 10
4985.405230423582907
 20
-5.7820162041639804
 30
0.0
 11
4985.5011546895748324
 21
-5.5183662646588649
 31
0.0
  0
ARC
  5
20601
  8
0
 10
4985.5711190191996138
 20
-5.5436841344965577
 30
0.0
 40
0.0744043140752344
 50
146.0070797991496079
 51
160.1064181715526047
  0
ARC
  5
20602
  8
0
 10
4982.4770616789182895
 20
-5.7607880716491726
 30
0.0
 40
0.0811072040307022
 50
188.7551355111260136
 51
199.750374375852914
  0
LINE
  5
20603
  8
0
 10
4986.5286290957519668
 20
-5.6038421005602714
 30
0.0
 11
4986.5044092568159613
 21
-4.9102316999576914
 31
0.0
  0
LINE
  5
20604
  8
0
 10
4986.5059461428545546
 20
-4.9542452107321964
 30
0.0
 11
4986.5177908802143065
 21
-4.9542452375094248
 31
0.0
  0
ARC
  5
20605
  8
0
 10
4986.5177908488758476
 20
-4.9660562760503089
 30
0.0
 40
0.011811038540939
 50
20.9704912846754183
 51
89.9998479757638563
  0
ARC
  5
20606
  8
0
 10
4986.036379525366101
 20
-5.1510945430086252
 30
0.0
 40
0.5275590557337605
 50
338.9756772898177246
 51
21.0238532638066182
  0
ARC
  5
20607
  8
0
 10
4986.5177900109320035
 20
-5.336134987962267
 30
0.0
 40
0.0118110376311573
 50
279.2484199404142942
 51
339.0198606455491017
  0
ARC
  5
20608
  8
0
 10
4986.2099430457583367
 20
-5.8632077495173434
 30
0.0
 40
0.059055118100017
 50
297.5817577706358747
 51
314.9997665063928025
  0
LINE
  5
20609
  8
0
 10
4986.5031666696886532
 20
-5.6496866116981286
 30
0.0
 11
4986.2201216021567234
 21
-5.9327150905173616
 31
0.0
  0
ARC
  5
2060A
  8
0
 10
4986.2621748003248285
 20
-5.123290244002745
 30
0.0
 40
0.2056654999341274
 50
307.2907010334787969
 51
354.0514075020047926
  0
ARC
  5
2060B
  8
0
 10
4988.4714489553352905
 20
-18.7412809867070003
 30
0.0
 40
13.5664975888621893
 50
99.8388989145551591
 51
102.6111622512647017
  0
ARC
  5
2060C
  8
0
 10
4984.4782369986132835
 20
-1.277039506788227
 30
0.0
 40
4.3490655949595327
 50
273.9176365658942132
 51
283.7158424293240273
  0
ARC
  5
2060D
  8
0
 10
4983.3239301667508698
 20
12.0607478982561904
 30
0.0
 40
17.7361800115359216
 50
271.3046526621519092
 51
274.6940659377386282
  0
ARC
  5
2060E
  8
0
 10
4981.8881496965914266
 20
63.513517675012352
 30
0.0
 40
69.208805114701434
 50
270.3483680784945022
 51
271.5231317952021186
  0
ARC
  5
2060F
  8
0
 10
4980.1090742379310541
 20
336.9951734548687909
 30
0.0
 40
342.6962425390426006
 50
269.9924535095702822
 51
270.3678020215546098
  0
ARC
  5
20610
  8
0
 10
4986.3445964991951769
 20
-5.0348139012524911
 30
0.0
 40
0.1642042809519463
 50
4.3768846528337022
 51
4.3849389328814841
  0
ARC
  5
20611
  8
0
 10
4986.3444038110073961
 20
-5.0347772555087849
 30
0.0
 40
0.1643972099865766
 50
318.0824143852490806
 51
359.61052681684032
  0
ARC
  5
20612
  8
0
 10
4986.0982666324780439
 20
-4.8717282781513367
 30
0.0
 40
0.505585731279922
 50
276.2407054684290983
 51
304.7955679648154046
  0
ARC
  5
20613
  8
0
 10
4986.2439380727146272
 20
-4.89733029556605
 30
0.0
 40
0.3328394535712213
 50
279.4938310199601119
 51
312.0189304476692769
  0
ARC
  5
20614
  8
0
 10
4986.0378650848651887
 20
-3.9875998988813839
 30
0.0
 40
1.265218476537864
 50
274.6876690970404979
 51
281.9036400372993967
  0
ARC
  5
20615
  8
0
 10
4985.8888383031453486
 20
-2.788638073486069
 30
0.0
 40
2.472865445424191
 50
270.893580299478117
 51
275.8588518813725727
  0
ARC
  5
20616
  8
0
 10
4985.8091570122005578
 20
2.274478455793556
 30
0.0
 40
7.5366089155649201
 50
267.0630961901351839
 51
270.8989844121655892
  0
ARC
  5
20617
  8
0
 10
4987.797603055361833
 20
47.3738264686971391
 30
0.0
 40
52.6796040331105004
 50
266.4883378090946735
 51
267.4164519937697264
  0
ARC
  5
20618
  8
0
 10
4980.6776196369492027
 20
75.9855925311695302
 30
0.0
 40
81.0293653784579391
 50
268.9674621709647795
 51
269.6793499519977786
  0
ARC
  5
20619
  8
0
 10
4979.2808801350893191
 20
-85.6995940286476952
 30
0.0
 40
80.6626055727027875
 50
89.0936696300640563
 51
89.3299673903144367
  0
ARC
  5
2061A
  8
0
 10
4979.2234072036690122
 20
-88.4585197715708063
 30
0.0
 40
83.422096389422137
 50
88.7684549888460168
 51
89.0841739382332491
  0
ARC
  5
2061B
  8
0
 10
4979.3099804453322577
 20
-84.7960210767470102
 30
0.0
 40
79.7585834035207455
 50
88.1380837154251537
 51
88.774083860978422
  0
ARC
  5
2061C
  8
0
 10
4979.198244339771918
 20
-87.8389685744171942
 30
0.0
 40
82.8035557169988436
 50
87.2046958285925911
 51
88.1292204382848468
  0
ARC
  5
2061D
  8
0
 10
4975.5914364911459415
 20
-157.2768839562129983
 30
0.0
 40
152.3348993975496057
 50
86.6207149052029735
 51
87.1233889428522161
  0
ARC
  5
2061E
  8
0
 10
4985.6943964305883128
 20
-1.8069108503172371
 30
0.0
 40
3.5967927697231432
 50
267.3492806755651259
 51
277.3289913245247931
  0
ARC
  5
2061F
  8
0
 10
5004.8118346681903859
 20
438.2070473425940236
 30
0.0
 40
444.0258417009604841
 50
267.1947612349486008
 51
267.510895253938827
  0
ARC
  5
20620
  8
0
 10
4979.2555389356648448
 20
-92.4740903139855703
 30
0.0
 40
87.2712580494376198
 50
87.4878647326732164
 51
88.8921545621495284
  0
ARC
  5
20621
  8
0
 10
4979.0999645093670551
 20
-109.1699351388563031
 30
0.0
 40
103.9671244564641057
 50
88.9843296164285533
 51
89.9352523664021817
  0
ARC
  5
20622
  8
0
 10
4986.3231980983164249
 20
-3.562678611348459
 30
0.0
 40
0.390809903011932
 50
287.2275798654973187
 51
357.8092462699602834
  0
ARC
  5
20623
  8
0
 10
4985.4403118595873821
 20
-1.2745847268001711
 30
0.0
 40
2.8425618223714011
 50
272.5368769115136729
 51
290.5677020506003032
  0
ARC
  5
20624
  8
0
 10
4983.6894759476626859
 20
18.7039088630227894
 30
0.0
 40
22.8953107969820095
 50
270.8094895973816847
 51
274.701624259207108
  0
ARC
  5
20625
  8
0
 10
4981.5436826708782974
 20
115.8020536230770006
 30
0.0
 40
120.0165747863631935
 50
270.2895607418379882
 51
271.1789020078820727
  0
ARC
  5
20626
  8
0
 10
4983.7710917545464326
 20
-349.6114486723238883
 30
0.0
 40
345.4022633306561829
 50
90.2688735713660151
 51
90.4737837261046138
  0
LINE
  5
20627
  8
0
 10
4958.0009009094474095
 20
-3.380453179418097
 30
0.0
 11
4968.4339867929938919
 21
-3.380453179418097
 31
0.0
  0
LINE
  5
20628
  8
0
 10
4958.0517489154708528
 20
-5.3558564784180902
 30
0.0
 11
4968.3831387869722676
 21
-5.3558564784180902
 31
0.0
  0
LINE
  5
20629
  8
0
 10
4957.813237703773666
 20
-5.5532630917180512
 30
0.0
 11
4968.6216499986676354
 21
-5.5532630917180512
 31
0.0
  0
LINE
  5
2062A
  8
0
 10
4962.4304242462676484
 20
-5.5886744969180731
 30
0.0
 11
4960.8205435103482159
 21
-5.5886744969180731
 31
0.0
  0
LINE
  5
2062B
  8
0
 10
4962.4521205443052168
 20
-5.5645447590180623
 30
0.0
 11
4960.8468715199396684
 21
-5.5645447590180623
 31
0.0
  0
ARC
  5
2062C
  8
0
 10
4960.6577973783032576
 20
-5.576612157717121
 30
0.0
 40
0.0006546245501997
 50
149.1841434612607884
 51
240.4642963956212043
  0
ARC
  5
2062D
  8
0
 10
4960.6610852675057686
 20
-5.5723894177259998
 30
0.0
 40
0.0060002085121404
 50
233.0050083488941937
 51
256.5679751014088197
  0
ARC
  5
2062E
  8
0
 10
4960.6843871761611808
 20
-5.4820167736703382
 30
0.0
 40
0.0993277227372989
 50
255.6036289458560873
 51
265.5026202795414747
  0
ARC
  5
2062F
  8
0
 10
4960.7725075411317448
 20
-4.6115193471017468
 30
0.0
 40
0.9742516263167608
 50
264.3504373190954198
 51
268.2015873893686262
  0
ARC
  5
20630
  8
0
 10
4960.6318166264518368
 20
-9.0586755861059913
 30
0.0
 40
3.4751295509189859
 50
86.8868566849484552
 51
88.184173256353489
  0
ARC
  5
20631
  8
0
 10
4960.6590757191415832
 20
-5.5776281376632113
 30
0.0
 40
0.0022833527472617
 50
108.7088576182720061
 51
143.7138085366395899
  0
ARC
  5
20632
  8
0
 10
4960.6682091544953437
 20
-5.600646549256723
 30
0.0
 40
0.0270448391518257
 50
99.941977606875696
 51
111.395013071370002
  0
ARC
  5
20633
  8
0
 10
4960.7076179154182682
 20
-5.8347431548123012
 30
0.0
 40
0.2644348333506201
 50
94.053798616039245
 51
99.5952991576771041
  0
ARC
  5
20634
  8
0
 10
4960.7867712249390024
 20
-6.8190495921873966
 30
0.0
 40
1.251909317887266
 50
92.7638919440725829
 51
94.4827093053887666
  0
ARC
  5
20635
  8
0
 10
4960.8618227421111442
 20
-8.402708854328452
 30
0.0
 40
2.8373457005877021
 50
91.4776940300850043
 51
92.7356145412652069
  0
ARC
  5
20636
  8
0
 10
4960.7629711234612842
 20
-3.755057989044345
 30
0.0
 40
1.811430828720588
 50
270.8123776042959889
 51
272.6547296100756057
  0
ARC
  5
20637
  8
0
 10
4962.4310148320410008
 20
0.3724373321497438
 30
0.0
 40
5.9611118583233758
 50
269.9943235300419815
 51
271.0558492565144775
  0
ARC
  5
20638
  8
0
 10
4962.4936935906198414
 20
-2.5995599294387679
 30
0.0
 40
2.988474685368617
 50
270.9043286144378158
 51
272.9143601486808848
  0
ARC
  5
20639
  8
0
 10
4962.6289280384116864
 20
-5.0898653760272481
 30
0.0
 40
0.4945864198061848
 50
271.9360731696054927
 51
278.1197299686032238
  0
ARC
  5
2063A
  8
0
 10
4962.6967639403201247
 20
-5.558382955708324
 30
0.0
 40
0.0212071251547869
 50
275.4672406033017751
 51
297.4784095753482234
  0
ARC
  5
2063B
  8
0
 10
4962.6724383024466078
 20
-5.7028633349207629
 30
0.0
 40
0.1317555700943993
 50
75.6288173204088139
 51
87.4952177779845783
  0
ARC
  5
2063C
  8
0
 10
4962.584298648688673
 20
-6.694432978923416
 30
0.0
 40
1.127117351556356
 50
85.2212726049939846
 51
87.615863199653873
  0
ARC
  5
2063D
  8
0
 10
4962.4598887767569977
 20
-9.7381028775517802
 30
0.0
 40
4.1733285761731587
 50
87.6475983383915462
 51
89.803803105461995
  0
ARC
  5
2063E
  8
0
 10
4962.47654237318784
 20
-4.4016423295876024
 30
0.0
 40
1.163158839583555
 50
268.7969222223887868
 51
269.883602848228179
  0
ARC
  5
2063F
  8
0
 10
4962.7043654024737407
 20
-5.5782771528119346
 30
0.0
 40
0.0031435362093468
 50
38.1484625605852585
 51
75.7275002022806945
  0
ARC
  5
20640
  8
0
 10
4962.7061671265109908
 20
-5.5765905246832261
 30
0.0
 40
0.0007173022382348
 50
302.1860288390959113
 51
20.8358193577622792
  0
LINE
  5
20641
  8
0
 10
4965.4999705137297497
 20
-5.5886744969180731
 30
0.0
 11
4963.8900897778094077
 21
-5.5886744969180731
 31
0.0
  0
LINE
  5
20642
  8
0
 10
4965.52166681176368
 20
-5.5645447590180623
 30
0.0
 11
4963.9164177874008601
 21
-5.5645447590180623
 31
0.0
  0
ARC
  5
20643
  8
0
 10
4963.7273436457626303
 20
-5.576612157717121
 30
0.0
 40
0.0006546245501997
 50
149.1841434612607884
 51
240.4642963956212043
  0
ARC
  5
20644
  8
0
 10
4963.7306315349669603
 20
-5.5723894177259998
 30
0.0
 40
0.0060002085121404
 50
233.0050083488941937
 51
256.5679751014088197
  0
ARC
  5
20645
  8
0
 10
4963.7539334436196441
 20
-5.4820167736703382
 30
0.0
 40
0.0993277227372989
 50
255.6036289458560873
 51
265.5026202795414747
  0
ARC
  5
20646
  8
0
 10
4963.8420538085920271
 20
-4.6115193471017468
 30
0.0
 40
0.9742516263167608
 50
264.3504373190954198
 51
268.2015873893686262
  0
ARC
  5
20647
  8
0
 10
4963.701362893912119
 20
-9.0586755861059913
 30
0.0
 40
3.4751295509189859
 50
86.8868566849484552
 51
88.184173256353489
  0
ARC
  5
20648
  8
0
 10
4963.7286219866018655
 20
-5.5776281376632113
 30
0.0
 40
0.0022833527472617
 50
108.7088576182720061
 51
143.7138085366395899
  0
ARC
  5
20649
  8
0
 10
4963.7377554219574449
 20
-5.600646549256723
 30
0.0
 40
0.0270448391518257
 50
99.941977606875696
 51
111.395013071370002
  0
ARC
  5
2064A
  8
0
 10
4963.7771641828803695
 20
-5.8347431548123012
 30
0.0
 40
0.2644348333506201
 50
94.053798616039245
 51
99.5952991576771041
  0
ARC
  5
2064B
  8
0
 10
4963.8563174924001942
 20
-6.8190495921873966
 30
0.0
 40
1.251909317887266
 50
92.7638919440725829
 51
94.4827093053887666
  0
ARC
  5
2064C
  8
0
 10
4963.9313690095723359
 20
-8.402708854328452
 30
0.0
 40
2.8373457005877021
 50
91.4776940300850043
 51
92.7356145412652069
  0
ARC
  5
2064D
  8
0
 10
4963.8325173909215664
 20
-3.755057989044345
 30
0.0
 40
1.811430828720588
 50
270.8123776042959889
 51
272.6547296100756057
  0
ARC
  5
2064E
  8
0
 10
4965.500561099503102
 20
0.3724373321497438
 30
0.0
 40
5.9611118583233758
 50
269.9943235300419815
 51
271.0558492565144775
  0
ARC
  5
2064F
  8
0
 10
4965.5632398580810332
 20
-2.5995599294387679
 30
0.0
 40
2.988474685368617
 50
270.9043286144378158
 51
272.9143601486808848
  0
ARC
  5
20650
  8
0
 10
4965.6984743058728782
 20
-5.0898653760272481
 30
0.0
 40
0.4945864198061848
 50
271.9360731696054927
 51
278.1197299686032238
  0
ARC
  5
20651
  8
0
 10
4965.7663102077813164
 20
-5.558382955708324
 30
0.0
 40
0.0212071251547869
 50
275.4672406033017751
 51
297.4784095753482234
  0
ARC
  5
20652
  8
0
 10
4965.7419845699059806
 20
-5.7028633349207629
 30
0.0
 40
0.1317555700943993
 50
75.6288173204088139
 51
87.4952177779845783
  0
ARC
  5
20653
  8
0
 10
4965.6538449161498647
 20
-6.694432978923416
 30
0.0
 40
1.127117351556356
 50
85.2212726049939846
 51
87.615863199653873
  0
ARC
  5
20654
  8
0
 10
4965.5294350442172799
 20
-9.7381028775517802
 30
0.0
 40
4.1733285761731587
 50
87.6475983383915462
 51
89.803803105461995
  0
ARC
  5
20655
  8
0
 10
4965.5460886406499412
 20
-4.4016423295876024
 30
0.0
 40
1.163158839583555
 50
268.7969222223887868
 51
269.883602848228179
  0
ARC
  5
20656
  8
0
 10
4965.7739116699358419
 20
-5.5782771528119346
 30
0.0
 40
0.0031435362093468
 50
38.1484625605852585
 51
75.7275002022806945
  0
ARC
  5
20657
  8
0
 10
4965.775713393973092
 20
-5.5765905246832261
 30
0.0
 40
0.0007173022382348
 50
302.1860288390959113
 51
20.8358193577622792
  0
ARC
  5
20658
  8
0
 10
4963.2106282396753159
 20
-8.7159688353114433
 30
0.0
 40
3.1392974572654202
 50
89.8756071737235516
 51
93.297965050980423
  0
ARC
  5
20659
  8
0
 10
4963.0233317898746463
 20
-5.5553523107110863
 30
0.0
 40
0.0336377735405931
 50
247.0264927641044039
 51
268.2611254213060192
  0
ARC
  5
2065A
  8
0
 10
4963.0107354743277028
 20
-5.5858110157729888
 30
0.0
 40
0.000738231511639
 50
163.332272709473898
 51
223.8151444203728033
  0
ARC
  5
2065B
  8
0
 10
4963.0119376793018091
 20
-5.5869201246816109
 30
0.0
 40
0.0023217501756369
 50
99.4702965840206019
 51
145.3262795760967947
  0
ARC
  5
2065C
  8
0
 10
4963.0288723235389625
 20
-5.6494510567654137
 30
0.0
 40
0.0670942151805853
 50
95.4091579329793262
 51
104.9570339581047023
  0
ARC
  5
2065D
  8
0
 10
4963.0569622491129849
 20
-5.8745543242813341
 30
0.0
 40
0.2939204449453203
 50
95.2576549805800283
 51
96.7241054358267576
  0
ARC
  5
2065E
  8
0
 10
4963.0294553249023011
 20
-5.5828790840907772
 30
0.0
 40
0.0093912516759705
 50
220.4709615358057988
 51
267.57006161679152
  0
ARC
  5
2065F
  8
0
 10
4963.0293920271578827
 20
-5.5837075215565468
 30
0.0
 40
0.0088250777503159
 50
174.5405458056629016
 51
216.6432101206004006
  0
ARC
  5
20660
  8
0
 10
4963.1894758183361773
 20
-1.3415077231288559
 30
0.0
 40
4.2537801006629676
 50
267.8387476427047886
 51
270.3767147697598148
  0
ARC
  5
20661
  8
0
 10
4963.2436704835618002
 20
-3.9582425204223308
 30
0.0
 40
1.6345538723392421
 50
267.8252474283954143
 51
269.0809917948849943
  0
ARC
  5
20662
  8
0
 10
4962.7954704554140335
 20
29.9483153138192613
 30
0.0
 40
35.5420323874433777
 50
270.6225448329324195
 51
270.6802771936095837
  0
ARC
  5
20663
  8
0
 10
4963.2242773348207265
 20
-8.7160173937896133
 30
0.0
 40
3.139346054480761
 50
86.7020481930850053
 51
90.1247170818733139
  0
ARC
  5
20664
  8
0
 10
4963.4115758558818925
 20
-5.5553523107110863
 30
0.0
 40
0.0336377735405931
 50
271.7388745786417985
 51
292.9735072358956245
  0
ARC
  5
20665
  8
0
 10
4963.424172171428836
 20
-5.5858110157729888
 30
0.0
 40
0.000738231511639
 50
316.1848555796271967
 51
16.6677272905260416
  0
ARC
  5
20666
  8
0
 10
4963.4229699664547297
 20
-5.5869201246816109
 30
0.0
 40
0.0023217501756369
 50
34.6737204239031769
 51
80.5297034159793839
  0
ARC
  5
20667
  8
0
 10
4963.4060353222175763
 20
-5.6494510567654137
 30
0.0
 40
0.0670942151805853
 50
75.0429660418953119
 51
84.590842067020688
  0
ARC
  5
20668
  8
0
 10
4963.377945396645373
 20
-5.8745543242813341
 30
0.0
 40
0.2939204449453203
 50
83.2758945641732566
 51
84.7423450194199575
  0
ARC
  5
20669
  8
0
 10
4963.4054523208560568
 20
-5.5828790840907772
 30
0.0
 40
0.0093912516759705
 50
272.4299383832084231
 51
319.5290384641941728
  0
ARC
  5
2066A
  8
0
 10
4963.4055156185995656
 20
-5.5837075215565468
 30
0.0
 40
0.0088250777503159
 50
323.3567898793995141
 51
5.4594541943370549
  0
ARC
  5
2066B
  8
0
 10
4963.2454247035575463
 20
-1.341240438821429
 30
0.0
 40
4.2540474634936807
 50
269.6231362438300039
 51
272.161212476498406
  0
ARC
  5
2066C
  8
0
 10
4963.1912371621947386
 20
-3.9582425204223881
 30
0.0
 40
1.6345538723391799
 50
270.9190082051151194
 51
272.1747525716045857
  0
ARC
  5
2066D
  8
0
 10
4963.6394371903452338
 20
29.9483153138192613
 30
0.0
 40
35.5420323874433777
 50
269.3197228063904163
 51
269.3774551670675237
  0
LINE
  5
2066E
  8
0
 10
4968.4259588867862476
 20
-5.1196360060180686
 30
0.0
 11
4968.6285265276719656
 21
-5.1196360060180686
 31
0.0
  0
ARC
  5
2066F
  8
0
 10
4968.4259608710026441
 20
-5.139321045376775
 30
0.0
 40
0.0196850394587289
 50
90.0057765201507181
 51
178.9999986918874129
  0
ARC
  5
20670
  8
0
 10
4989.5463612807998288
 20
-5.606777853206367
 30
0.0
 40
21.1452577004066704
 50
178.7323316883739892
 51
179.2676683139171985
  0
ARC
  5
20671
  8
0
 10
4968.6285245435146862
 20
-5.1393210452819602
 30
0.0
 40
0.0196850393638831
 50
1.0000673472302279
 51
89.994224860509263
  0
ARC
  5
20672
  8
0
 10
4981.634793814087061
 20
-5.707516008141325
 30
0.0
 40
12.9949964154601396
 50
177.9386585190399899
 51
179.4570064066680004
  0
ARC
  5
20673
  8
0
 10
4968.6207689276534438
 20
-5.5824195718458176
 30
0.0
 40
0.0197081805013049
 50
270.0317663920241102
 51
354.3381290865243045
  0
LINE
  5
20674
  8
0
 10
4968.5127294133790201
 20
-5.1196360060180686
 30
0.0
 11
4968.5127294133790201
 21
-3.3713917121192898
 31
0.0
  0
LINE
  5
20675
  8
0
 10
4968.4576113031789646
 20
-5.1196360060180686
 30
0.0
 11
4968.4576113031789646
 21
-3.4039074710710651
 31
0.0
  0
ARC
  5
20676
  8
0
 10
4968.4812253790805698
 20
-3.3714080782437881
 30
0.0
 40
0.0315040385496956
 50
0.0297647544561951
 51
89.4993446239928545
  0
ARC
  5
20677
  8
0
 10
4968.4339902301871916
 20
-3.4040748451417211
 30
0.0
 40
0.0236216659737211
 50
0.4059793286717484
 51
90.0083371164645456
  0
ARC
  5
20678
  8
0
 10
4968.3831487542101968
 20
-5.3361714371393836
 30
0.0
 40
0.0196850438020645
 50
269.970989107882815
 51
358.9999534742692049
  0
ARC
  5
20679
  8
0
 10
4968.6216512064320341
 20
-5.5335855161272738
 30
0.0
 40
0.0196775756278805
 50
269.9964833192721017
 51
348.1280263899881788
  0
ARC
  5
2067A
  8
0
 10
4968.513151012210983
 20
-5.029731128166631
 30
0.0
 40
0.0081159907362134
 50
267.022333854189128
 51
316.9596964803095034
  0
ARC
  5
2067B
  8
0
 10
4968.5132842767789043
 20
-5.0299436681180927
 30
0.0
 40
0.0078737931999995
 50
317.4282174291490151
 51
359.7462800406013912
  0
LINE
  5
2067C
  8
0
 10
4968.5211579927790808
 20
-5.0137562128356157
 30
0.0
 11
4968.5211579927790808
 21
-5.0299785351183877
 31
0.0
  0
ARC
  5
2067D
  8
0
 10
4968.5126555094129799
 20
-5.0155939010017363
 30
0.0
 40
0.0093707659225109
 50
54.9415768380942424
 51
89.5481234656732425
  0
ARC
  5
2067E
  8
0
 10
4968.5132326112434384
 20
-5.0142444177165402
 30
0.0
 40
0.0079404040510061
 50
3.5249758822507542
 51
52.7563979208659504
  0
ARC
  5
2067F
  8
0
 10
4968.513151012210983
 20
-4.6292192633666067
 30
0.0
 40
0.0081159907362134
 50
267.022333854189128
 51
316.9596964803095034
  0
ARC
  5
20680
  8
0
 10
4968.5132842767789043
 20
-4.6294318033180701
 30
0.0
 40
0.0078737931999995
 50
317.4282174291490151
 51
359.7462800406013912
  0
LINE
  5
20681
  8
0
 10
4968.5211579927790808
 20
-4.6132443480355931
 30
0.0
 11
4968.5211579927790808
 21
-4.6294666703183651
 31
0.0
  0
ARC
  5
20682
  8
0
 10
4968.5126555094129799
 20
-4.615082036201712
 30
0.0
 40
0.0093707659225109
 50
54.9415768380942424
 51
89.5481234656732425
  0
ARC
  5
20683
  8
0
 10
4968.5132326112434384
 20
-4.6137325529165158
 30
0.0
 40
0.0079404040510061
 50
3.5249758822507542
 51
52.7563979208659504
  0
LINE
  5
20684
  8
0
 10
4982.2575322606808186
 20
-2.404969465168036
 30
0.0
 11
4976.1773747583611112
 21
-2.4049694651680928
 31
0.0
  0
LINE
  5
20685
  8
0
 10
4984.4987244970197935
 20
-5.8572607829779448
 30
0.0
 11
4985.3183887319273708
 21
-5.8572607829779448
 31
0.0
  0
LINE
  5
20686
  8
0
 10
4973.9361825220221363
 20
-5.8572607829779448
 30
0.0
 11
4973.1165182871136494
 21
-5.8572607829779448
 31
0.0
  0
LINE
  5
20687
  8
0
 10
4980.9149632968028527
 20
-4.2209941948255363
 30
0.0
 11
4977.5199437222354391
 21
-4.2209941948254794
 31
0.0
  0
LINE
  5
20688
  8
0
 10
4971.6212396710070607
 20
-4.6884565866406973
 30
0.0
 11
4971.6212396710070607
 21
-4.771503845017306
 31
0.0
  0
LINE
  5
20689
  8
0
 10
4986.8136673480348691
 20
-4.7715038449672269
 30
0.0
 11
4986.8136673480348691
 21
-4.8028293740629087
 31
0.0
  0
LINE
  5
2068A
  8
0
 10
4968.6482065843465534
 20
-5.1389774708393778
 30
0.0
 11
4968.6482065843465534
 21
-5.2400933276818327
 31
0.0
  0
LINE
  5
2068B
  8
0
 10
4958.0089288156550538
 20
-5.1196360060180686
 30
0.0
 11
4957.8063611747702453
 21
-5.1196360060180686
 31
0.0
  0
ARC
  5
2068C
  8
0
 10
4958.0089268314386572
 20
-5.139321045376775
 30
0.0
 40
0.0196850394587289
 50
1.000001308112612
 51
89.9942234798492819
  0
ARC
  5
2068D
  8
0
 10
4936.8885264216432915
 20
-5.606777853206367
 30
0.0
 40
21.1452577004066704
 50
0.7323316860827793
 51
1.2676683116259599
  0
ARC
  5
2068E
  8
0
 10
4957.8063631589266151
 20
-5.1393210452819602
 30
0.0
 40
0.0196850393638831
 50
90.005775139490737
 51
178.9999326527693881
  0
ARC
  5
2068F
  8
0
 10
4944.8000938883560593
 20
-5.707516008141325
 30
0.0
 40
12.9949964154601396
 50
0.5429935933319944
 51
2.0613414809599302
  0
ARC
  5
20690
  8
0
 10
4957.814118774788767
 20
-5.5824195718458176
 30
0.0
 40
0.0197081805013049
 50
185.6618709134756955
 51
269.9682336079758898
  0
LINE
  5
20691
  8
0
 10
4957.9221582890631908
 20
-5.1196360060180686
 30
0.0
 11
4957.9221582890631908
 21
-3.3713917121192898
 31
0.0
  0
LINE
  5
20692
  8
0
 10
4957.9772763992632463
 20
-5.1196360060180686
 30
0.0
 11
4957.9772763992632463
 21
-3.4039074710710651
 31
0.0
  0
ARC
  5
20693
  8
0
 10
4957.953662323361641
 20
-3.3714080782437881
 30
0.0
 40
0.0315040385496956
 50
90.5006553760071455
 51
179.9702352455437904
  0
ARC
  5
20694
  8
0
 10
4958.0008974722550192
 20
-3.4040748451417211
 30
0.0
 40
0.0236216659737211
 50
89.9916628835354544
 51
179.5940206713281952
  0
ARC
  5
20695
  8
0
 10
4958.0517389482338331
 20
-5.3361714371393836
 30
0.0
 40
0.0196850438020645
 50
181.0000465257307098
 51
270.029010892117185
  0
ARC
  5
20696
  8
0
 10
4957.8132364960110863
 20
-5.5335855161272738
 30
0.0
 40
0.0196775756278805
 50
191.8719736100113948
 51
270.0035166807277847
  0
LINE
  5
20697
  8
0
 10
4957.7866811180938384
 20
-5.1389774708393778
 30
0.0
 11
4957.7866811180938384
 21
-5.2400933276818327
 31
0.0
  0
LINE
  5
20698
  8
0
 10
4986.2062029852013438
 20
-5.9384807023202342
 30
0.0
 11
4980.0639373372569025
 21
-5.9384807023202342
 31
0.0
  0
LINE
  5
20699
  8
0
 10
4978.3709696817841177
 20
-5.9384807023202342
 30
0.0
 11
4972.2287040338405859
 21
-5.9384807023202342
 31
0.0
  0
LINE
  5
2069A
  8
0
 10
4978.3512794563403077
 20
-6.7658684006560597
 30
0.0
 11
4978.3709604689711341
 21
-6.780413519295549
 31
0.0
  0
LINE
  5
2069B
  8
0
 10
4980.0639471779832093
 20
-6.780413518423912
 30
0.0
 11
4980.0836281911160768
 21
-6.765868399412553
 31
0.0
  0
LINE
  5
2069C
  8
0
 10
4968.4815006605340386
 20
-3.3399052424180549
 30
0.0
 11
4957.9533870419072628
 21
-3.3399052424180549
 31
0.0
  0
LINE
  5
2069D
  8
0
 10
4968.4815006605340386
 20
-3.3399052424180549
 30
0.0
 11
4957.9533870419072628
 21
-3.3399052424180549
 31
0.0
  0
LINE
  5
2069E
  8
0
 10
4968.6207798544219258
 20
-5.6021277493180568
 30
0.0
 11
4957.814107848020285
 21
-5.6021277493180568
 31
0.0
  0
LINE
  5
2069F
  8
0
 10
4981.8293732891188483
 20
-4.9935982355470818
 30
0.0
 11
4976.605533729909439
 21
-4.9935982355468553
 31
0.0
  0
LINE
  5
206A0
  8
0
 10
4971.9062779232899629
 20
-5.6038421005602714
 30
0.0
 11
4972.964851167699635
 21
-5.6038421005602714
 31
0.0
  0
LINE
  5
206A1
  8
0
 10
4985.4700558513413853
 20
-5.6038421005602714
 30
0.0
 11
4986.5286290957519668
 21
-5.6038421005602714
 31
0.0
  0
ENDSEC
  0
EOF
