  0
SECTION
  2
HEADER
  9
$ACADVER
  1
AC1009
  9
$INSBASE
 10
5024.961937325969302
 20
-9.7568926386037163
 30
0.0
  9
$EXTMIN
 10
5003.469576515177323
 20
-30.2055167408647804
 30
-0.0000000000112498
  9
$EXTMAX
 10
5032.6519327058140334
 20
-9.7502111890014334
 30
0.0000000000002956
  9
$LIMMIN
 10
0.0
 20
0.0
  9
$LIMMAX
 10
11.6929133858000007
 20
8.2677165353999982
  9
$ORTHOMODE
 70
     0
  9
$REGENMODE
 70
     1
  9
$FILLMODE
 70
     1
  9
$QTEXTMODE
 70
     0
  9
$MIRRTEXT
 70
     0
  9
$DRAGMODE
 70
     2
  9
$LTSCALE
 40
0.6431102362
  9
$OSMODE
 70
  4095
  9
$ATTMODE
 70
     1
  9
$TEXTSIZE
 40
0.2
  9
$TRACEWID
 40
0.05
  9
$TEXTSTYLE
  7
STANDARD
  9
$CLAYER
  8
0
  9
$CELTYPE
  6
BYLAYER
  9
$CECOLOR
 62
   256
  9
$DIMSCALE
 40
1.0
  9
$DIMASZ
 40
0.1875
  9
$DIMEXO
 40
0.0625
  9
$DIMDLI
 40
0.4443307087
  9
$DIMRND
 40
0.0
  9
$DIMDLE
 40
0.0
  9
$DIMEXE
 40
0.125
  9
$DIMTP
 40
0.01
  9
$DIMTM
 40
0.01
  9
$DIMTXT
 40
2.0
  9
$DIMCEN
 40
0.1052362205
  9
$DIMTSZ
 40
0.0
  9
$DIMTOL
 70
     1
  9
$DIMLIM
 70
     0
  9
$DIMTIH
 70
     1
  9
$DIMTOH
 70
     1
  9
$DIMSE1
 70
     0
  9
$DIMSE2
 70
     0
  9
$DIMTAD
 70
     0
  9
$DIMZIN
 70
     0
  9
$DIMBLK
  1

  9
$DIMASO
 70
     1
  9
$DIMSHO
 70
     1
  9
$DIMPOST
  1
\X
  9
$DIMAPOST
  1

  9
$DIMALT
 70
     1
  9
$DIMALTD
 70
     2
  9
$DIMALTF
 40
25.3999999999999986
  9
$DIMLFAC
 40
1.0
  9
$DIMTOFL
 70
     0
  9
$DIMTVP
 40
0.0
  9
$DIMTIX
 70
     0
  9
$DIMSOXD
 70
     0
  9
$DIMSAH
 70
     0
  9
$DIMBLK1
  1

  9
$DIMBLK2
  1

  9
$DIMSTYLE
  2
STANDARD
  9
$DIMCLRD
 70
     0
  9
$DIMCLRE
 70
     0
  9
$DIMCLRT
 70
     0
  9
$DIMTFAC
 40
1.0
  9
$DIMGAP
 40
0.09
  9
$LUNITS
 70
     2
  9
$LUPREC
 70
     4
  9
$SKETCHINC
 40
0.1
  9
$FILLETRAD
 40
0.0
  9
$AUNITS
 70
     0
  9
$AUPREC
 70
     0
  9
$MENU
  1
.
  9
$ELEVATION
 40
0.0
  9
$PELEVATION
 40
0.0
  9
$THICKNESS
 40
0.0
  9
$LIMCHECK
 70
     0
  9
$BLIPMODE
 70
     0
  9
$CHAMFERA
 40
0.0
  9
$CHAMFERB
 40
0.0
  9
$SKPOLY
 70
     0
  9
$TDCREATE
 40
2458060.468368056230247
  9
$TDUPDATE
 40
2460028.6273263888433576
  9
$TDINDWG
 40
0.5236991898
  9
$TDUSRTIMER
 40
0.5236991898
  9
$USRTIMER
 70
     1
  9
$ANGBASE
 50
0.0
  9
$ANGDIR
 70
     0
  9
$PDMODE
 70
     0
  9
$PDSIZE
 40
0.3125
  9
$PLINEWID
 40
0.0
  9
$COORDS
 70
     1
  9
$SPLFRAME
 70
     0
  9
$SPLINETYPE
 70
     6
  9
$SPLINESEGS
 70
     8
  9
$ATTDIA
 70
     1
  9
$ATTREQ
 70
     1
  9
$HANDLING
 70
     1
  9
$HANDSEED
  5
1FE68
  9
$SURFTAB1
 70
     6
  9
$SURFTAB2
 70
     6
  9
$SURFTYPE
 70
     6
  9
$SURFU
 70
     6
  9
$SURFV
 70
     6
  9
$UCSNAME
  2

  9
$UCSORG
 10
0.0
 20
0.0
 30
0.0
  9
$UCSXDIR
 10
1.0
 20
0.0
 30
0.0
  9
$UCSYDIR
 10
0.0
 20
1.0
 30
0.0
  9
$PUCSNAME
  2

  9
$PUCSORG
 10
0.0
 20
0.0
 30
0.0
  9
$PUCSXDIR
 10
1.0
 20
0.0
 30
0.0
  9
$PUCSYDIR
 10
0.0
 20
1.0
 30
0.0
  9
$USERI1
 70
     0
  9
$USERI2
 70
     0
  9
$USERI3
 70
     0
  9
$USERI4
 70
     0
  9
$USERI5
 70
     0
  9
$USERR1
 40
0.0
  9
$USERR2
 40
0.0
  9
$USERR3
 40
0.0
  9
$USERR4
 40
0.0
  9
$USERR5
 40
0.0
  9
$WORLDVIEW
 70
     1
  9
$SHADEDGE
 70
     3
  9
$SHADEDIF
 70
    70
  9
$TILEMODE
 70
     1
  9
$MAXACTVP
 70
    64
  9
$PLIMCHECK
 70
     0
  9
$PEXTMIN
 10
1.0000000000000000E+20
 20
1.0000000000000000E+20
 30
1.0000000000000000E+20
  9
$PEXTMAX
 10
-1.0000000000000000E+20
 20
-1.0000000000000000E+20
 30
-1.0000000000000000E+20
  9
$PLIMMIN
 10
0.0
 20
0.0
  9
$PLIMMAX
 10
12.0
 20
9.0
  9
$UNITMODE
 70
     0
  9
$VISRETAIN
 70
     1
  9
$PLINEGEN
 70
     0
  9
$PSLTSCALE
 70
     1
  0
ENDSEC
  0
SECTION
  2
TABLES
  0
TABLE
  2
VPORT
 70
     1
  0
VPORT
  2
*ACTIVE
 70
     0
 10
0.0
 20
0.0
 11
1.0
 21
1.0
 12
1225.7028444542449961
 22
-140.1585203980386041
 13
0.0
 23
0.0
 14
1.0
 24
1.0
 15
0.0
 25
0.0
 16
0.0
 26
0.0
 36
5.1040778033513332
 17
3792.35791015625
 27
120.1806564331053977
 37
0.0
 40
20.6398646996996717
 41
2.8493975903614448
 42
50.0
 43
0.0
 44
0.0
 50
0.0
 51
0.0
 71
     0
 72
   100
 73
     1
 74
     1
 75
     0
 76
     0
 77
     0
 78
     0
  0
ENDTAB
  0
TABLE
  2
LTYPE
 70
     2
  0
LTYPE
  2
CONTINUOUS
 70
     0
  3
Solid line
 72
    65
 73
     0
 40
0.0
  0
LTYPE
  2
PHANTOM2
 70
     0
  3
___ _ _ ___ _ _ ___ _ _ ___ _ _
 72
    65
 73
     6
 40
1.25
 49
0.625
 49
-0.125
 49
0.125
 49
-0.125
 49
0.125
 49
-0.125
  0
ENDTAB
  0
TABLE
  2
LAYER
 70
     2
  0
LAYER
  2
0
 70
     0
 62
   255
  6
CONTINUOUS
  0
LAYER
  2
DEFPOINTS
 70
     0
 62
     7
  6
CONTINUOUS
  0
ENDTAB
  0
TABLE
  2
STYLE
 70
     1
  0
STYLE
  2
STANDARD
 70
     0
 40
0.0
 41
0.8
 50
0.0
 71
     0
 42
0.2
  3
txt
  4

  0
ENDTAB
  0
TABLE
  2
VIEW
 70
     0
  0
ENDTAB
  0
TABLE
  2
UCS
 70
     0
  0
ENDTAB
  0
TABLE
  2
APPID
 70
     9
  0
APPID
  2
ACAD
 70
     0
  0
APPID
  2
ACAD_MLEADERVER
 70
     0
  0
APPID
  2
ACAD_EXEMPT_FROM_CAD_STANDARDS
 70
     0
  0
APPID
  2
ACAD_NAV_VCDISPLAY
 70
     0
  0
APPID
  2
ACAECLAYERSTANDARD
 70
     0
  0
APPID
  2
ACCMTRANSPARENCY
 70
     0
  0
APPID
  2
ACAD_DSTYLE_DIMJAG
 70
     0
  0
APPID
  2
ACAD_DSTYLE_DIMTALN
 70
     0
  0
APPID
  2
ACDBATTR
 70
     0
  0
ENDTAB
  0
TABLE
  2
DIMSTYLE
 70
     1
  0
DIMSTYLE
  2
STANDARD
 70
     0
  3

  4

  5

  6

  7

 40
1.0
 41
0.1875
 42
0.0625
 43
0.38
 44
0.125
 45
0.0
 46
0.0
 47
0.01
 48
0.01
140
0.15625
141
0.09
142
0.0
143
25.3999999999999986
144
1.0
145
0.0
146
1.0
147
0.09
 71
     1
 72
     0
 73
     1
 74
     1
 75
     0
 76
     0
 77
     0
 78
     4
170
     0
171
     2
172
     0
173
     0
174
     0
175
     0
176
     0
177
     0
178
     0
  0
ENDTAB
  0
ENDSEC
  0
SECTION
  2
BLOCKS
  0
BLOCK
  8
0
  2
$MODEL_SPACE
 70
     0
 10
0.0
 20
0.0
 30
0.0
  3
$MODEL_SPACE
  1

  0
ENDBLK
  5
21
  8
0
  0
BLOCK
 67
     1
  8
0
  2
$PAPER_SPACE
 70
     0
 10
0.0
 20
0.0
 30
0.0
  3
$PAPER_SPACE
  1

  0
ENDBLK
  5
1D
 67
     1
  8
0
  0
BLOCK
  8
0
  2
_FILLED
 70
     0
 10
0.0
 20
0.0
 30
0.0
  3
_FILLED
  1

  0
SOLID
  5
1CA7B
  8
0
  6
BYBLOCK
 62
     0
 10
0.0
 20
0.0
 30
0.0
 11
-1.0
 21
0.1666666667
 31
0.0
 12
-1.0
 22
-0.1666666667
 32
0.0
 13
-1.0
 23
-0.1666666667
 33
0.0
  0
ENDBLK
  5
1CA7C
  8
0
  6
BYBLOCK
 62
     0
  0
ENDSEC
  0
SECTION
  2
ENTITIES
  0
ATTDEF
  5
3930
  8
DEFPOINTS
 10
5024.9528975519324376
 20
-9.7522976891895592
 30
0.0
 40
0.001
  1
K-28362T
  3

  2
MODELNUMBER
 70
     0
1001
ACDBATTR
1070
     0
1070
     1
  0
ATTDEF
  5
3931
  8
DEFPOINTS
 10
5024.9528975519324376
 20
-9.7539643558562261
 30
0.0
 40
0.001
  1
C3
  3

  2
TRADENAME
 70
     0
1001
ACDBATTR
1070
     0
1070
     1
  0
ATTDEF
  5
3932
  8
DEFPOINTS
 10
5024.9528975519324376
 20
-9.7556310225228913
 30
0.0
 40
0.001
  1
TOILET SEAT
  3

  2
PRODUCT
 70
     0
1001
ACDBATTR
1070
     0
1070
     1
  0
ARC
  5
1F82F
  8
0
 10
5018.6520347630466858
 20
-11.1673016517974304
 30
0.0
 40
1.2866542383694679
 50
98.1062913469670548
 51
178.6770609275494053
  0
LINE
  5
1F830
  8
0
 10
5018.4706037256346463
 20
-9.8935034308152296
 30
0.0
 11
5018.525765917958779
 21
-9.8754794534554264
 31
0.0
  0
LINE
  5
1F831
  8
0
 10
5018.525765917958779
 20
-9.8754794534554264
 30
0.0
 11
5018.525765917958779
 21
-9.8833835163554511
 31
0.0
  0
ARC
  5
1F832
  8
0
 10
5018.5260311316333173
 20
-9.8833639790182986
 30
0.0
 40
0.000265932323305
 50
184.2131636761239122
 51
244.3995415651565111
  0
ARC
  5
1F833
  8
0
 10
5018.5265535741991698
 20
-9.8822396760568552
 30
0.0
 40
0.0015056764416027
 50
244.9570107046669989
 51
265.0538535957711019
  0
ARC
  5
1F834
  8
0
 10
5018.5269840874161673
 20
-9.8639501254747017
 30
0.0
 40
0.019797551296922
 50
268.3781363949423167
 51
280.3740616580168989
  0
ARC
  5
1F835
  8
0
 10
5018.5017205584181283
 20
-9.7034272445790464
 30
0.0
 40
0.1822907967275371
 50
279.0992966122860253
 51
282.0906371849513903
  0
ARC
  5
1F836
  8
0
 10
5020.4671078171613772
 20
-18.3157146709497383
 30
0.0
 40
8.6514249871269158
 50
102.3258469517063958
 51
102.8712841558799056
  0
ARC
  5
1F837
  8
0
 10
5019.2095758379973631
 20
-12.7138360389560301
 30
0.0
 40
2.9104101710717418
 50
97.1331231417905343
 51
101.6819717264036029
  0
ARC
  5
1F838
  8
0
 10
5018.7866996137518072
 20
-9.3609480780620231
 30
0.0
 40
0.4690495257341216
 50
277.5310999774775951
 51
280.7677557711883765
  0
ARC
  5
1F839
  8
0
 10
5018.8714895254679504
 20
-9.8020710932426862
 30
0.0
 40
0.0198720035169316
 50
278.2220754057850058
 51
294.3501570334217945
  0
ARC
  5
1F83A
  8
0
 10
5018.8793138945466126
 20
-9.8193750033786671
 30
0.0
 40
0.0008813434626741
 50
294.7581880118411846
 51
329.5067917321003961
  0
ARC
  5
1F83B
  8
0
 10
5018.879849706708228
 20
-9.8197175211040246
 30
0.0
 40
0.0002469312624849
 50
334.9103065747286792
 51
359.4515737433179083
  0
LINE
  5
1F83C
  8
0
 10
5018.8800966266589967
 20
-9.8121362910554524
 30
0.0
 11
5018.8800966266589967
 21
-9.8197198846554272
 31
0.0
  0
ARC
  5
1F83D
  8
0
 10
5023.4432907995578717
 20
-216.086953727227808
 30
0.0
 40
206.3252845615045032
 50
90.5456184410476226
 51
91.2672857176349623
  0
ARC
  5
1F83E
  8
0
 10
5021.3487216446628736
 20
-9.7720555112803993
 30
0.0
 40
0.1298006338873153
 50
359.8482778633281782
 51
0.4551768959193621
  0
ARC
  5
1F83F
  8
0
 10
5021.4786514723573418
 20
-9.7723804330031783
 30
0.0
 40
0.0001310047777923
 50
188.2504722088540916
 51
238.3465658721586919
  0
ARC
  5
1F840
  8
0
 10
5021.4797809312931349
 20
-9.7700743707531785
 30
0.0
 40
0.0026982192683673
 50
243.6359244254375938
 51
262.40030232932628
  0
ARC
  5
1F841
  8
0
 10
5025.7189584573998218
 20
-549.0142233820854472
 30
0.0
 40
539.2581399148180026
 50
90.0992566412580373
 51
90.4504520390279794
  0
ARC
  5
1F842
  8
0
 10
5024.9037158856453971
 20
-357.8803393886666981
 30
0.0
 40
348.0341139119112768
 50
89.9904151843205824
 51
90.9504312383206042
  0
ARC
  5
1F843
  8
0
 10
5019.2044445548290241
 20
-15.8369066351193304
 30
0.0
 40
5.9432630666067734
 50
90.7106559713739671
 51
92.269598285110547
  0
ARC
  5
1F844
  8
0
 10
5018.8289351831072054
 20
-12.4335979420398193
 30
0.0
 40
2.5652449316522579
 50
91.0088976956599538
 51
98.0297366981429832
  0
ARC
  5
1F845
  8
0
 10
5024.9684363192209275
 20
-24.7754422687923785
 30
0.0
 40
5.4277692606296828
 50
255.0577544530875116
 51
269.9313963148147764
  0
ARC
  5
1F846
  8
0
 10
5025.1768515042940635
 20
-24.4612511623136903
 30
0.0
 40
5.786327072013739
 50
231.2140938537575039
 51
253.8659203297416127
  0
ARC
  5
1F847
  8
0
 10
5027.7489670920776916
 20
-21.5613714333398185
 30
0.0
 40
9.6598025100685643
 50
201.986477261502813
 51
230.096412108245886
  0
ARC
  5
1F848
  8
0
 10
5035.03048929436045
 20
-18.3041476987617884
 30
0.0
 40
17.6336753271125097
 50
183.7014202331253898
 51
202.942509991879291
  0
ARC
  5
1F849
  8
0
 10
5040.7986252511645944
 20
-17.659767739741401
 30
0.0
 40
23.4329415153415113
 50
180.1055362759593947
 51
184.3632293487914069
  0
ARC
  5
1F84A
  8
0
 10
5018.8209566609139074
 20
-9.9075121332557217
 30
0.0
 40
0.0395531895602818
 50
4.0395398791644483
 51
91.0746589502927435
  0
LINE
  5
1F84B
  8
0
 10
5018.7837671797997245
 20
-9.8687506930120605
 30
0.0
 11
5018.8202148314594524
 21
-9.8679659009010532
 31
0.0
  0
LINE
  5
1F84C
  8
0
 10
5018.8800966266589967
 20
-10.8550350348554296
 30
0.0
 11
5018.9115926895592565
 21
-10.8550350348554296
 31
0.0
  0
LINE
  5
1F84D
  8
0
 10
5018.9115926895592565
 20
-10.8550350348554296
 30
0.0
 11
5018.9115926895592565
 21
-10.4402130199553902
 31
0.0
  0
LINE
  5
1F84E
  8
0
 10
5018.9115926895592565
 20
-10.4402130199553902
 30
0.0
 11
5018.8800966266589967
 21
-10.4402130199553902
 31
0.0
  0
LINE
  5
1F84F
  8
0
 10
5018.8604115874459239
 20
-9.9047258136780272
 30
0.0
 11
5018.8604833058088843
 21
-12.0988934619054191
 31
0.0
  0
ARC
  5
1F850
  8
0
 10
5018.942949283253256
 20
-10.4841939456501603
 30
0.0
 40
0.0540144220841081
 50
125.4873091735505994
 51
160.902475550495609
  0
ARC
  5
1F851
  8
0
 10
5018.8830493825589656
 20
2158.322645164098958
 30
0.0
 40
2168.7891668313650371
 50
269.9999219931032144
 51
270.0002340207425959
  0
LINE
  5
1F852
  8
0
 10
5018.8919076502588723
 20
-10.4665216652554403
 30
0.0
 11
5018.8919076502588723
 21
-10.8291821080553898
 31
0.0
  0
ARC
  5
1F853
  8
0
 10
5018.9444248922145562
 20
-10.8096150130968702
 30
0.0
 40
0.0560440175916181
 50
200.4345990430086886
 51
234.1384335777323997
  0
LINE
  5
1F854
  8
0
 10
5018.8919076502588723
 20
-10.8287263896554293
 30
0.0
 11
5018.8800966266589967
 21
-10.8287263896554293
 31
0.0
  0
LINE
  5
1F855
  8
0
 10
5018.8919076502588723
 20
-10.8169153659553903
 30
0.0
 11
5018.8800966266589967
 21
-10.8169153659553903
 31
0.0
  0
LINE
  5
1F856
  8
0
 10
5018.8919076502588723
 20
-10.4783326888554296
 30
0.0
 11
5018.8800966266589967
 21
-10.4783326888554296
 31
0.0
  0
ARC
  5
1F857
  8
0
 10
5018.970823623673823
 20
-9.9376388382349035
 30
0.0
 40
0.0393716182096599
 50
92.5356233628702967
 51
179.9628914086680993
  0
ARC
  5
1F858
  8
0
 10
5018.893383140428341
 20
-9.9454473220207831
 30
0.0
 40
0.0388665718981426
 50
359.8854293357647975
 51
11.6282544953967797
  0
ARC
  5
1F859
  8
0
 10
4707.0355585310244351
 20
-11.3672644653248405
 30
0.0
 40
311.8999314914373144
 50
359.8437959816052967
 51
0.2611733522872847
  0
ARC
  5
1F85A
  8
0
 10
5019.0139943548911106
 20
-12.0977464365152798
 30
0.0
 40
0.153515334275049
 50
180.4281026756158042
 51
212.2932737707654951
  0
ARC
  5
1F85B
  8
0
 10
5018.9647136240373584
 20
-12.1285345541792502
 30
0.0
 40
0.0954089537933821
 50
212.4748931118855921
 51
244.9070985218818919
  0
ARC
  5
1F85C
  8
0
 10
5018.9389172473556755
 20
-12.1796427125528606
 30
0.0
 40
0.038221667755163
 50
247.4374481514410888
 51
270.2007837793423164
  0
ARC
  5
1F85D
  8
0
 10
5024.9058993382695917
 20
-181.2359560268849066
 30
0.0
 40
169.1233829487320008
 50
89.9810153971927065
 51
92.021874058479284
  0
ARC
  5
1F85E
  8
0
 10
5024.8890415040787047
 20
-232.4375359418066012
 30
0.0
 40
220.4542861461355869
 50
89.9810544712526053
 51
91.5370833083252649
  0
LINE
  5
1F85F
  8
0
 10
5018.8800966266589967
 20
-11.0475709316554305
 30
0.0
 11
5018.8800966266589967
 21
-10.2476771231554
 31
0.0
  0
ARC
  5
1F860
  8
0
 10
5018.8604115872121838
 20
-10.2476771231744994
 30
0.0
 40
0.019685039446549
 50
0.0000000554159492
 51
89.9692449151520464
  0
ARC
  5
1F861
  8
0
 10
5018.8604115872121838
 20
-11.0475709316363808
 30
0.0
 40
0.0196850394465475
 50
270.1105997278122004
 51
359.9999999445644789
  0
LINE
  5
1F862
  8
0
 10
5018.8800966266589967
 20
-10.9448681219554107
 30
0.0
 11
5018.9275152935579172
 21
-10.9449018779554006
 31
0.0
  0
LINE
  5
1F863
  8
0
 10
5018.9275152935579172
 20
-10.9449018779554006
 30
0.0
 11
5018.9278117443591327
 21
-10.9468350399554009
 31
0.0
  0
LINE
  5
1F864
  8
0
 10
5018.8800966266589967
 20
-10.3503799329554003
 30
0.0
 11
5018.9275154526576443
 21
-10.3503441033554093
 31
0.0
  0
LINE
  5
1F865
  8
0
 10
5018.9275154526576443
 20
-10.3503441033554093
 30
0.0
 11
5018.9278117443591327
 21
-10.3484130149554101
 31
0.0
  0
ARC
  5
1F866
  8
0
 10
5018.9718535634683576
 20
-12.0241690376220394
 30
0.0
 40
0.038082561620227
 50
193.2171871008146127
 51
264.2976670453825818
  0
ARC
  5
1F867
  8
0
 10
5018.9752098920289427
 20
-12.0126711997243891
 30
0.0
 40
0.0499053843604369
 50
261.7741668364994894
 51
270.4334813011485039
  0
ARC
  5
1F868
  8
0
 10
5024.903721213389872
 20
-357.8803393886666981
 30
0.0
 40
348.0341139119112768
 50
89.9904160614396034
 51
90.0000004385595105
  0
ARC
  5
1F869
  8
0
 10
5024.9015377607638584
 20
-181.2359560268849066
 30
0.0
 40
169.1233829487320008
 50
89.9795377777673338
 51
89.9992611903310973
  0
ARC
  5
1F86A
  8
0
 10
5024.9183955949547453
 20
-232.4375359418066012
 30
0.0
 40
220.4542861461355869
 50
89.9886835611972913
 51
90.0038145448653921
  0
ARC
  5
1F86B
  8
0
 10
5013.3883376151306948
 20
-10.7488755579262101
 30
0.0
 40
5.5430101555851872
 50
357.9533403391753268
 51
1.0466529684802921
  0
ARC
  5
1F86C
  8
0
 10
5013.3883376200219573
 20
-10.5463724969081003
 30
0.0
 40
5.5430101506942266
 50
358.9533470308383016
 51
2.0466596618404229
  0
LINE
  5
1F86D
  8
0
 10
5024.7847722850274295
 20
-9.7568926386037163
 30
0.0
 11
5024.7847722850274295
 21
-9.7637685386036708
 31
0.0
  0
ARC
  5
1F86E
  8
0
 10
5024.7857814201179281
 20
-9.7632344438478924
 30
0.0
 40
0.001141757785869
 50
207.8904750555404917
 51
260.2272719575021824
  0
ARC
  5
1F86F
  8
0
 10
5024.7909482114346247
 20
-9.74786778395341
 30
0.0
 40
0.0173411955389466
 50
251.99350467210229
 51
262.7874297762451192
  0
ARC
  5
1F870
  8
0
 10
5024.8028516817903437
 20
-9.6746654036497546
 30
0.0
 40
0.0914963110360321
 50
261.1473807333726995
 51
264.4082647302315081
  0
ARC
  5
1F871
  8
0
 10
5024.8797299111447501
 20
-8.6373753157898534
 30
0.0
 40
1.131607944299023
 50
265.651912083132288
 51
269.1049322953007845
  0
ARC
  5
1F872
  8
0
 10
5024.9486378818892263
 20
-6.0832085447121642
 30
0.0
 40
3.686653550729885
 50
268.6542221700715913
 51
270.2066925079748216
  0
ARC
  5
1F873
  8
0
 10
5024.9619014490272093
 20
-180.1414873181539065
 30
0.0
 40
167.8409569925501899
 50
89.9999877526941532
 51
90.5143594255224286
  0
ARC
  5
1F874
  8
0
 10
5024.9619014490135669
 20
-180.1414873181199141
 30
0.0
 40
167.8409569925161122
 50
90.5143594255224286
 51
91.1622137975004847
  0
ARC
  5
1F875
  8
0
 10
5024.9619533857949136
 20
-180.1435826038461983
 30
0.0
 40
167.8430529006323013
 50
91.1622170156030762
 51
92.1777201325978837
  0
ARC
  5
1F876
  8
0
 10
5018.6339736429918048
 20
-15.0134355829290804
 30
0.0
 40
2.5921651738100362
 50
91.1036489688677591
 51
98.9221814040719352
  0
ARC
  5
1F877
  8
0
 10
5018.3632553971929156
 20
-13.2936516556009892
 30
0.0
 40
0.8512046450603705
 50
98.8739640132895801
 51
133.8822143065337968
  0
ARC
  5
1F878
  8
0
 10
5018.4280624810280642
 20
-13.3175664779158396
 30
0.0
 40
0.9138614406818039
 50
135.771819382068486
 51
163.8856889069936926
  0
ARC
  5
1F879
  8
0
 10
5019.1526122138775463
 20
-13.5306920773749297
 30
0.0
 40
1.6691014973986891
 50
163.7604031650080003
 51
185.5762177669251969
  0
ARC
  5
1F87A
  8
0
 10
5090.6347800788898894
 20
-15.5526043296728407
 30
0.0
 40
73.167009528398367
 50
178.5435248957570025
 51
180.6628967763294895
  0
ARC
  5
1F87B
  8
0
 10
5037.9716834131886571
 20
-17.4717518857259186
 30
0.0
 40
20.5270606148237
 50
177.0046385305504089
 51
183.9249205226325046
  0
ARC
  5
1F87C
  8
0
 10
5038.3328423107377603
 20
-17.9443193988408609
 30
0.0
 40
20.8609272662000187
 50
182.5620035162216084
 51
190.6737013549573874
  0
ARC
  5
1F87D
  8
0
 10
5034.6489225731438637
 20
-18.6342513543984012
 30
0.0
 40
17.1129614262008509
 50
190.6881806248605926
 51
197.0925642185715105
  0
ARC
  5
1F87E
  8
0
 10
5031.1387712746081888
 20
-19.7932729846384916
 30
0.0
 40
13.4174101161162707
 50
196.7674320718830074
 51
209.0025497858723895
  0
ARC
  5
1F87F
  8
0
 10
5028.0004644487707992
 20
-21.5556796396815287
 30
0.0
 40
9.8181724866905302
 50
208.8870376719472119
 51
221.2551288203810032
  0
ARC
  5
1F880
  8
0
 10
5025.5920444340126778
 20
-23.8152528669085406
 30
0.0
 40
6.5185140521814882
 50
220.2832931301786914
 51
248.7181667792060011
  0
ARC
  5
1F881
  8
0
 10
5024.9829793536246143
 20
-25.1557302225286108
 30
0.0
 40
5.049034743729778
 50
249.6373458534224028
 51
263.701877724433416
  0
ARC
  5
1F882
  8
0
 10
5025.1686311469620705
 20
-22.6104022277380388
 30
0.0
 40
7.5999568431412579
 50
264.4158026454928176
 51
266.8392330836413748
  0
ARC
  5
1F883
  8
0
 10
5031.2718398888891898
 20
-11.1673016517974304
 30
0.0
 40
1.2866542383694679
 50
1.322939072450604
 51
81.8937086530329452
  0
LINE
  5
1F884
  8
0
 10
5031.4532709263021388
 20
-9.8935034308152296
 30
0.0
 11
5031.3981087339780061
 21
-9.8754794534554264
 31
0.0
  0
LINE
  5
1F885
  8
0
 10
5031.3981087339780061
 20
-9.8754794534554264
 30
0.0
 11
5031.3981087339780061
 21
-9.8833835163554511
 31
0.0
  0
ARC
  5
1F886
  8
0
 10
5031.3978435203025583
 20
-9.8833639790182986
 30
0.0
 40
0.000265932323305
 50
295.6004584348434037
 51
355.7868363238761162
  0
ARC
  5
1F887
  8
0
 10
5031.3973210777367058
 20
-9.8822396760568552
 30
0.0
 40
0.0015056764416027
 50
274.9461464042288981
 51
295.0429892953329727
  0
ARC
  5
1F888
  8
0
 10
5031.3968905645197083
 20
-9.8639501254747017
 30
0.0
 40
0.019797551296922
 50
259.6259383419831011
 51
271.6218636050056148
  0
ARC
  5
1F889
  8
0
 10
5031.4221540935177472
 20
-9.7034272445790464
 30
0.0
 40
0.1822907967275371
 50
257.9093628150486097
 51
260.9007033877139747
  0
ARC
  5
1F88A
  8
0
 10
5029.4567668347754079
 20
-18.3157146709497383
 30
0.0
 40
8.6514249871269158
 50
77.128715844120066
 51
77.6741530482935616
  0
ARC
  5
1F88B
  8
0
 10
5030.7142988139403315
 20
-12.7138360389560301
 30
0.0
 40
2.9104101710717418
 50
78.3180282735963971
 51
82.8668768582094941
  0
ARC
  5
1F88C
  8
0
 10
5031.1371750381849779
 20
-9.3609480780620231
 30
0.0
 40
0.4690495257341216
 50
259.2322442287584749
 51
262.4689000225225186
  0
ARC
  5
1F88D
  8
0
 10
5031.0523851264688346
 20
-9.8020710932426862
 30
0.0
 40
0.0198720035169316
 50
245.6498429665782908
 51
261.7779245942148805
  0
ARC
  5
1F88E
  8
0
 10
5031.0445607573901725
 20
-9.8193750033786671
 30
0.0
 40
0.0008813434626741
 50
210.4932082678996039
 51
245.241811988158787
  0
ARC
  5
1F88F
  8
0
 10
5031.0440249452276475
 20
-9.8197175211040246
 30
0.0
 40
0.0002469312624849
 50
180.5484262566820917
 51
205.0896934252712924
  0
LINE
  5
1F890
  8
0
 10
5031.0437780252777884
 20
-9.8121362910554524
 30
0.0
 11
5031.0437780252777884
 21
-9.8197198846554272
 31
0.0
  0
ARC
  5
1F891
  8
0
 10
5026.4805838523789134
 20
-216.086953727227808
 30
0.0
 40
206.3252845615045032
 50
88.7327142823650377
 51
89.4543815589523916
  0
ARC
  5
1F892
  8
0
 10
5028.575153007273002
 20
-9.7720555112803993
 30
0.0
 40
0.1298006338873153
 50
179.5448231040805922
 51
180.1517221366717081
  0
ARC
  5
1F893
  8
0
 10
5028.4452231795812622
 20
-9.7723804330031783
 30
0.0
 40
0.0001310047777923
 50
301.6534341278413081
 51
351.7495277911451126
  0
ARC
  5
1F894
  8
0
 10
5028.4440937206436502
 20
-9.7700743707531785
 30
0.0
 40
0.0026982192683673
 50
277.59969767067372
 51
296.3640755745624915
  0
ARC
  5
1F895
  8
0
 10
5024.2049161945360538
 20
-549.0142233820854472
 30
0.0
 40
539.2581399148180026
 50
89.5495479609720348
 51
89.9007433587419484
  0
ARC
  5
1F896
  8
0
 10
5025.0201587662922975
 20
-357.8803393886666981
 30
0.0
 40
348.0341139119112768
 50
89.0495687616794243
 51
90.0095848156794318
  0
ARC
  5
1F897
  8
0
 10
5030.7194300971068515
 20
-15.8369066351193304
 30
0.0
 40
5.9432630666067734
 50
87.730401714889453
 51
89.2893440286260756
  0
ARC
  5
1F898
  8
0
 10
5031.0949394688286702
 20
-12.4335979420398193
 30
0.0
 40
2.5652449316522579
 50
81.970263301857031
 51
88.9911023043400604
  0
ARC
  5
1F899
  8
0
 10
5024.7470231476427216
 20
-24.4612511623136903
 30
0.0
 40
5.786327072013739
 50
286.1340796702584157
 51
308.7859061462424961
  0
ARC
  5
1F89A
  8
0
 10
5022.1749075598590935
 20
-21.5613714333398185
 30
0.0
 40
9.6598025100685643
 50
309.903587891754114
 51
338.0135227384972154
  0
ARC
  5
1F89B
  8
0
 10
5014.8933853575772446
 20
-18.3041476987617884
 30
0.0
 40
17.6336753271125097
 50
337.0574900081206806
 51
356.2985797668745818
  0
ARC
  5
1F89C
  8
0
 10
5009.1252494007721907
 20
-17.659767739741401
 30
0.0
 40
23.4329415153415113
 50
355.6367706512078257
 51
359.8944637240405768
  0
ARC
  5
1F89D
  8
0
 10
5031.1029179910219682
 20
-9.9075121332557217
 30
0.0
 40
0.0395531895602818
 50
88.9253410497072423
 51
175.9604601208363874
  0
LINE
  5
1F89E
  8
0
 10
5031.1401074721370605
 20
-9.8687506930120605
 30
0.0
 11
5031.1036598204791517
 21
-9.8679659009010532
 31
0.0
  0
LINE
  5
1F89F
  8
0
 10
5031.0437780252777884
 20
-10.8550350348554296
 30
0.0
 11
5031.012281962378438
 21
-10.8550350348554296
 31
0.0
  0
LINE
  5
1F8A0
  8
0
 10
5031.012281962378438
 20
-10.8550350348554296
 30
0.0
 11
5031.012281962378438
 21
-10.4402130199553902
 31
0.0
  0
LINE
  5
1F8A1
  8
0
 10
5031.012281962378438
 20
-10.4402130199553902
 30
0.0
 11
5031.0437780252777884
 21
-10.4402130199553902
 31
0.0
  0
LINE
  5
1F8A2
  8
0
 10
5031.0634630644908611
 20
-9.9047258136780272
 30
0.0
 11
5031.0633913461279008
 21
-12.0988934619054191
 31
0.0
  0
ARC
  5
1F8A3
  8
0
 10
5030.9809253686844386
 20
-10.4841939456501603
 30
0.0
 40
0.0540144220841081
 50
19.0975244495043803
 51
54.5126908264493721
  0
ARC
  5
1F8A4
  8
0
 10
5031.0408252693778195
 20
2158.322645164098958
 30
0.0
 40
2168.7891668313650371
 50
269.9997659792574041
 51
270.000078006844717
  0
LINE
  5
1F8A5
  8
0
 10
5031.0319670016779128
 20
-10.4665216652554403
 30
0.0
 11
5031.0319670016779128
 21
-10.8291821080553898
 31
0.0
  0
ARC
  5
1F8A6
  8
0
 10
5030.9794497597222289
 20
-10.8096150130968702
 30
0.0
 40
0.0560440175916181
 50
305.861566422267515
 51
339.5654009569913114
  0
LINE
  5
1F8A7
  8
0
 10
5031.0319670016779128
 20
-10.8287263896554293
 30
0.0
 11
5031.0437780252777884
 21
-10.8287263896554293
 31
0.0
  0
LINE
  5
1F8A8
  8
0
 10
5031.0319670016779128
 20
-10.8169153659553903
 30
0.0
 11
5031.0437780252777884
 21
-10.8169153659553903
 31
0.0
  0
LINE
  5
1F8A9
  8
0
 10
5031.0319670016779128
 20
-10.4783326888554296
 30
0.0
 11
5031.0437780252777884
 21
-10.4783326888554296
 31
0.0
  0
ARC
  5
1F8AA
  8
0
 10
5030.9530510282620526
 20
-9.9376388382349035
 30
0.0
 40
0.0393716182096599
 50
0.037108591331884
 51
87.4643766371297176
  0
ARC
  5
1F8AB
  8
0
 10
5031.0304915115102631
 20
-9.9454473220207831
 30
0.0
 40
0.0388665718981426
 50
168.3717455046032114
 51
180.1145706642350888
  0
ARC
  5
1F8AC
  8
0
 10
5342.88831612091235
 20
-11.3672644653248405
 30
0.0
 40
311.8999314914373144
 50
179.738826647712699
 51
180.1562040183947033
  0
ARC
  5
1F8AD
  8
0
 10
5030.9098802970456745
 20
-12.0977464365152798
 30
0.0
 40
0.153515334275049
 50
327.7067262292345049
 51
359.5718973243842242
  0
ARC
  5
1F8AE
  8
0
 10
5030.9591610278994267
 20
-12.1285345541792502
 30
0.0
 40
0.0954089537933821
 50
295.0929014781181081
 51
327.5251068881145216
  0
ARC
  5
1F8AF
  8
0
 10
5030.9849574045811096
 20
-12.1796427125528606
 30
0.0
 40
0.038221667755163
 50
269.7992162206577973
 51
292.5625518485588827
  0
ARC
  5
1F8B0
  8
0
 10
5025.0179753136662839
 20
-181.2359560268849066
 30
0.0
 40
169.1233829487320008
 50
87.978125941520716
 51
90.0189846027551681
  0
ARC
  5
1F8B1
  8
0
 10
5025.0348331478580803
 20
-232.4375359418066012
 30
0.0
 40
220.4542861461355869
 50
88.4629166916747636
 51
90.0189455287474232
  0
LINE
  5
1F8B2
  8
0
 10
5031.0437780252777884
 20
-11.0475709316554305
 30
0.0
 11
5031.0437780252777884
 21
-10.2476771231554
 31
0.0
  0
ARC
  5
1F8B3
  8
0
 10
5031.0634630647246013
 20
-10.2476771231744994
 30
0.0
 40
0.019685039446549
 50
90.0307550848479536
 51
179.9999999445840047
  0
ARC
  5
1F8B4
  8
0
 10
5031.0634630647246013
 20
-11.0475709316363808
 30
0.0
 40
0.0196850394465475
 50
180.0000000554354926
 51
269.8894002721356742
  0
LINE
  5
1F8B5
  8
0
 10
5031.0437780252777884
 20
-10.9448681219554107
 30
0.0
 11
5030.9963593583779584
 21
-10.9449018779554006
 31
0.0
  0
LINE
  5
1F8B6
  8
0
 10
5030.9963593583779584
 20
-10.9449018779554006
 30
0.0
 11
5030.9960629075767429
 21
-10.9468350399554009
 31
0.0
  0
LINE
  5
1F8B7
  8
0
 10
5031.0437780252777884
 20
-10.3503799329554003
 30
0.0
 11
5030.9963591992782312
 21
-10.3503441033554093
 31
0.0
  0
LINE
  5
1F8B8
  8
0
 10
5030.9963591992782312
 20
-10.3503441033554093
 30
0.0
 11
5030.9960629075767429
 21
-10.3484130149554101
 31
0.0
  0
ARC
  5
1F8B9
  8
0
 10
5030.9520210884684275
 20
-12.0241690376220394
 30
0.0
 40
0.038082561620227
 50
275.7023329546174182
 51
346.7828128991853873
  0
ARC
  5
1F8BA
  8
0
 10
5030.9486647599069329
 20
-12.0126711997243891
 30
0.0
 40
0.0499053843604369
 50
269.5665186988513824
 51
278.2258331635003969
  0
ARC
  5
1F8BB
  8
0
 10
5025.0201534385460036
 20
-357.8803393886666981
 30
0.0
 40
348.0341139119112768
 50
89.9999995614405037
 51
90.0095839385603824
  0
ARC
  5
1F8BC
  8
0
 10
5025.0223368911729267
 20
-181.2359560268849066
 30
0.0
 40
169.1233829487320008
 50
90.0007388096689027
 51
90.0204622222326662
  0
ARC
  5
1F8BD
  8
0
 10
5025.0054790569811303
 20
-232.4375359418066012
 30
0.0
 40
220.4542861461355869
 50
89.9961854551867333
 51
90.0113164388026945
  0
ARC
  5
1F8BE
  8
0
 10
5036.5355370368069998
 20
-10.7488755579262207
 30
0.0
 40
5.543010155585244
 50
178.9533470315197121
 51
182.0466596608245879
  0
ARC
  5
1F8BF
  8
0
 10
5036.5355370319157373
 20
-10.5463724969081003
 30
0.0
 40
5.5430101506943119
 50
177.9533403381595065
 51
181.0466529691607889
  0
LINE
  5
1F8C0
  8
0
 10
5025.1391023669102651
 20
-9.7568926386037163
 30
0.0
 11
5025.1391023669102651
 21
-9.7637685386036708
 31
0.0
  0
ARC
  5
1F8C1
  8
0
 10
5025.138093231818857
 20
-9.7632344438478924
 30
0.0
 40
0.001141757785869
 50
279.7727280424977039
 51
332.1095249444588262
  0
ARC
  5
1F8C2
  8
0
 10
5025.1329264405021604
 20
-9.74786778395341
 30
0.0
 40
0.0173411955389466
 50
277.2125702237548239
 51
288.0064953278975963
  0
ARC
  5
1F8C3
  8
0
 10
5025.1210229701473509
 20
-9.6746654036497546
 30
0.0
 40
0.0914963110360321
 50
275.5917352697684919
 51
278.8526192666273005
  0
ARC
  5
1F8C4
  8
0
 10
5025.044144740792035
 20
-8.6373753157898534
 30
0.0
 40
1.131607944299023
 50
270.8950677046991018
 51
274.348087916867712
  0
ARC
  5
1F8C5
  8
0
 10
5024.9752367700466493
 20
-6.0832085447121642
 30
0.0
 40
3.686653550729885
 50
269.7933074920251784
 51
271.3457778299284087
  0
ARC
  5
1F8C6
  8
0
 10
5024.9619732029141232
 20
-180.1414873174487923
 30
0.0
 40
167.8409569918451041
 50
89.4856405744775572
 51
90.0000122473058326
  0
ARC
  5
1F8C7
  8
0
 10
5024.9619732029232182
 20
-180.1414873181199141
 30
0.0
 40
167.8409569925161122
 50
88.8377862024995437
 51
89.4856405744775572
  0
ARC
  5
1F8C8
  8
0
 10
5024.9619212661418715
 20
-180.1435826038461983
 30
0.0
 40
167.8430529006323013
 50
87.8222798674021163
 51
88.8377829843969238
  0
ARC
  5
1F8C9
  8
0
 10
5031.2899010089449803
 20
-15.0134355829290804
 30
0.0
 40
2.5921651738100362
 50
81.0778185959280933
 51
88.8963510311322267
  0
ARC
  5
1F8CA
  8
0
 10
5031.56061925474296
 20
-13.2936516556009892
 30
0.0
 40
0.8512046450603705
 50
46.1177856934661179
 51
81.1260359867104057
  0
ARC
  5
1F8CB
  8
0
 10
5031.4958121709087209
 20
-13.3175664779158396
 30
0.0
 40
0.9138614406818039
 50
16.1143110930062683
 51
44.2281806179314998
  0
ARC
  5
1F8CC
  8
0
 10
5030.7712624380583293
 20
-13.5306920773749297
 30
0.0
 40
1.6691014973986891
 50
354.4237822330738936
 51
16.2395968349919784
  0
ARC
  5
1F8CD
  8
0
 10
4959.2890945730459862
 20
-15.5526043296728407
 30
0.0
 40
73.167009528398367
 50
359.3371032236697147
 51
1.45647510424298
  0
ARC
  5
1F8CE
  8
0
 10
5011.9521912387481279
 20
-17.4717518857259186
 30
0.0
 40
20.5270606148237
 50
356.0750794773666144
 51
2.995361469449541
  0
ARC
  5
1F8CF
  8
0
 10
5011.5910323411981153
 20
-17.9443193988408609
 30
0.0
 40
20.8609272662000187
 50
349.3262986450417884
 51
357.43799648377842
  0
ARC
  5
1F8D0
  8
0
 10
5015.2749520787920119
 20
-18.6342513543984012
 30
0.0
 40
17.1129614262008509
 50
342.9074357814284895
 51
349.3118193751392937
  0
ARC
  5
1F8D1
  8
0
 10
5018.7851033773276868
 20
-19.7932729846384916
 30
0.0
 40
13.4174101161162707
 50
330.9974502141275821
 51
343.2325679281169073
  0
ARC
  5
1F8D2
  8
0
 10
5021.9234102031659859
 20
-21.5556796396815287
 30
0.0
 40
9.8181724866905302
 50
318.7448711796189968
 51
331.1129623280529017
  0
ARC
  5
1F8D3
  8
0
 10
5024.3318302179231978
 20
-23.8152528669085406
 30
0.0
 40
6.5185140521814882
 50
291.2818332207939989
 51
319.7167068698212802
  0
ARC
  5
1F8D4
  8
0
 10
5024.9408952983121708
 20
-25.1557302225286108
 30
0.0
 40
5.049034743729778
 50
276.298122275566584
 51
290.3626541465775972
  0
ARC
  5
1F8D5
  8
0
 10
5024.7552435049747146
 20
-22.6104022277380388
 30
0.0
 40
7.5999568431412579
 50
273.1607669161497256
 51
275.5841973545071824
  0
LINE
  5
1F8D6
  8
0
 10
5014.3730083599257341
 20
-20.9067311131036888
 30
0.0
 11
5014.1690767305126428
 21
-20.9067311131036888
 31
0.0
  0
LINE
  5
1F8D7
  8
0
 10
5014.1583078379562721
 20
-20.9026079582100408
 30
0.0
 11
5003.7655474973807941
 21
-20.9026079582100408
 31
0.0
  0
ARC
  5
1F8D8
  8
0
 10
5014.1708432368832291
 20
-20.8859926140455308
 30
0.0
 40
0.0208135986301871
 50
232.9673765553737894
 51
265.1312951773006716
  0
ARC
  5
1F8D9
  8
0
 10
5014.3730083599257341
 20
-20.8870460737036616
 30
0.0
 40
0.0196850394000094
 50
270.0000000000521254
 51
358.9999325486692783
  0
LINE
  5
1F8DA
  8
0
 10
5014.2552347542796269
 20
-20.789646089303659
 30
0.0
 11
5003.6686205810556203
 21
-20.789646089303659
 31
0.0
  0
ARC
  5
1F8DB
  8
0
 10
5014.2552447193684202
 20
-20.769297948893751
 30
0.0
 40
0.0203481428500501
 50
269.9719405591573036
 51
0.0436704444536104
  0
ARC
  5
1F8DC
  8
0
 10
5014.1708203530397441
 20
-20.8826885238177304
 30
0.0
 40
0.0235233267255881
 50
182.2158868110790877
 51
237.8647635013761032
  0
LINE
  5
1F8DD
  8
0
 10
5014.1473146162607009
 20
-20.8835980504320311
 30
0.0
 11
5014.1473142950089823
 21
-20.8110487428619102
 31
0.0
  0
ARC
  5
1F8DE
  8
0
 10
5014.1708697978447162
 20
-20.8131490704430711
 30
0.0
 40
0.0236489553639952
 50
96.3693246087001256
 51
174.9046937134963002
  0
LINE
  5
1F8DF
  8
0
 10
5014.2755928563110501
 20
-20.7692824432174596
 30
0.0
 11
5014.2749447676769705
 21
-19.9188887365829395
 31
0.0
  0
ARC
  5
1F8E0
  8
0
 10
5014.2576348286584107
 20
-20.3548575304933195
 30
0.0
 40
0.0081159907362134
 50
267.0223338547108938
 51
316.9596964803095034
  0
ARC
  5
1F8E1
  8
0
 10
5014.257768093226332
 20
-20.3550700704447785
 30
0.0
 40
0.0078737931999995
 50
317.4282174291490151
 51
359.7462800406013912
  0
LINE
  5
1F8E2
  8
0
 10
5014.265641809227418
 20
-20.3388826151623086
 30
0.0
 11
5014.265641809227418
 21
-20.3551049374450805
 31
0.0
  0
ARC
  5
1F8E3
  8
0
 10
5014.2571393258604076
 20
-20.3407203033284283
 30
0.0
 40
0.0093707659225109
 50
54.9415768380942424
 51
89.5481234644225594
  0
ARC
  5
1F8E4
  8
0
 10
5014.2577164276908661
 20
-20.3393708200432286
 30
0.0
 40
0.0079404040510061
 50
3.5249758822511601
 51
52.7563979208657017
  0
ARC
  5
1F8E5
  8
0
 10
5014.2576348286584107
 20
-19.9680877592933008
 30
0.0
 40
0.0081159907362134
 50
267.0223338547108938
 51
316.9596964803095034
  0
ARC
  5
1F8E6
  8
0
 10
5014.257768093226332
 20
-19.9683002992447598
 30
0.0
 40
0.0078737931999995
 50
317.4282174291490151
 51
359.7462800406013912
  0
LINE
  5
1F8E7
  8
0
 10
5014.265641809227418
 20
-19.9521128439622792
 30
0.0
 11
5014.265641809227418
 21
-19.9683351662450512
 31
0.0
  0
ARC
  5
1F8E8
  8
0
 10
5014.2571393258604076
 20
-19.953950532128399
 30
0.0
 40
0.0093707659225109
 50
54.9415768380942424
 51
89.5481234644225594
  0
ARC
  5
1F8E9
  8
0
 10
5014.2577164276908661
 20
-19.9526010488431993
 30
0.0
 40
0.0079404040510061
 50
3.5249758822511601
 51
52.7563979208657017
  0
LINE
  5
1F8EA
  8
0
 10
5014.3729904007950609
 20
-19.7417233846036595
 30
0.0
 11
5003.5508649345420054
 21
-19.7417233846036595
 31
0.0
  0
ARC
  5
1F8EB
  8
0
 10
5014.3729904007950609
 20
-19.7614233846037202
 30
0.0
 40
0.0197
 50
0.0
 51
90.0
  0
ARC
  5
1F8EC
  8
0
 10
5014.2552447224634307
 20
-19.918903750070541
 30
0.0
 40
0.0197000509361052
 50
0.0436585972172123
 51
84.2652074618799958
  0
LINE
  5
1F8ED
  8
0
 10
5014.229546554092849
 20
-20.7641146087036894
 30
0.0
 11
5003.6943087812451267
 21
-20.7641146087036894
 31
0.0
  0
ARC
  5
1F8EE
  8
0
 10
5014.2262673546438236
 20
-20.7327850495342716
 30
0.0
 40
0.0315007051790597
 50
275.9752723797998897
 51
349.2304645035043791
  0
LINE
  5
1F8EF
  8
0
 10
5014.2119376393266066
 20
-20.7593222086036597
 30
0.0
 11
5003.7119176960095501
 21
-20.7593222086036597
 31
0.0
  0
LINE
  5
1F8F0
  8
0
 10
5014.2119376393266066
 20
-20.7593222086036597
 30
0.0
 11
5014.2119376393266066
 21
-20.7291196849036794
 31
0.0
  0
ARC
  5
1F8F1
  8
0
 10
5014.212266014481429
 20
-20.7576128180211015
 30
0.0
 40
0.0284950252691343
 50
82.724480308029456
 51
90.6602881278356847
  0
LINE
  5
1F8F2
  8
0
 10
5014.2158746472259736
 20
-20.7293472164036814
 30
0.0
 11
5014.2158746472259736
 21
-20.7641146087036894
 31
0.0
  0
LINE
  5
1F8F3
  8
0
 10
5014.1922525999261779
 20
-20.7641146087036894
 30
0.0
 11
5014.1922525999261779
 21
-20.7593222086036597
 31
0.0
  0
LINE
  5
1F8F4
  8
0
 10
5014.2119376393266066
 20
-20.7477912399845899
 30
0.0
 11
5014.2158746472259736
 21
-20.7475630733036702
 31
0.0
  0
LINE
  5
1F8F5
  8
0
 10
5014.2262617587739442
 20
-19.8625080815037016
 30
0.0
 11
5003.697593576563122
 21
-19.8625080815037016
 31
0.0
  0
ARC
  5
1F8F6
  8
0
 10
5014.2262688297823843
 20
-19.8940115045099617
 30
0.0
 40
0.0315034237998087
 50
10.8098132519094605
 51
90.0128601535119657
  0
ARC
  5
1F8F7
  8
0
 10
5014.2262735134891045
 20
-20.6972727812680901
 30
0.0
 40
0.0314945358889789
 50
270.2298631573972898
 51
349.2295083166508789
  0
LINE
  5
1F8F8
  8
0
 10
5014.2263998650996655
 20
-20.7287670637036605
 30
0.0
 11
5003.6974554702374007
 21
-20.7287670637036605
 31
0.0
  0
LINE
  5
1F8F9
  8
0
 10
5014.1878102547607341
 20
-20.6689268874036713
 30
0.0
 11
5003.7360450805754226
 21
-20.6689268874036713
 31
0.0
  0
ARC
  5
1F8FA
  8
0
 10
5014.1877265893299409
 20
-20.6490156876791708
 30
0.0
 40
0.0199113755018033
 50
270.2407513345526127
 51
353.4026905655948099
  0
LINE
  5
1F8FB
  8
0
 10
5014.2075061149262183
 20
-20.6513033156130383
 30
0.0
 11
5014.2075061149262183
 21
-19.9386328865093887
 31
0.0
  0
LINE
  5
1F8FC
  8
0
 10
5014.1878081053691858
 20
-19.9210093202036909
 30
0.0
 11
5003.7360472299687899
 21
-19.9210093202036909
 31
0.0
  0
ARC
  5
1F8FD
  8
0
 10
5014.1877266044466523
 20
-19.9409205138157084
 30
0.0
 40
0.0199113604119761
 50
6.5973126386980372
 51
89.7654770076711941
  0
LINE
  5
1F8FE
  8
0
 10
5014.0753777003274081
 20
-19.8625080815037016
 30
0.0
 11
5014.0753777003274081
 21
-19.7417233846036595
 31
0.0
  0
LINE
  5
1F8FF
  8
0
 10
5013.9607471212284509
 20
-19.7614084237034398
 30
0.0
 11
5013.9607479244259594
 21
-19.8540530209036987
 31
0.0
  0
ARC
  5
1F900
  8
0
 10
5013.9410421363036221
 20
-19.8540386184697901
 30
0.0
 40
0.0197057933856719
 50
334.5454117237302967
 51
359.9581240535134725
  0
ARC
  5
1F901
  8
0
 10
5013.941054616783731
 20
-19.761407400608821
 30
0.0
 40
0.0196925044697676
 50
359.9970232834431272
 51
88.3176462218133054
  0
LINE
  5
1F902
  8
0
 10
5017.3657234874535789
 20
-17.7029301507283492
 30
0.0
 11
5017.3657234874535789
 21
-11.1375959049385305
 31
0.0
  0
LINE
  5
1F903
  8
0
 10
5032.5581511644832062
 20
-17.702930150730559
 30
0.0
 11
5032.5581511644832062
 21
-11.1375959049385305
 31
0.0
  0
LINE
  5
1F904
  8
0
 10
5003.5508469754113321
 20
-20.9067311131036888
 30
0.0
 11
5003.7547786048244234
 21
-20.9067311131036888
 31
0.0
  0
ARC
  5
1F905
  8
0
 10
5003.7530120984547466
 20
-20.8859926140457617
 30
0.0
 40
0.0208135986299709
 50
274.8687048225947933
 51
307.0326234448871787
  0
ARC
  5
1F906
  8
0
 10
5003.5508469754113321
 20
-20.8870460737036616
 30
0.0
 40
0.0196850394000094
 50
181.0000674513298122
 51
269.9999999999478746
  0
ARC
  5
1F907
  8
0
 10
5003.6686106159677365
 20
-20.769297948893751
 30
0.0
 40
0.020348142850053
 50
179.9563295555236095
 51
270.0280594408948218
  0
ARC
  5
1F908
  8
0
 10
5003.7530349822964126
 20
-20.8826885238177304
 30
0.0
 40
0.0235233267255133
 50
302.1352364985010013
 51
357.7841131889655912
  0
LINE
  5
1F909
  8
0
 10
5003.7765407190763653
 20
-20.8835980504320311
 30
0.0
 11
5003.7765410403289934
 21
-20.8110487428619102
 31
0.0
  0
ARC
  5
1F90A
  8
0
 10
5003.75298553749235
 20
-20.8131490704430711
 30
0.0
 40
0.0236489553639952
 50
5.0953062865028951
 51
83.6306753912998744
  0
LINE
  5
1F90B
  8
0
 10
5003.6482624790260161
 20
-20.7692824432174596
 30
0.0
 11
5003.6489105676591862
 21
-19.9188887365829395
 31
0.0
  0
ARC
  5
1F90C
  8
0
 10
5003.5508649345420054
 20
-19.7614233846037202
 30
0.0
 40
0.0197
 50
90.0
 51
180.0
  0
ARC
  5
1F90D
  8
0
 10
5003.6686106128754545
 20
-19.918903750070541
 30
0.0
 40
0.0197000509361052
 50
95.7347925407908491
 51
179.9563414027828117
  0
ARC
  5
1F90E
  8
0
 10
5003.6975879806932426
 20
-20.7327850495342716
 30
0.0
 40
0.0315007051790601
 50
190.7695354965011916
 51
264.0247276202001103
  0
LINE
  5
1F90F
  8
0
 10
5003.7119176960095501
 20
-20.7593222086036597
 30
0.0
 11
5003.7119176960095501
 21
-20.7291196849036794
 31
0.0
  0
ARC
  5
1F910
  8
0
 10
5003.7115893208565467
 20
-20.7576128180211015
 30
0.0
 40
0.0284950252691343
 50
89.3397118721643153
 51
97.2755196919705298
  0
LINE
  5
1F911
  8
0
 10
5003.7079806881110926
 20
-20.7293472164036814
 30
0.0
 11
5003.7079806881110926
 21
-20.7641146087036894
 31
0.0
  0
LINE
  5
1F912
  8
0
 10
5003.7316027354108883
 20
-20.7641146087036894
 30
0.0
 11
5003.7316027354108883
 21
-20.7593222086036597
 31
0.0
  0
LINE
  5
1F913
  8
0
 10
5003.7119176960095501
 20
-20.7477912399845899
 30
0.0
 11
5003.7079806881110926
 21
-20.7475630733036702
 31
0.0
  0
ARC
  5
1F914
  8
0
 10
5003.6975865055555914
 20
-19.8940115045099617
 30
0.0
 40
0.0315034237998075
 50
89.987139846488077
 51
169.1901867569264084
  0
ARC
  5
1F915
  8
0
 10
5003.6975818218470522
 20
-20.6972727812680901
 30
0.0
 40
0.0314945358889771
 50
190.7704916833266111
 51
269.7701368426025965
  0
ARC
  5
1F916
  8
0
 10
5003.7361287460071253
 20
-20.6490156876791708
 30
0.0
 40
0.0199113755018132
 50
186.5973094344043091
 51
269.7592486653952051
  0
LINE
  5
1F917
  8
0
 10
5003.7163492204108479
 20
-20.6513033156130383
 30
0.0
 11
5003.7163492204108479
 21
-19.9386328865093887
 31
0.0
  0
ARC
  5
1F918
  8
0
 10
5003.7361287308885949
 20
-19.9409205138157084
 30
0.0
 40
0.0199113604119763
 50
90.2345229923288201
 51
173.4026873613019006
  0
LINE
  5
1F919
  8
0
 10
5003.8484776350105676
 20
-19.8625080815037016
 30
0.0
 11
5003.8484776350105676
 21
-19.7417233846036595
 31
0.0
  0
LINE
  5
1F91A
  8
0
 10
5003.9631082141104343
 20
-19.7614084237034398
 30
0.0
 11
5003.9631074109101974
 21
-19.8540530209036987
 31
0.0
  0
ARC
  5
1F91B
  8
0
 10
5003.9828131990343536
 20
-19.8540386184697901
 30
0.0
 40
0.0197057933856719
 50
180.0418759464864991
 51
205.4545882762697033
  0
ARC
  5
1F91C
  8
0
 10
5003.9828007185533352
 20
-19.761407400608821
 30
0.0
 40
0.0196925044697676
 50
91.6823537781867088
 51
180.0029767165569012
  0
LINE
  5
1F91D
  8
0
 10
5003.5311649345430851
 20
-20.8873896481824488
 30
0.0
 11
5003.5311649345430851
 21
-19.7614233846037202
 31
0.0
  0
LINE
  5
1F91E
  8
0
 10
5014.3926904007948906
 20
-20.8873896481823884
 30
0.0
 11
5014.3926904007948906
 21
-19.7614233846037202
 31
0.0
  0
ARC
  5
1F91F
  8
0
 10
5024.9554383327249525
 20
-24.7754422687923785
 30
0.0
 40
5.4277692606296828
 50
270.0686036851852236
 51
284.9422455469123747
  0
LINE
  5
1F921
  8
0
 10
5003.6666421055097089
 20
-19.8881030515051016
 30
0.0
 11
5003.6666421055097089
 21
-20.7386712398097792
 31
0.0
  0
LINE
  5
1F922
  8
0
 10
5014.2572132298264478
 20
-19.888103051500341
 30
0.0
 11
5014.2572132298264478
 21
-20.7386712398097792
 31
0.0
  0
ENDSEC
  0
EOF
