  0
SECTION
  2
HEADER
  9
$ACADVER
  1
AC1009
  9
$INSBASE
 10
4895.8694128590022956
 20
-16.2296499031750585
 30
0.0
  9
$EXTMIN
 10
4875.4184807701622049
 20
-17.2711999002019816
 30
-0.0000000000000058
  9
$EXTMAX
 10
4895.9636967913693297
 20
-12.6943960209986493
 30
0.0000000000000104
  9
$LIMMIN
 10
0.0
 20
0.0
  9
$LIMMAX
 10
11.6929133858000007
 20
8.2677165353999982
  9
$ORTHOMODE
 70
     0
  9
$REGENMODE
 70
     1
  9
$FILLMODE
 70
     1
  9
$QTEXTMODE
 70
     0
  9
$MIRRTEXT
 70
     0
  9
$DRAGMODE
 70
     2
  9
$LTSCALE
 40
0.6431102362
  9
$OSMODE
 70
  4095
  9
$ATTMODE
 70
     1
  9
$TEXTSIZE
 40
0.2
  9
$TRACEWID
 40
0.05
  9
$TEXTSTYLE
  7
STANDARD
  9
$CLAYER
  8
0
  9
$CELTYPE
  6
BYLAYER
  9
$CECOLOR
 62
   256
  9
$DIMSCALE
 40
1.0
  9
$DIMASZ
 40
0.1875
  9
$DIMEXO
 40
0.0625
  9
$DIMDLI
 40
0.4443307087
  9
$DIMRND
 40
0.0
  9
$DIMDLE
 40
0.0
  9
$DIMEXE
 40
0.125
  9
$DIMTP
 40
0.01
  9
$DIMTM
 40
0.01
  9
$DIMTXT
 40
2.0
  9
$DIMCEN
 40
0.1052362205
  9
$DIMTSZ
 40
0.0
  9
$DIMTOL
 70
     1
  9
$DIMLIM
 70
     0
  9
$DIMTIH
 70
     1
  9
$DIMTOH
 70
     1
  9
$DIMSE1
 70
     0
  9
$DIMSE2
 70
     0
  9
$DIMTAD
 70
     0
  9
$DIMZIN
 70
     0
  9
$DIMBLK
  1

  9
$DIMASO
 70
     1
  9
$DIMSHO
 70
     1
  9
$DIMPOST
  1
\X
  9
$DIMAPOST
  1

  9
$DIMALT
 70
     1
  9
$DIMALTD
 70
     2
  9
$DIMALTF
 40
25.3999999999999986
  9
$DIMLFAC
 40
1.0
  9
$DIMTOFL
 70
     0
  9
$DIMTVP
 40
0.0
  9
$DIMTIX
 70
     0
  9
$DIMSOXD
 70
     0
  9
$DIMSAH
 70
     0
  9
$DIMBLK1
  1

  9
$DIMBLK2
  1

  9
$DIMSTYLE
  2
STANDARD
  9
$DIMCLRD
 70
     0
  9
$DIMCLRE
 70
     0
  9
$DIMCLRT
 70
     0
  9
$DIMTFAC
 40
1.0
  9
$DIMGAP
 40
0.09
  9
$LUNITS
 70
     2
  9
$LUPREC
 70
     4
  9
$SKETCHINC
 40
0.1
  9
$FILLETRAD
 40
0.0
  9
$AUNITS
 70
     0
  9
$AUPREC
 70
     0
  9
$MENU
  1
.
  9
$ELEVATION
 40
0.0
  9
$PELEVATION
 40
0.0
  9
$THICKNESS
 40
0.0
  9
$LIMCHECK
 70
     0
  9
$BLIPMODE
 70
     0
  9
$CHAMFERA
 40
0.0
  9
$CHAMFERB
 40
0.0
  9
$SKPOLY
 70
     0
  9
$TDCREATE
 40
2458060.468368056230247
  9
$TDUPDATE
 40
2460028.6274305549450219
  9
$TDINDWG
 40
0.5255278935
  9
$TDUSRTIMER
 40
0.5255278935
  9
$USRTIMER
 70
     1
  9
$ANGBASE
 50
0.0
  9
$ANGDIR
 70
     0
  9
$PDMODE
 70
     0
  9
$PDSIZE
 40
0.3125
  9
$PLINEWID
 40
0.0
  9
$COORDS
 70
     1
  9
$SPLFRAME
 70
     0
  9
$SPLINETYPE
 70
     6
  9
$SPLINESEGS
 70
     8
  9
$ATTDIA
 70
     1
  9
$ATTREQ
 70
     1
  9
$HANDLING
 70
     1
  9
$HANDSEED
  5
1FE55
  9
$SURFTAB1
 70
     6
  9
$SURFTAB2
 70
     6
  9
$SURFTYPE
 70
     6
  9
$SURFU
 70
     6
  9
$SURFV
 70
     6
  9
$UCSNAME
  2

  9
$UCSORG
 10
0.0
 20
0.0
 30
0.0
  9
$UCSXDIR
 10
1.0
 20
0.0
 30
0.0
  9
$UCSYDIR
 10
0.0
 20
1.0
 30
0.0
  9
$PUCSNAME
  2

  9
$PUCSORG
 10
0.0
 20
0.0
 30
0.0
  9
$PUCSXDIR
 10
1.0
 20
0.0
 30
0.0
  9
$PUCSYDIR
 10
0.0
 20
1.0
 30
0.0
  9
$USERI1
 70
     0
  9
$USERI2
 70
     0
  9
$USERI3
 70
     0
  9
$USERI4
 70
     0
  9
$USERI5
 70
     0
  9
$USERR1
 40
0.0
  9
$USERR2
 40
0.0
  9
$USERR3
 40
0.0
  9
$USERR4
 40
0.0
  9
$USERR5
 40
0.0
  9
$WORLDVIEW
 70
     1
  9
$SHADEDGE
 70
     3
  9
$SHADEDIF
 70
    70
  9
$TILEMODE
 70
     1
  9
$MAXACTVP
 70
    64
  9
$PLIMCHECK
 70
     0
  9
$PEXTMIN
 10
1.0000000000000000E+20
 20
1.0000000000000000E+20
 30
1.0000000000000000E+20
  9
$PEXTMAX
 10
-1.0000000000000000E+20
 20
-1.0000000000000000E+20
 30
-1.0000000000000000E+20
  9
$PLIMMIN
 10
0.0
 20
0.0
  9
$PLIMMAX
 10
12.0
 20
9.0
  9
$UNITMODE
 70
     0
  9
$VISRETAIN
 70
     1
  9
$PLINEGEN
 70
     0
  9
$PSLTSCALE
 70
     1
  0
ENDSEC
  0
SECTION
  2
TABLES
  0
TABLE
  2
VPORT
 70
     1
  0
VPORT
  2
*ACTIVE
 70
     0
 10
0.0
 20
0.0
 11
1.0
 21
1.0
 12
1093.3331786245150852
 22
-135.1634543937057913
 13
0.0
 23
0.0
 14
1.0
 24
1.0
 15
0.0
 25
0.0
 16
0.0
 26
0.0
 36
5.1040778033513332
 17
3792.35791015625
 27
120.1806564331053977
 37
0.0
 40
7.2332032837584688
 41
2.8493975903614448
 42
50.0
 43
0.0
 44
0.0
 50
0.0
 51
0.0
 71
     0
 72
   100
 73
     1
 74
     1
 75
     0
 76
     0
 77
     0
 78
     0
  0
ENDTAB
  0
TABLE
  2
LTYPE
 70
     2
  0
LTYPE
  2
CONTINUOUS
 70
     0
  3
Solid line
 72
    65
 73
     0
 40
0.0
  0
LTYPE
  2
PHANTOM2
 70
     0
  3
___ _ _ ___ _ _ ___ _ _ ___ _ _
 72
    65
 73
     6
 40
1.25
 49
0.625
 49
-0.125
 49
0.125
 49
-0.125
 49
0.125
 49
-0.125
  0
ENDTAB
  0
TABLE
  2
LAYER
 70
     2
  0
LAYER
  2
0
 70
     0
 62
   255
  6
CONTINUOUS
  0
LAYER
  2
DEFPOINTS
 70
     0
 62
     7
  6
CONTINUOUS
  0
ENDTAB
  0
TABLE
  2
STYLE
 70
     1
  0
STYLE
  2
STANDARD
 70
     0
 40
0.0
 41
0.8
 50
0.0
 71
     0
 42
0.2
  3
txt
  4

  0
ENDTAB
  0
TABLE
  2
VIEW
 70
     0
  0
ENDTAB
  0
TABLE
  2
UCS
 70
     0
  0
ENDTAB
  0
TABLE
  2
APPID
 70
     9
  0
APPID
  2
ACAD
 70
     0
  0
APPID
  2
ACAD_MLEADERVER
 70
     0
  0
APPID
  2
ACAD_EXEMPT_FROM_CAD_STANDARDS
 70
     0
  0
APPID
  2
ACAD_NAV_VCDISPLAY
 70
     0
  0
APPID
  2
ACAECLAYERSTANDARD
 70
     0
  0
APPID
  2
ACCMTRANSPARENCY
 70
     0
  0
APPID
  2
ACAD_DSTYLE_DIMJAG
 70
     0
  0
APPID
  2
ACAD_DSTYLE_DIMTALN
 70
     0
  0
APPID
  2
ACDBATTR
 70
     0
  0
ENDTAB
  0
TABLE
  2
DIMSTYLE
 70
     1
  0
DIMSTYLE
  2
STANDARD
 70
     0
  3

  4

  5

  6

  7

 40
1.0
 41
0.1875
 42
0.0625
 43
0.38
 44
0.125
 45
0.0
 46
0.0
 47
0.01
 48
0.01
140
0.15625
141
0.09
142
0.0
143
25.3999999999999986
144
1.0
145
0.0
146
1.0
147
0.09
 71
     1
 72
     0
 73
     1
 74
     1
 75
     0
 76
     0
 77
     0
 78
     4
170
     0
171
     2
172
     0
173
     0
174
     0
175
     0
176
     0
177
     0
178
     0
  0
ENDTAB
  0
ENDSEC
  0
SECTION
  2
BLOCKS
  0
BLOCK
  8
0
  2
$MODEL_SPACE
 70
     0
 10
0.0
 20
0.0
 30
0.0
  3
$MODEL_SPACE
  1

  0
ENDBLK
  5
21
  8
0
  0
BLOCK
 67
     1
  8
0
  2
$PAPER_SPACE
 70
     0
 10
0.0
 20
0.0
 30
0.0
  3
$PAPER_SPACE
  1

  0
ENDBLK
  5
1D
 67
     1
  8
0
  0
BLOCK
  8
0
  2
_FILLED
 70
     0
 10
0.0
 20
0.0
 30
0.0
  3
_FILLED
  1

  0
SOLID
  5
1CDE3
  8
0
  6
BYBLOCK
 62
     0
 10
0.0
 20
0.0
 30
0.0
 11
-1.0
 21
0.1666666667
 31
0.0
 12
-1.0
 22
-0.1666666667
 32
0.0
 13
-1.0
 23
-0.1666666667
 33
0.0
  0
ENDBLK
  5
1CDE4
  8
0
  6
BYBLOCK
 62
     0
  0
ENDSEC
  0
SECTION
  2
ENTITIES
  0
ATTDEF
  5
3930
  8
DEFPOINTS
 10
4895.8592963165701804
 20
-16.2320418135846012
 30
0.0
 40
0.001
  1
K-28362T
  3

  2
MODELNUMBER
 70
     0
1001
ACDBATTR
1070
     0
1070
     1
  0
ATTDEF
  5
3931
  8
DEFPOINTS
 10
4895.8592963165701804
 20
-16.2337084802512592
 30
0.0
 40
0.001
  1
C3
  3

  2
TRADENAME
 70
     0
1001
ACDBATTR
1070
     0
1070
     1
  0
ATTDEF
  5
3932
  8
DEFPOINTS
 10
4895.8592963165701804
 20
-16.2353751469179315
 30
0.0
 40
0.001
  1
TOILET SEAT
  3

  2
PRODUCT
 70
     0
1001
ACDBATTR
1070
     0
1070
     1
  0
ARC
  5
1F778
  8
0
 10
4893.3060469242618638
 20
-12.5680041901187405
 30
0.0
 40
0.1286281216502759
 50
274.5150030056656192
 51
275.0213021747529183
  0
LINE
  5
1F779
  8
0
 10
4893.3265626012789653
 20
-12.6961386660229198
 30
0.0
 11
4893.4772582896021049
 21
-12.7049390682725392
 31
0.0
  0
ARC
  5
1F77A
  8
0
 10
4893.3209395684589254
 20
-12.7737863824550395
 30
0.0
 40
0.0776996061020465
 50
93.5174156063837074
 51
105.7456432567326061
  0
ARC
  5
1F77B
  8
0
 10
4893.4749505757636143
 20
-12.7442755716875098
 30
0.0
 40
0.0394041373979532
 50
0.048138937738515
 51
86.6425362018276957
  0
LINE
  5
1F77C
  8
0
 10
4893.4772582896021049
 20
-12.7049390682725392
 30
0.0
 11
4893.3718251578020499
 21
-12.7346020555724895
 31
0.0
  0
ARC
  5
1F77D
  8
0
 10
4893.371794545537341
 20
-12.7346289067250904
 30
0.0
 40
0.0000127439921596
 50
122.9259323810364037
 51
228.0776828727099996
  0
ARC
  5
1F77E
  8
0
 10
4893.3718514899192087
 20
-12.7347149408398508
 30
0.0
 40
0.0001159157624062
 50
103.130278029891798
 51
123.4367402582384017
  0
ARC
  5
1F77F
  8
0
 10
4893.7066775727871573
 20
-12.7989168616276601
 30
0.0
 40
0.08060848876709
 50
86.8909910613798218
 51
112.7623598780060945
  0
LINE
  5
1F780
  8
0
 10
4893.6754893512361377
 20
-12.7245863611730492
 30
0.0
 11
4893.6101971705520555
 21
-12.7497969082884097
 31
0.0
  0
LINE
  5
1F781
  8
0
 10
4893.6101971705520555
 20
-12.7497969082886993
 30
0.0
 11
4893.5143546992530901
 21
-12.7442424650065291
 31
0.0
  0
ARC
  5
1F782
  8
0
 10
4893.3718706996132823
 20
-12.7345401150011401
 30
0.0
 40
0.0001297171422233
 50
229.2532100919507911
 51
253.728325148528512
  0
ARC
  5
1F783
  8
0
 10
4893.3724429350331775
 20
-12.7327308875037293
 30
0.0
 40
0.0020272530610045
 50
252.5303905403858096
 51
260.7991097704053232
  0
ARC
  5
1F784
  8
0
 10
4893.3756260101963562
 20
-12.7136374124818108
 30
0.0
 40
0.0213842156997601
 50
260.5602700007120802
 51
264.103666768099913
  0
ARC
  5
1F785
  8
0
 10
4893.3927889494407282
 20
-12.5562128224752207
 30
0.0
 40
0.1797413173275675
 50
263.8167471742257817
 51
265.1934120211088839
  0
ARC
  5
1F786
  8
0
 10
4893.9929496291224496
 20
-4.363252490583462
 30
0.0
 40
8.3946438910937111
 50
265.797173182808308
 51
266.7316843155281276
  0
ARC
  5
1F787
  8
0
 10
4884.1878703034626596
 20
19.6885989100797616
 30
0.0
 40
33.6449843603690226
 50
283.2779837477476121
 51
285.7135087757907854
  0
ARC
  5
1F788
  8
0
 10
4882.5070528942296733
 20
27.2389904681826494
 30
0.0
 40
41.3796924944160125
 50
277.6281172219037217
 51
283.1419327621687785
  0
ARC
  5
1F789
  8
0
 10
4879.2209141426537826
 20
53.4802813577528724
 30
0.0
 40
67.8253502825599668
 50
272.3802015555580738
 51
277.4369621171833842
  0
ARC
  5
1F78A
  8
0
 10
4875.4995481575060694
 20
145.8749735960724934
 30
0.0
 40
160.2949221604737886
 50
270.0007091617745232
 51
272.3376541497407857
  0
ARC
  5
1F78B
  8
0
 10
4875.5018439699879309
 20
-14.4986943214729394
 30
0.0
 40
0.0787463866810801
 50
90.2268724190133753
 51
189.8485081552265967
  0
LINE
  5
1F78C
  8
0
 10
4875.424258034050581
 20
-14.5121633956803393
 30
0.0
 11
4875.5547460761581533
 21
-15.2522352906081409
 31
0.0
  0
ARC
  5
1F78D
  8
0
 10
4875.5935721414189175
 20
-15.2453325712139502
 30
0.0
 40
0.0394348941783724
 50
190.0810382811278885
 51
269.9305253431253959
  0
LINE
  5
1F78E
  8
0
 10
4893.7110494401031247
 20
-12.7184270160725408
 30
0.0
 11
4894.7082646687013039
 21
-12.7759609366724902
 31
0.0
  0
LINE
  5
1F78F
  8
0
 10
4894.4398391013019136
 20
-12.7408445953725398
 30
0.0
 11
4894.4398391013019136
 21
-12.7604742418168193
 31
0.0
  0
LINE
  5
1F790
  8
0
 10
4894.4398391013019136
 20
-12.7408445953725398
 30
0.0
 11
4894.6112108153020017
 21
-12.7507322255956801
 31
0.0
  0
LINE
  5
1F791
  8
0
 10
4894.6112108153020017
 20
-12.7507322255956801
 30
0.0
 11
4894.6112108153020017
 21
-12.7703629977945994
 31
0.0
  0
ARC
  5
1F792
  8
0
 10
4894.4708960904918058
 20
-18.1665101174743704
 30
0.0
 40
5.3957728188429552
 50
81.8503661643224518
 51
87.478654372657374
  0
ARC
  5
1F793
  8
0
 10
4895.0279503935262255
 20
-14.2006879250569504
 30
0.0
 40
1.391074834919958
 50
68.8696395699671911
 51
81.40711566914824
  0
ARC
  5
1F794
  8
0
 10
4895.3693320779748319
 20
-13.3393177577987494
 30
0.0
 40
0.4646232207758504
 50
41.0919013825277872
 51
69.8453417896331814
  0
ARC
  5
1F795
  8
0
 10
4895.4831551972665693
 20
-13.2103634352739991
 30
0.0
 40
0.2949320195758403
 50
3.0393506005404092
 51
36.7410070442404404
  0
ARC
  5
1F796
  8
0
 10
4355.3249296996373232
 20
-33.5534578599656896
 30
0.0
 40
540.8360611308740999
 50
1.8814889769778249
 51
2.1572989955788411
  0
LINE
  5
1F797
  8
0
 10
4895.8694128590022956
 20
-15.7965790369725401
 30
0.0
 11
4895.8528214895013662
 21
-15.7965790369725401
 31
0.0
  0
LINE
  5
1F798
  8
0
 10
4895.8528214895013662
 20
-15.7965790369725401
 30
0.0
 11
4895.8556701776406044
 21
-15.8950113014150904
 31
0.0
  0
LINE
  5
1F799
  8
0
 10
4895.8531989873918064
 20
-15.8950113014150904
 30
0.0
 11
4895.8531856484050877
 21
-15.9325827101555095
 31
0.0
  0
ARC
  5
1F79A
  8
0
 10
4894.5724694662576439
 20
2.8930716481421679
 30
0.0
 40
15.6724377377885205
 50
266.4798812889642932
 51
266.9156434394864732
  0
LINE
  5
1F79B
  8
0
 10
4893.72919544495835
 20
-12.7566629684530302
 30
0.0
 11
4894.6550070900020728
 21
-12.8100772217725201
 31
0.0
  0
LINE
  5
1F79C
  8
0
 10
4894.6550070900011633
 20
-12.8100772217736498
 30
0.0
 11
4894.7132206474170744
 21
-12.8134758782709195
 31
0.0
  0
ARC
  5
1F79D
  8
0
 10
4893.9401245489561916
 20
-25.9696296386681986
 30
0.0
 40
13.1788489385328607
 50
86.2369060640854883
 51
86.6369909776570921
  0
ARC
  5
1F79E
  8
0
 10
4894.3377663934434167
 20
-19.8838678807702394
 30
0.0
 40
7.080111173717591
 50
85.5739909056724173
 51
86.2156134197798565
  0
ARC
  5
1F79F
  8
0
 10
4894.6034537804525826
 20
-16.6077999319021892
 30
0.0
 40
3.7933287309626218
 50
82.0045909457961244
 51
85.7563848607626369
  0
ARC
  5
1F7A0
  8
0
 10
4894.9339779653982987
 20
-14.4077051415393793
 30
0.0
 40
1.568791228795799
 50
72.7371079114878398
 51
82.7822387938691691
  0
ARC
  5
1F7A1
  8
0
 10
4895.1231630150750789
 20
-13.7974452784742301
 30
0.0
 40
0.929879839601979
 50
67.9921863068238395
 51
72.7102625152580231
  0
ARC
  5
1F7A2
  8
0
 10
4895.1654269879836647
 20
-13.6923626737320596
 30
0.0
 40
0.8166166304749689
 50
67.4150857816530902
 51
67.9786021991324532
  0
ARC
  5
1F7A3
  8
0
 10
4895.1743965693531209
 20
-13.6707458140485691
 30
0.0
 40
0.793212750693526
 50
67.0366157710561339
 51
67.4136204167913604
  0
ARC
  5
1F7A4
  8
0
 10
4895.2184046641195891
 20
-13.5696746110873896
 30
0.0
 40
0.682982425679136
 50
61.284990103985777
 51
67.127926058422716
  0
ARC
  5
1F7A5
  8
0
 10
4894.2678493553394219
 20
-13.3293868052075304
 30
0.0
 40
1.460149187921628
 50
1.8463222669138519
 51
3.686884938357184
  0
ARC
  5
1F7A6
  8
0
 10
4895.3918275761507175
 20
-13.2510994366875696
 30
0.0
 40
0.3335143069737028
 50
2.6819792507654738
 51
20.3719641302308716
  0
ARC
  5
1F7A7
  8
0
 10
4895.4032281436557241
 20
-13.2664991902245006
 30
0.0
 40
0.328703367688873
 50
23.5818297133489487
 51
64.1504781464859093
  0
ARC
  5
1F7A8
  8
0
 10
17706.493699651578936
 20
433.8650817084975984
 30
0.0
 40
12818.5677082173606323
 50
181.9990422771471117
 51
182.003073413149508
  0
ARC
  5
1F7A9
  8
0
 10
4895.7192765168847473
 20
-14.1850090575649492
 30
0.0
 40
0.0394783944850151
 50
329.066030852926815
 51
1.953469104020193
  0
ARC
  5
1F7AA
  8
0
 10
4894.9815441323626146
 20
-13.7007731733008704
 30
0.0
 40
0.9219054740501007
 50
316.8517427664535262
 51
326.8201840369359275
  0
ARC
  5
1F7AB
  8
0
 10
4894.9789211912220708
 20
-13.6983003504365008
 30
0.0
 40
0.9255102717796512
 50
276.1245367756765745
 51
316.8511027105313929
  0
ARC
  5
1F7AC
  8
0
 10
4885.8035637668826894
 20
73.9402814114815357
 30
0.0
 40
89.0430888855074443
 50
274.0301797387804186
 51
275.9783663474389073
  0
ARC
  5
1F7AD
  8
0
 10
4883.1189535008106759
 20
111.9378500637891989
 30
0.0
 40
127.1353757308259986
 50
272.2058040774336973
 51
274.0335280723933806
  0
ARC
  5
1F7AE
  8
0
 10
4877.592975340186058
 20
283.8231450466694241
 30
0.0
 40
299.1079971640581903
 50
270.0431138279292895
 51
271.9962772423519937
  0
ARC
  5
1F7AF
  8
0
 10
4876.0345458838501145
 20
-15.31086116631114
 30
0.0
 40
0.1964993449151644
 50
172.36898316447909
 51
177.9946593489416102
  0
ARC
  5
1F7B0
  8
0
 10
4875.3807199181483156
 20
-15.2924684188286495
 30
0.0
 40
0.4575919127608178
 50
356.3267442952957254
 51
358.5578223960006881
  0
ARC
  5
1F7B1
  8
0
 10
4874.4237821682527283
 20
-44.6312839406397615
 30
0.0
 40
29.34356794121706
 50
86.530143302234606
 51
87.2387789463269741
  0
ARC
  5
1F7B2
  8
0
 10
4885.1236921044637711
 20
149.0666374575500015
 30
0.0
 40
164.6501605381126865
 50
266.8930817156531248
 51
268.1691905722922229
  0
ARC
  5
1F7B3
  8
0
 10
4882.7049374809976143
 20
68.6880837632214138
 30
0.0
 40
84.2354974776978764
 50
268.0668692233485899
 51
271.5519192091859964
  0
ARC
  5
1F7B4
  8
0
 10
4884.163499761318235
 20
19.1161217764111591
 30
0.0
 40
34.6424093269090534
 50
271.360923607512575
 51
279.9812059133961952
  0
ARC
  5
1F7B5
  8
0
 10
5379.9635895830833761
 20
-12.7909750126464505
 30
0.0
 40
504.0932370405085976
 50
180.28787444247439
 51
180.3038828120425876
  0
ARC
  5
1F7B6
  8
0
 10
4875.9169222408363567
 20
-15.4643007089375502
 30
0.0
 40
0.0394804738402016
 50
180.361510868772001
 51
228.8879020745779087
  0
ARC
  5
1F7B7
  8
0
 10
19966.2801613957999507
 20
17307.1728915491403313
 30
0.0
 40
22973.781491376201302
 50
228.9397227617486124
 51
228.9416085073953866
  0
ARC
  5
1F7B8
  8
0
 10
4876.4187991532689921
 20
135.5793527078429008
 30
0.0
 40
151.5700574826350078
 50
270.0159912713257881
 51
272.4557912065632195
  0
ARC
  5
1F7B9
  8
0
 10
4879.7991858703089747
 20
55.5921548131562488
 30
0.0
 40
71.5114943441505204
 50
272.495892555549915
 51
276.609853601947691
  0
ARC
  5
1F7BA
  8
0
 10
4883.4527961548110397
 20
22.6040470189653391
 30
0.0
 40
38.3224669722954303
 50
276.8608362227438988
 51
280.3774725362674758
  0
ARC
  5
1F7BB
  8
0
 10
4885.0755065514267699
 20
13.4193778114917102
 30
0.0
 40
28.9957930277804508
 50
280.4926536776242756
 51
281.9495804028966859
  0
ARC
  5
1F7BC
  8
0
 10
4878.401912544217339
 20
-16.0568722843102982
 30
0.0
 40
0.0791355267409172
 50
20.0749989886572102
 51
90.4766740083044567
  0
ARC
  5
1F7BD
  8
0
 10
4740.4365674767295786
 20
-66.30145998084582
 30
0.0
 40
146.908815829402414
 50
19.9964230725758689
 51
20.0107817188801214
  0
ARC
  5
1F7BE
  8
0
 10
5097.9869077697412649
 20
63.7440827993355725
 30
0.0
 40
233.5064298137172045
 50
199.9855044880719106
 51
200.008386202619505
  0
ARC
  5
1F7BF
  8
0
 10
4878.6853178946030312
 20
-16.11153983847883
 30
0.0
 40
0.1181100802528159
 50
199.9997474655912129
 51
269.970590533682298
  0
ARC
  5
1F7C0
  8
0
 10
4879.8911306873724243
 20
-16.05243605091162
 30
0.0
 40
0.0787407113808128
 50
340.0058257316604795
 51
351.3311449056196238
  0
ARC
  5
1F7C1
  8
0
 10
4660.5261343475622198
 20
63.7440827993355725
 30
0.0
 40
233.5064298137172045
 50
339.991613797377795
 51
340.0105646010787268
  0
ARC
  5
1F7C2
  8
0
 10
4879.8277242583480984
 20
-16.111539865831201
 30
0.0
 40
0.1181100374016033
 50
270.0
 51
340.0002590887978045
  0
ARC
  5
1F7C3
  8
0
 10
4880.1232093135204195
 20
-16.0220722221412615
 30
0.0
 40
0.0777840781282795
 50
101.323482562906193
 51
160.0666604559575035
  0
ARC
  5
1F7C4
  8
0
 10
4772.869175465758417
 20
22.95759750387613
 30
0.0
 40
114.0398851619334977
 50
339.9903951509248259
 51
340.0271514799591159
  0
ARC
  5
1F7C5
  8
0
 10
4882.916998244179922
 20
-15.9301893145280804
 30
0.0
 40
0.0787738909751085
 50
20.0177049207845101
 51
92.6531937318725625
  0
ARC
  5
1F7C6
  8
0
 10
-36626.2018156327394536
 20
-15123.2670582251903397
 30
0.0
 40
44172.9049453612678917
 50
19.9988606282055805
 51
19.9990897532045295
  0
ARC
  5
1F7C7
  8
0
 10
4883.1639436470022702
 20
-16.0325770284592117
 30
0.0
 40
0.1183327389521686
 50
198.038250733133907
 51
258.2495792929138929
  0
ARC
  5
1F7C8
  8
0
 10
4885.1953184467383835
 20
-15.7970767940196204
 30
0.0
 40
0.0814284457947829
 50
96.1532431117257147
 51
161.4779719598001861
  0
ARC
  5
1F7C9
  8
0
 10
4891.2170733201810435
 20
-18.162047700109941
 30
0.0
 40
6.5508386493308999
 50
158.5944642391141031
 51
161.4055363571457065
  0
ARC
  5
1F7CA
  8
0
 10
4884.8970595777082053
 20
-16.032598421876159
 30
0.0
 40
0.1183172459359414
 50
281.7652140868601123
 51
339.9322882235355792
  0
ARC
  5
1F7CB
  8
0
 10
4888.3012824456172893
 20
-15.5717513407414998
 30
0.0
 40
0.0394758176087026
 50
95.0975447455682144
 51
141.3959876851585022
  0
ARC
  5
1F7CC
  8
0
 10
4884.7435350112718879
 20
14.5711726303600404
 30
0.0
 40
30.3126972166624498
 50
276.7335637082651942
 51
283.5514194755581912
  0
ARC
  5
1F7CD
  8
0
 10
4912.7660191565992136
 20
-35.0767131507138714
 30
0.0
 40
31.3279221988475207
 50
141.4357008413558106
 51
142.2448960059743115
  0
ARC
  5
1F7CE
  8
0
 10
4892.2389007427300385
 20
-15.8871252149051703
 30
0.0
 40
0.0078860957595623
 50
270.0877544555203826
 51
359.9636498972444087
  0
LINE
  5
1F7CF
  8
0
 10
4888.0221968146961444
 20
-15.8950113014150904
 30
0.0
 11
4888.0222189241521846
 21
-15.9472085327225095
 31
0.0
  0
ARC
  5
1F7D0
  8
0
 10
4888.0421179461400243
 20
-15.9464916024377192
 30
0.0
 40
0.019911932731898
 50
182.0633838211778937
 51
222.7136290186882093
  0
ARC
  5
1F7D1
  8
0
 10
4820.2865277533728658
 20
-83.9486050940342068
 30
0.0
 40
95.9754565440538983
 50
44.8815764671574513
 51
45.1045394581226304
  0
ARC
  5
1F7D2
  8
0
 10
4888.3061296101514017
 20
-16.2085187620609616
 30
0.0
 40
0.0213568084492218
 50
226.9382572408354974
 51
261.6634384268078861
  0
LINE
  5
1F7D3
  8
0
 10
4892.2467868369030839
 20
-15.8556341550725293
 30
0.0
 11
4892.2467868369030839
 21
-16.2099648637726403
 31
0.0
  0
LINE
  5
1F7D4
  8
0
 10
4892.6601726637018146
 20
-15.8556341550725293
 30
0.0
 11
4892.6601726637018146
 21
-16.2099648637726403
 31
0.0
  0
LINE
  5
1F7D5
  8
0
 10
4892.5851372297365742
 20
-15.7768939963753905
 30
0.0
 11
4892.3254631103072825
 21
-15.7768939961725199
 31
0.0
  0
ARC
  5
1F7D6
  8
0
 10
4892.3255270406498312
 20
-15.8556341739678608
 30
0.0
 40
0.0787402037483483
 50
90.0465193048981263
 51
179.9999862506890054
  0
ARC
  5
1F7D7
  8
0
 10
4892.581270788895381
 20
-15.8557011087828901
 30
0.0
 40
0.0789019032140505
 50
0.0486194290935342
 51
87.1912021197992715
  0
ARC
  5
1F7D8
  8
0
 10
4892.6826545481753783
 20
-16.2088063725705496
 30
0.0
 40
0.022511713302788
 50
182.9498416165741901
 51
247.8040247626599921
  0
ARC
  5
1F7D9
  8
0
 10
4892.2270913725951687
 20
-16.2099606010867596
 30
0.0
 40
0.0196954647677566
 50
271.4333445522569832
 51
359.9875994846206027
  0
ARC
  5
1F7DA
  8
0
 10
4892.6680587577748156
 20
-15.8871252149051791
 30
0.0
 40
0.0078860957595542
 50
180.0363501028573125
 51
269.912245544896507
  0
ARC
  5
1F7DB
  8
0
 10
4895.8177828712023256
 20
-15.9343776608724692
 30
0.0
 40
0.0196554245995564
 50
0.0097603312518641
 51
14.7478603071767491
  0
LINE
  5
1F7DC
  8
0
 10
4895.8374382955162218
 20
-15.9343743125530004
 30
0.0
 11
4895.837438057478721
 21
-15.9459052683725293
 31
0.0
  0
ARC
  5
1F7DD
  8
0
 10
4895.8147508394231409
 20
-15.9418567131314308
 30
0.0
 40
0.0230456213292798
 50
308.5592881127735723
 51
349.8820190715400145
  0
LINE
  5
1F7DE
  8
0
 10
4895.8369459650020872
 20
-15.9146892731725291
 30
0.0
 11
4895.8369455088013638
 21
-15.9269089571725306
 31
0.0
  0
LINE
  5
1F7DF
  8
0
 10
4895.8369459650020872
 20
-15.9146892731725291
 30
0.0
 11
4895.8502029490018685
 21
-15.9146892731725291
 31
0.0
  0
LINE
  5
1F7E0
  8
0
 10
4895.8502029490018685
 20
-15.9146892731725291
 30
0.0
 11
4895.8502721571931033
 21
-15.9325790156418492
 31
0.0
  0
LINE
  5
1F7E1
  8
0
 10
4895.8502721571931033
 20
-15.9325790156418492
 30
0.0
 11
4895.8374380676414148
 21
-15.9454130205214692
 31
0.0
  0
ARC
  5
1F7E2
  8
0
 10
4895.8172343609021482
 20
-15.9269089571725306
 30
0.0
 40
0.019711147899972
 50
315.0331915071554931
 51
0.0000000000423395
  0
ARC
  5
1F7E3
  8
0
 10
4895.5333610317311468
 20
-16.208587716714181
 30
0.0
 40
0.021182268310206
 50
276.1037320564890933
 51
317.4613596379562068
  0
LINE
  5
1F7E4
  8
0
 10
4895.5489685835018463
 20
-16.2229087787725206
 30
0.0
 11
4895.8311803191400031
 21
-15.9408387669466691
 31
0.0
  0
CIRCLE
  5
1F7E5
  8
0
 10
4892.1188340809021611
 20
-15.4422483283725391
 30
0.0
 40
0.2086614173000001
  0
CIRCLE
  5
1F7E6
  8
0
 10
4892.7881254195017391
 20
-15.4422483283725391
 30
0.0
 40
0.2086614173000001
  0
CIRCLE
  5
1F7E7
  8
0
 10
4893.4574167581013171
 20
-15.4422483283725391
 30
0.0
 40
0.2086614173000001
  0
LINE
  5
1F7E8
  8
0
 10
4890.1564482648027479
 20
-16.2296499031756802
 30
0.0
 11
4890.190472540753035
 21
-16.3026151984382004
 31
0.0
  0
LINE
  5
1F7E9
  8
0
 10
4890.1781683026028986
 20
-16.2296499031756802
 30
0.0
 11
4890.2083132453017242
 21
-16.2942959412725195
 31
0.0
  0
LINE
  5
1F7EA
  8
0
 10
4890.2089000370060603
 20
-16.3010030013611384
 30
0.0
 11
4890.2280190420024155
 21
-16.229649903172561
 31
0.0
  0
LINE
  5
1F7EB
  8
0
 10
4890.207639589702012
 20
-16.229649903172561
 30
0.0
 11
4890.1968847597208878
 21
-16.2697874749041915
 31
0.0
  0
ARC
  5
1F7EC
  8
0
 10
4890.1993928930523907
 20
-16.298455569821769
 30
0.0
 40
0.0098425196945702
 50
204.999999911805503
 51
24.9999999014756611
  0
ARC
  5
1F7ED
  8
0
 10
4890.2285094883773127
 20
-16.4303222957329211
 30
0.0
 40
0.0241859588095127
 50
55.3481725372688089
 51
74.6440724536505797
  0
ARC
  5
1F7EE
  8
0
 10
4890.2461569968008916
 20
-16.4011381594506602
 30
0.0
 40
0.010072104888859
 50
247.2458858091619049
 51
340.7407809597435744
  0
ARC
  5
1F7EF
  8
0
 10
4890.4388615406442113
 20
-16.0695223266749103
 30
0.0
 40
0.3943165274464309
 50
238.7340669333433141
 51
238.8542337676944101
  0
ARC
  5
1F7F0
  8
0
 10
4890.2357637952773075
 20
-16.4057491795295896
 30
0.0
 40
0.0017605993861947
 50
170.2930833566477133
 51
207.837126776460309
  0
ARC
  5
1F7F1
  8
0
 10
4895.4002999952062964
 20
-18.7279853377353689
 30
0.0
 40
5.6643200611794553
 50
154.7694060598664976
 51
155.7933709592188052
  0
ARC
  5
1F7F2
  8
0
 10
5597.4229601355345949
 20
-346.0865279873075906
 30
0.0
 40
780.2408912742439497
 50
154.9983259582679977
 51
155.0050219461872985
  0
LINE
  5
1F7F3
  8
0
 10
4890.2962624126039373
 20
-16.2296499031756802
 30
0.0
 11
4891.2834076248009296
 21
-17.2167951189723993
 31
0.0
  0
LINE
  5
1F7F4
  8
0
 10
4891.2834076248009296
 20
-17.2167951189723993
 30
0.0
 11
4891.1806211936573163
 21
-17.2702992839544294
 31
0.0
  0
LINE
  5
1F7F5
  8
0
 10
4891.1806211936573163
 20
-17.2702992839544294
 30
0.0
 11
4891.0109202633057066
 21
-16.9443077564819511
 31
0.0
  0
LINE
  5
1F7F6
  8
0
 10
4891.2834076248009296
 20
-17.2167951189723993
 30
0.0
 11
4891.3257062973007123
 21
-17.1755772424724995
 31
0.0
  0
LINE
  5
1F7F7
  8
0
 10
4891.3257062973007123
 20
-17.1755772424724995
 30
0.0
 11
4891.1875315866018354
 21
-17.037402531772539
 31
0.0
  0
LINE
  5
1F7F8
  8
0
 10
4891.1875315866018354
 20
-17.037402531772539
 30
0.0
 11
4891.1457733138022377
 21
-17.0791608042725187
 31
0.0
  0
LINE
  5
1F7F9
  8
0
 10
4891.34162366180135
 20
-17.1803590635725385
 30
0.0
 11
4891.1873868851016596
 21
-17.0261222868725
 31
0.0
  0
LINE
  5
1F7FA
  8
0
 10
4891.1873868851016596
 20
-17.0261222868725
 30
0.0
 11
4891.1400608407511754
 21
-17.0734483312228811
 31
0.0
  0
LINE
  5
1F7FB
  8
0
 10
4891.34162366180135
 20
-17.1803590635725385
 30
0.0
 11
4892.2923328221986594
 21
-16.2296499031758508
 31
0.0
  0
LINE
  5
1F7FC
  8
0
 10
4890.9184731471377745
 20
-16.8518606376359088
 30
0.0
 11
4891.5406122556487389
 21
-16.2296499031725006
 31
0.0
  0
LINE
  5
1F7FD
  8
0
 10
4890.2989841374019306
 20
-16.2323716279723094
 30
0.0
 11
4890.2638695451078092
 21
-16.3076751144757104
 31
0.0
  0
LINE
  5
1F7FE
  8
0
 10
4890.2638695451078092
 20
-16.3076751144757104
 30
0.0
 11
4890.4707641724089626
 21
-16.4041516636165596
 31
0.0
  0
ARC
  5
1F7FF
  8
0
 10
4890.4286256482819226
 20
-16.2816711902394111
 30
0.0
 40
0.2310815346309337
 50
212.7178442479203113
 51
243.4029598235927097
  0
LINE
  5
1F800
  8
0
 10
4890.325167465101913
 20
-16.4882990682725499
 30
0.0
 11
4890.315184356498321
 21
-16.5097079137705016
 31
0.0
  0
LINE
  5
1F801
  8
0
 10
4890.315184356498321
 20
-16.5097079137705016
 30
0.0
 11
4890.4222285832038324
 21
-16.5596240729250894
 31
0.0
  0
LINE
  5
1F802
  8
0
 10
4890.4222285832038324
 20
-16.5596240729250894
 30
0.0
 11
4890.4322304885536141
 21
-16.5381743015447995
 31
0.0
  0
ARC
  5
1F803
  8
0
 10
4890.4433770640725925
 20
-16.28621701373417
 30
0.0
 40
0.2218493857018872
 50
212.207654905087395
 51
231.6017587457344007
  0
ARC
  5
1F804
  8
0
 10
4890.4366905001361374
 20
-16.2926384337618408
 30
0.0
 40
0.2126504539283548
 50
231.9284321876517083
 51
245.6183401250881957
  0
ARC
  5
1F805
  8
0
 10
4890.0095692970517121
 20
-17.1796652614821603
 30
0.0
 40
0.7599930373298653
 50
64.5360158998497582
 51
65.4640223242207355
  0
ARC
  5
1F806
  8
0
 10
4890.3383123562371111
 20
-16.4823705938889411
 30
0.0
 40
0.0113068997674528
 50
259.8689895907410232
 51
339.5352500956752806
  0
LINE
  5
1F807
  8
0
 10
4890.3489056489561335
 20
-16.4863238370813114
 30
0.0
 11
4890.3672032286121976
 21
-16.4470845610503993
 31
0.0
  0
ARC
  5
1F808
  8
0
 10
4890.3571079698685935
 20
-16.441865802118329
 30
0.0
 40
0.0113644046873061
 50
332.6632299866492986
 51
61.8895381164620986
  0
ARC
  5
1F809
  8
0
 10
4890.5497564286788474
 20
-16.5427177554484288
 30
0.0
 40
0.0100624935006375
 50
149.204111339599109
 51
242.8245695086170883
  0
ARC
  5
1F80A
  8
0
 10
4890.5299060897723393
 20
-16.5978072924866993
 30
0.0
 40
0.0485942604415942
 50
64.5402774412197004
 51
71.7044693791706749
  0
LINE
  5
1F80B
  8
0
 10
4890.5507956202018249
 20
-16.5539321324725215
 30
0.0
 11
4890.5525070246021642
 21
-16.5550953652725497
 31
0.0
  0
LINE
  5
1F80C
  8
0
 10
4890.5525070246021642
 20
-16.5550953652725497
 30
0.0
 11
4890.5532866892008315
 21
-16.5553622268725285
 31
0.0
  0
ARC
  5
1F80D
  8
0
 10
4890.5523281646355827
 20
-16.5526365309098509
 30
0.0
 40
0.0028893230739265
 50
289.3748520295329172
 51
331.2707833251320722
  0
ARC
  5
1F80E
  8
0
 10
4888.1304849320658832
 20
-15.3800493394086093
 30
0.0
 40
2.6936634778066728
 50
334.1619593169933182
 51
335.2127034602934827
  0
ARC
  5
1F80F
  8
0
 10
4890.5237151717346933
 20
-16.3287380927770087
 30
0.0
 40
0.2285453407966266
 50
246.4036174590823123
 51
277.4343532387621281
  0
ARC
  5
1F810
  8
0
 10
4890.2691226328106495
 20
-16.8766348524753589
 30
0.0
 40
0.3757122797314516
 50
64.2700723394225264
 51
66.0965923134048268
  0
ARC
  5
1F811
  8
0
 10
4890.4281191976178889
 20
-16.5243031605666388
 30
0.0
 40
0.0111315842031964
 50
150.1107749875914976
 51
232.6102945409448068
  0
LINE
  5
1F812
  8
0
 10
4890.4184682201012038
 20
-16.5187560171725494
 30
0.0
 11
4890.4367637620016467
 21
-16.4795211704725197
 31
0.0
  0
ARC
  5
1F813
  8
0
 10
4890.4472514393992242
 20
-16.4839018703970517
 30
0.0
 40
0.011365821968537
 50
68.1174731421368023
 51
157.329719760132491
  0
LINE
  5
1F814
  8
0
 10
4890.4248157572019409
 20
-16.4609177016725283
 30
0.0
 11
4890.473746399101401
 21
-16.4837344347725292
 31
0.0
  0
LINE
  5
1F815
  8
0
 10
4890.3402037062023737
 20
-16.4214624543725307
 30
0.0
 11
4890.3891343481782314
 21
-16.4442791874614507
 31
0.0
  0
LINE
  5
1F816
  8
0
 10
4890.419083673800742
 20
-16.3800526513725089
 30
0.0
 11
4890.3805206487832038
 21
-16.4627513254321087
 31
0.0
  0
LINE
  5
1F817
  8
0
 10
4890.4547650827807956
 20
-16.3966911656183782
 30
0.0
 11
4890.4162254976017721
 21
-16.4793402282724983
 31
0.0
  0
LINE
  5
1F818
  8
0
 10
4890.3805206487832038
 20
-16.4627513254321087
 30
0.0
 11
4890.3650648199018178
 21
-16.4964481756725085
 31
0.0
  0
LINE
  5
1F819
  8
0
 10
4890.4162254976017721
 20
-16.4793402282724983
 30
0.0
 11
4890.4012032207692755
 21
-16.5114823094564116
 31
0.0
  0
ARC
  5
1F81A
  8
0
 10
4890.3456227443957687
 20
-16.4116581677475111
 30
0.0
 40
0.0112022324191052
 50
151.749733259614203
 51
241.0696356920711025
  0
ARC
  5
1F81B
  8
0
 10
4890.4777739812670916
 20
-16.4732819459620501
 30
0.0
 40
0.0112016043685682
 50
248.9271890458917937
 51
338.2534411582685152
  0
ARC
  5
1F81C
  8
0
 10
4890.3762790801456504
 20
-16.4993351217412183
 30
0.0
 40
0.0115799002770508
 50
165.5635132833301952
 51
239.5548254726033122
  0
ARC
  5
1F81D
  8
0
 10
4890.3907256599450193
 20
-16.5056284974702798
 30
0.0
 40
0.0120019329944037
 50
245.9479481152048095
 51
330.8079128656045214
  0
LINE
  5
1F81E
  8
0
 10
4890.3704113866024272
 20
-16.5093183207725183
 30
0.0
 11
4890.3858340752012737
 21
-16.5165883694725011
 31
0.0
  0
ARC
  5
1F81F
  8
0
 10
4890.5110518835736002
 20
-16.3181676023806794
 30
0.0
 40
0.221448168759393
 50
258.4091040480741981
 51
277.8018102951426727
  0
ARC
  5
1F820
  8
0
 10
4890.4940258039432592
 20
-16.3867867094839816
 30
0.0
 40
0.1508352022101497
 50
240.1678944424886026
 51
259.5076273576506196
  0
ARC
  5
1F821
  8
0
 10
3462.69966151730614
 20
649.3543674473230567
 30
0.0
 40
1575.4819189397890113
 50
334.9974116635177097
 51
334.999137488207225
  0
LINE
  5
1F822
  8
0
 10
4890.2692409822029731
 20
-16.3753399699725009
 30
0.0
 11
4890.3941259024613828
 21
-16.4335747647535086
 31
0.0
  0
LINE
  5
1F823
  8
0
 10
4890.4298074740208904
 20
-16.4502133548293017
 30
0.0
 11
4890.5546905226074159
 21
-16.5084510449478685
 31
0.0
  0
LINE
  5
1F824
  8
0
 10
4878.4888341724936254
 20
-16.0643041242622999
 30
0.0
 11
4880.0250740484816561
 21
-16.0643041242622999
 31
0.0
  0
CIRCLE
  5
1F825
  8
0
 10
4892.7881254198018723
 20
-15.4422483283724805
 30
0.0
 40
0.1892769129000271
  0
CIRCLE
  5
1F826
  8
0
 10
4892.1188340813014293
 20
-15.4422483283724805
 30
0.0
 40
0.1892769129000271
  0
CIRCLE
  5
1F827
  8
0
 10
4893.4574167581013171
 20
-15.4422483283725391
 30
0.0
 40
0.189276912900084
  0
ARC
  5
1F828
  8
0
 10
5790.3384798981251151
 20
-628.3425178503914594
 30
0.0
 40
1090.0456679808519311
 50
145.7788689634278114
 51
145.7866688131678927
  0
ARC
  5
1F829
  8
0
 10
4888.8829049497062442
 20
-15.4053364273682796
 30
0.0
 40
0.0525823549532274
 50
288.1350503157700018
 51
324.0376134501306069
  0
LINE
  5
1F82A
  8
0
 10
4895.829115731168713
 20
-15.9598775496151593
 30
0.0
 11
4895.8121328997522141
 21
-15.9598766209180507
 31
0.0
  0
LINE
  5
1F82B
  8
0
 10
4885.0844508929012591
 20
-15.8589130592361407
 30
0.0
 11
4885.6816266022296986
 21
-15.8853999926894094
 31
0.0
  0
ARC
  5
1F82C
  8
0
 10
4885.299949795901739
 20
-15.8718973239452694
 30
0.0
 40
0.0078740158802438
 50
179.0000004170051113
 51
268.9999990560604033
  0
ARC
  5
1F82D
  8
0
 10
4885.170120313244297
 20
-15.8681536792875395
 30
0.0
 40
0.1220099718938326
 50
358.3062735045674003
 51
0.0137485896939185
  0
LINE
  5
1F82E
  8
0
 10
4885.2998123752704487
 20
-15.8797701405729104
 30
0.0
 11
4885.6784978827308805
 21
-15.8863404099166505
 31
0.0
  0
ARC
  5
1F82F
  8
0
 10
4885.6778449876692321
 20
-15.8784935091727402
 30
0.0
 40
0.0078740157001335
 50
274.7562935720308133
 51
298.7027144090762931
  0
ARC
  5
1F830
  8
0
 10
4885.2767787368411518
 20
-2.740913989278098
 30
0.0
 40
13.0315334422167908
 50
269.3018876328243891
 51
278.6219557082541769
  0
LINE
  5
1F831
  8
0
 10
4885.8845552578695788
 20
-15.8736119108728904
 30
0.0
 11
4885.8845552578695788
 21
-15.7582666984923598
 31
0.0
  0
ARC
  5
1F832
  8
0
 10
4885.8632096087712853
 20
-15.8730409984868697
 30
0.0
 40
0.0213532825672102
 50
288.4481033904945093
 51
358.4679278924708115
  0
ARC
  5
1F833
  8
0
 10
4885.7479378849266141
 20
-7.216219030400949
 30
0.0
 40
8.5386334213829507
 50
279.9981939188583056
 51
285.5084860235224937
  0
LINE
  5
1F834
  8
0
 10
4884.8897309646654321
 20
-14.1077549858962197
 30
0.0
 11
4884.897511283368658
 21
-13.6620208241728704
 31
0.0
  0
LINE
  5
1F835
  8
0
 10
4885.7637657638688324
 20
-13.6631201883728703
 30
0.0
 11
4885.7573728726401896
 21
-14.0293686800242003
 31
0.0
  0
ARC
  5
1F836
  8
0
 10
4884.930110069463808
 20
-13.6631518237134504
 30
0.0
 40
0.03261839994233
 50
100.4499659794134061
 51
178.0129469197416086
  0
ARC
  5
1F837
  8
0
 10
4885.7322744978673654
 20
-13.6625705062780103
 30
0.0
 40
0.0314960630051015
 50
358.9999999960826926
 51
89.9999999961438419
  0
LINE
  5
1F838
  8
0
 10
4884.9211846671487365
 20
-16.1484299838327701
 30
0.0
 11
4883.1398453101483028
 21
-16.1484299838327701
 31
0.0
  0
LINE
  5
1F839
  8
0
 10
4893.3173052440315587
 20
-12.6961386660229198
 30
0.0
 11
4893.3265626012789653
 21
-12.6961386660229198
 31
0.0
  0
LINE
  5
1F83A
  8
0
 10
4885.6816266022296986
 20
-15.8853999926894094
 30
0.0
 11
4885.7755241384656983
 21
-15.8932969501728802
 31
0.0
  0
LINE
  5
1F83B
  8
0
 10
4878.6852572745792713
 20
-16.2296499031750585
 30
0.0
 11
4879.8277242583480984
 21
-16.2296499031750585
 31
0.0
  0
LINE
  5
1F83C
  8
0
 10
4888.3030331375839523
 20
-16.2296499031750585
 30
0.0
 11
4895.5356133177356242
 21
-16.2296499031750585
 31
0.0
  0
LINE
  5
1F83D
  8
0
 10
4884.9241938477916847
 20
-13.6310744432728796
 30
0.0
 11
4885.7322744978673654
 21
-13.6310744432728796
 31
0.0
  0
LINE
  5
1F83E
  8
0
 10
4884.9241938477916847
 20
-13.6310744432728796
 30
0.0
 11
4885.7322744978673654
 21
-13.6310744432728796
 31
0.0
  0
LINE
  5
1F83F
  8
0
 10
4885.7755241384656983
 20
-15.8932969501728802
 30
0.0
 11
4885.8699667603668786
 21
-15.8932969501728802
 31
0.0
  0
LINE
  5
1F840
  8
0
 10
4875.5935243242156503
 20
-15.2847674364016797
 30
0.0
 11
4877.8180475812732766
 21
-15.2847674364016797
 31
0.0
  0
LINE
  5
1F841
  8
0
 10
4887.9970663434169182
 20
-15.8950113014150904
 30
0.0
 11
4892.2389128211034404
 21
-15.8950113014150904
 31
0.0
  0
LINE
  5
1F842
  8
0
 10
4892.6680466794068707
 20
-15.8950113014150904
 30
0.0
 11
4895.8556701776406044
 21
-15.8950113014150904
 31
0.0
  0
LINE
  5
1F843
  8
0
 10
4895.5346592304131264
 20
-16.2493349424721991
 30
0.0
 11
4892.8639204119872375
 21
-16.2493349424721991
 31
0.0
  0
LINE
  5
1F844
  8
0
 10
4893.5966053991987792
 20
-16.2650829739721807
 30
0.0
 11
4895.1714085487992634
 21
-16.2650829739721807
 31
0.0
  0
ARC
  5
1F845
  8
0
 10
4892.8657113755289174
 20
-16.2234462097813683
 30
0.0
 40
0.0259506075217237
 50
193.8309336554318918
 51
266.0426249845393727
  0
LINE
  5
1F846
  8
0
 10
4895.8291157311768984
 20
-15.9598775496151593
 30
0.0
 11
4895.5847937580992948
 21
-16.2041956829685603
 31
0.0
  0
LINE
  5
1F847
  8
0
 10
4895.5847937580992948
 20
-16.2041956829685603
 30
0.0
 11
4895.5847937580992948
 21
-16.2074849037827704
 31
0.0
  0
LINE
  5
1F848
  8
0
 10
4895.5847937580992948
 20
-16.2074849037827704
 30
0.0
 11
4895.5488013232588855
 21
-16.2434771208748785
 31
0.0
  0
ARC
  5
1F849
  8
0
 10
4895.5346592304131264
 20
-16.2293349424722102
 30
0.0
 40
0.02
 50
269.999999999895806
 51
314.9998266840805741
  0
LINE
  5
1F84A
  8
0
 10
4895.8531856484050877
 20
-15.9325827101555308
 30
0.0
 11
4895.836608737881761
 21
-15.9491596534564106
 31
0.0
  0
LINE
  5
1F84B
  8
0
 10
4895.1714085487992634
 20
-16.2493349424721991
 30
0.0
 11
4895.1714085487992634
 21
-16.2650829739721807
 31
0.0
  0
LINE
  5
1F84C
  8
0
 10
4893.5966053991987792
 20
-16.2493349424721991
 30
0.0
 11
4893.5966053991987792
 21
-16.2650829739721807
 31
0.0
  0
CIRCLE
  5
1F84D
  8
0
 10
4894.126683741998022
 20
-15.4370134880827692
 30
0.0
 40
0.1586622040995994
  0
CIRCLE
  5
1F84E
  8
0
 10
4894.126683741998022
 20
-15.4370134880827692
 30
0.0
 40
0.0787445084
  0
ENDSEC
  0
EOF
