  0
SECTION
  2
HEADER
  9
$ACADVER
  1
AC1009
  9
$INSBASE
 10
6633.818045096424612
 20
182.8511044642968955
 30
0.0
  9
$EXTMIN
 10
6616.9098704627804182
 20
173.598027541436295
 30
-0.0015258207003583
  9
$EXTMAX
 10
6666.7543748916750701
 20
192.1089359360659046
 30
0.0000000349246037
  9
$LIMMIN
 10
0.0
 20
0.0
  9
$LIMMAX
 10
11.6929133858000007
 20
8.2677165353999982
  9
$ORTHOMODE
 70
     0
  9
$REGENMODE
 70
     1
  9
$FILLMODE
 70
     1
  9
$QTEXTMODE
 70
     0
  9
$MIRRTEXT
 70
     0
  9
$DRAGMODE
 70
     2
  9
$LTSCALE
 40
0.6431102362
  9
$OSMODE
 70
  4095
  9
$ATTMODE
 70
     1
  9
$TEXTSIZE
 40
0.2
  9
$TRACEWID
 40
0.05
  9
$TEXTSTYLE
  7
STANDARD
  9
$CLAYER
  8
0
  9
$CELTYPE
  6
BYLAYER
  9
$CECOLOR
 62
   256
  9
$DIMSCALE
 40
1.0
  9
$DIMASZ
 40
0.1875
  9
$DIMEXO
 40
0.0625
  9
$DIMDLI
 40
0.4443307087
  9
$DIMRND
 40
0.0
  9
$DIMDLE
 40
0.0
  9
$DIMEXE
 40
0.125
  9
$DIMTP
 40
0.01
  9
$DIMTM
 40
0.01
  9
$DIMTXT
 40
2.0
  9
$DIMCEN
 40
0.1052362205
  9
$DIMTSZ
 40
0.0
  9
$DIMTOL
 70
     1
  9
$DIMLIM
 70
     0
  9
$DIMTIH
 70
     1
  9
$DIMTOH
 70
     1
  9
$DIMSE1
 70
     0
  9
$DIMSE2
 70
     0
  9
$DIMTAD
 70
     0
  9
$DIMZIN
 70
     0
  9
$DIMBLK
  1

  9
$DIMASO
 70
     1
  9
$DIMSHO
 70
     1
  9
$DIMPOST
  1
\X
  9
$DIMAPOST
  1

  9
$DIMALT
 70
     1
  9
$DIMALTD
 70
     2
  9
$DIMALTF
 40
25.3999999999999986
  9
$DIMLFAC
 40
1.0
  9
$DIMTOFL
 70
     0
  9
$DIMTVP
 40
0.0
  9
$DIMTIX
 70
     0
  9
$DIMSOXD
 70
     0
  9
$DIMSAH
 70
     0
  9
$DIMBLK1
  1

  9
$DIMBLK2
  1

  9
$DIMSTYLE
  2
STANDARD
  9
$DIMCLRD
 70
     0
  9
$DIMCLRE
 70
     0
  9
$DIMCLRT
 70
     0
  9
$DIMTFAC
 40
1.0
  9
$DIMGAP
 40
0.09
  9
$LUNITS
 70
     2
  9
$LUPREC
 70
     4
  9
$SKETCHINC
 40
0.1
  9
$FILLETRAD
 40
0.0
  9
$AUNITS
 70
     0
  9
$AUPREC
 70
     0
  9
$MENU
  1
.
  9
$ELEVATION
 40
0.0
  9
$PELEVATION
 40
0.0
  9
$THICKNESS
 40
0.0
  9
$LIMCHECK
 70
     0
  9
$BLIPMODE
 70
     0
  9
$CHAMFERA
 40
0.0
  9
$CHAMFERB
 40
0.0
  9
$SKPOLY
 70
     0
  9
$TDCREATE
 40
2458060.468368056230247
  9
$TDUPDATE
 40
2460291.5503009259700775
  9
$TDINDWG
 40
0.8428542824
  9
$TDUSRTIMER
 40
0.8428542824
  9
$USRTIMER
 70
     1
  9
$ANGBASE
 50
0.0
  9
$ANGDIR
 70
     0
  9
$PDMODE
 70
     0
  9
$PDSIZE
 40
0.3125
  9
$PLINEWID
 40
0.0
  9
$COORDS
 70
     1
  9
$SPLFRAME
 70
     0
  9
$SPLINETYPE
 70
     6
  9
$SPLINESEGS
 70
     8
  9
$ATTDIA
 70
     1
  9
$ATTREQ
 70
     1
  9
$HANDLING
 70
     1
  9
$HANDSEED
  5
2FA55
  9
$SURFTAB1
 70
     6
  9
$SURFTAB2
 70
     6
  9
$SURFTYPE
 70
     6
  9
$SURFU
 70
     6
  9
$SURFV
 70
     6
  9
$UCSNAME
  2

  9
$UCSORG
 10
0.0
 20
0.0
 30
0.0
  9
$UCSXDIR
 10
1.0
 20
0.0
 30
0.0
  9
$UCSYDIR
 10
0.0
 20
1.0
 30
0.0
  9
$PUCSNAME
  2

  9
$PUCSORG
 10
0.0
 20
0.0
 30
0.0
  9
$PUCSXDIR
 10
1.0
 20
0.0
 30
0.0
  9
$PUCSYDIR
 10
0.0
 20
1.0
 30
0.0
  9
$USERI1
 70
     0
  9
$USERI2
 70
     0
  9
$USERI3
 70
     0
  9
$USERI4
 70
     0
  9
$USERI5
 70
     0
  9
$USERR1
 40
0.0
  9
$USERR2
 40
0.0
  9
$USERR3
 40
0.0
  9
$USERR4
 40
0.0
  9
$USERR5
 40
0.0
  9
$WORLDVIEW
 70
     1
  9
$SHADEDGE
 70
     3
  9
$SHADEDIF
 70
    70
  9
$TILEMODE
 70
     1
  9
$MAXACTVP
 70
    64
  9
$PLIMCHECK
 70
     0
  9
$PEXTMIN
 10
1.0000000000000000E+20
 20
1.0000000000000000E+20
 30
1.0000000000000000E+20
  9
$PEXTMAX
 10
-1.0000000000000000E+20
 20
-1.0000000000000000E+20
 30
-1.0000000000000000E+20
  9
$PLIMMIN
 10
0.0
 20
0.0
  9
$PLIMMAX
 10
12.0
 20
9.0
  9
$UNITMODE
 70
     0
  9
$VISRETAIN
 70
     1
  9
$PLINEGEN
 70
     0
  9
$PSLTSCALE
 70
     1
  0
ENDSEC
  0
SECTION
  2
TABLES
  0
TABLE
  2
VPORT
 70
     1
  0
VPORT
  2
*ACTIVE
 70
     0
 10
0.0
 20
0.0
 11
1.0
 21
1.0
 12
2730.4667662319147894
 22
50.273876636212087
 13
0.0
 23
0.0
 14
1.0
 24
1.0
 15
0.0
 25
0.0
 16
0.0
 26
0.0
 36
60.4960186965801583
 17
3911.3653564453120453
 27
132.5796051025390057
 37
0.0
 40
18.6774233127222189
 41
2.8453453453453448
 42
50.0
 43
0.0
 44
0.0
 50
0.0
 51
0.0
 71
     0
 72
   100
 73
     1
 74
     1
 75
     0
 76
     0
 77
     0
 78
     0
  0
ENDTAB
  0
TABLE
  2
LTYPE
 70
     2
  0
LTYPE
  2
CONTINUOUS
 70
     0
  3
Solid line
 72
    65
 73
     0
 40
0.0
  0
LTYPE
  2
PHANTOM2
 70
     0
  3
___ _ _ ___ _ _ ___ _ _ ___ _ _
 72
    65
 73
     6
 40
1.25
 49
0.625
 49
-0.125
 49
0.125
 49
-0.125
 49
0.125
 49
-0.125
  0
ENDTAB
  0
TABLE
  2
LAYER
 70
     2
  0
LAYER
  2
0
 70
     0
 62
   255
  6
CONTINUOUS
  0
LAYER
  2
DEFPOINTS
 70
     0
 62
     7
  6
CONTINUOUS
  0
ENDTAB
  0
TABLE
  2
STYLE
 70
     1
  0
STYLE
  2
STANDARD
 70
     0
 40
0.0
 41
0.8
 50
0.0
 71
     0
 42
0.2
  3
txt
  4

  0
ENDTAB
  0
TABLE
  2
VIEW
 70
     0
  0
ENDTAB
  0
TABLE
  2
UCS
 70
     0
  0
ENDTAB
  0
TABLE
  2
APPID
 70
    11
  0
APPID
  2
ACAD
 70
     0
  0
APPID
  2
ACAD_MLEADERVER
 70
     0
  0
APPID
  2
ACAD_EXEMPT_FROM_CAD_STANDARDS
 70
     0
  0
APPID
  2
ACAD_NAV_VCDISPLAY
 70
     0
  0
APPID
  2
ACAECLAYERSTANDARD
 70
     0
  0
APPID
  2
ACCMTRANSPARENCY
 70
     0
  0
APPID
  2
ACAD_DSTYLE_DIMJAG
 70
     0
  0
APPID
  2
ACAD_DSTYLE_DIMTALN
 70
     0
  0
APPID
  2
ACDBATTR
 70
     0
  0
APPID
  2
ACADANNOTATIVE
 70
     0
  0
APPID
  2
DCO15
 70
     0
  0
ENDTAB
  0
TABLE
  2
DIMSTYLE
 70
     1
  0
DIMSTYLE
  2
STANDARD
 70
     0
  3

  4

  5

  6

  7

 40
1.0
 41
0.1875
 42
0.0625
 43
0.38
 44
0.125
 45
0.0
 46
0.0
 47
0.01
 48
0.01
140
0.15625
141
0.09
142
0.0
143
25.3999999999999986
144
1.0
145
0.0
146
1.0
147
0.09
 71
     1
 72
     0
 73
     1
 74
     1
 75
     0
 76
     0
 77
     0
 78
     4
170
     0
171
     2
172
     0
173
     0
174
     0
175
     0
176
     0
177
     0
178
     0
  0
ENDTAB
  0
ENDSEC
  0
SECTION
  2
BLOCKS
  0
BLOCK
  8
0
  2
$MODEL_SPACE
 70
     0
 10
0.0
 20
0.0
 30
0.0
  3
$MODEL_SPACE
  1

  0
ENDBLK
  5
21
  8
0
  0
BLOCK
 67
     1
  8
0
  2
$PAPER_SPACE
 70
     0
 10
0.0
 20
0.0
 30
0.0
  3
$PAPER_SPACE
  1

  0
ENDBLK
  5
1D
 67
     1
  8
0
  0
BLOCK
  8
0
  2
_FILLED
 70
     0
 10
0.0
 20
0.0
 30
0.0
  3
_FILLED
  1

  0
SOLID
  5
257AF
  8
0
  6
BYBLOCK
 62
     0
 10
0.0
 20
0.0
 30
0.0
 11
-1.0
 21
0.1666666667
 31
0.0
 12
-1.0
 22
-0.1666666667
 32
0.0
 13
-1.0
 23
-0.1666666667
 33
0.0
  0
ENDBLK
  5
257B0
  8
0
  6
BYBLOCK
 62
     0
  0
ENDSEC
  0
SECTION
  2
ENTITIES
  0
ATTDEF
  5
256E4
  8
DEFPOINTS
 10
6633.8083943318497404
 20
182.855941475539197
 30
0.0
 40
0.001
  1
K-28408T-2HD
  3

  2
MODELNUMBER
 70
     0
1001
ACDBATTR
1070
     0
1070
     1
  0
ATTDEF
  5
256E5
  8
DEFPOINTS
 10
6633.8082685221934298
 20
182.8542746351600101
 30
0.0
 40
0.001
  1
PURIST/ATOM
  3

  2
TRADENAME
 70
     0
1001
ACDBATTR
1070
     0
1070
     1
  0
ATTDEF
  5
256E6
  8
DEFPOINTS
 10
6633.8083943318497404
 20
182.8526081422058098
 30
0.0
 40
0.001
  1
KITCHEN SINK
  3

  2
PRODUCT
 70
     0
1001
ACDBATTR
1070
     0
1070
     1
  0
LINE
  5
2F375
  8
0
 10
6617.2826120255731439
 20
175.7645359603469899
 30
0.0
 11
6617.2826120255731439
 21
189.937672968247
 31
0.0
  0
LINE
  5
2F376
  8
0
 10
6650.3534781672742611
 20
175.7645359603469899
 30
0.0
 11
6650.3534781672742611
 21
189.937672968247
 31
0.0
  0
LINE
  5
2F377
  8
0
 10
6656.2202037200731866
 20
186.6266950155469999
 30
0.0
 11
6656.2202037200731866
 21
188.5951989524469923
 31
0.0
  0
LINE
  5
2F378
  8
0
 10
6656.2674478144735986
 20
177.673961157147005
 30
0.0
 11
6656.2674478144735986
 21
189.5243107635469926
 31
0.0
  0
LINE
  5
2F379
  8
0
 10
6657.7871328538749367
 20
176.4527356820470061
 30
0.0
 11
6657.7871328538749367
 21
177.5230776086750097
 31
0.0
  0
LINE
  5
2F37A
  8
0
 10
6657.7871328538749367
 20
177.6689139604918921
 30
0.0
 11
6657.7871328538749367
 21
189.5293579602019918
 31
0.0
  0
LINE
  5
2F37B
  8
0
 10
6657.7871328538749367
 20
189.6751943120189026
 30
0.0
 11
6657.7871328538749367
 21
190.7455362386469915
 31
0.0
  0
LINE
  5
2F37C
  8
0
 10
6657.8973690742732288
 20
177.5776623436989041
 30
0.0
 11
6657.8973690742732288
 21
189.6206095769950934
 31
0.0
  0
LINE
  5
2F37D
  8
0
 10
6657.8973690742732288
 20
189.7537798641785969
 30
0.0
 11
6657.8973690742732288
 21
190.7455362386469915
 31
0.0
  0
LINE
  5
2F37E
  8
0
 10
6658.5745344286733598
 20
177.3629154878470047
 30
0.0
 11
6658.5745344286733598
 21
189.8353564328469929
 31
0.0
  0
LINE
  5
2F37F
  8
0
 10
6658.5745344286733598
 20
189.9455926533470063
 30
0.0
 11
6658.5745344286733598
 21
190.7455362386469915
 31
0.0
  0
LINE
  5
2F380
  8
0
 10
6658.6847706490725614
 20
177.3629154878470047
 30
0.0
 11
6658.6847706490725614
 21
189.8353564328469929
 31
0.0
  0
LINE
  5
2F381
  8
0
 10
6658.6847706490725614
 20
189.9455926533470063
 30
0.0
 11
6658.6847706490725614
 21
190.7455362386469915
 31
0.0
  0
LINE
  5
2F382
  8
0
 10
6659.3619360035727368
 20
177.3629154878470047
 30
0.0
 11
6659.3619360035727368
 21
189.8353564328469929
 31
0.0
  0
LINE
  5
2F383
  8
0
 10
6659.3619360035727368
 20
189.9455926533470063
 30
0.0
 11
6659.3619360035727368
 21
190.7455362386469915
 31
0.0
  0
LINE
  5
2F384
  8
0
 10
6659.4721722239737574
 20
177.3629154878470047
 30
0.0
 11
6659.4721722239737574
 21
189.8353564328469929
 31
0.0
  0
LINE
  5
2F385
  8
0
 10
6659.4721722239737574
 20
189.9455926533470063
 30
0.0
 11
6659.4721722239737574
 21
190.7455362386469915
 31
0.0
  0
LINE
  5
2F386
  8
0
 10
6660.149337578273844
 20
177.3629154878470047
 30
0.0
 11
6660.149337578273844
 21
189.8353564328469929
 31
0.0
  0
LINE
  5
2F387
  8
0
 10
6660.149337578273844
 20
189.9455926533470063
 30
0.0
 11
6660.149337578273844
 21
190.7455362385470039
 31
0.0
  0
LINE
  5
2F388
  8
0
 10
6660.2595737988740439
 20
177.3629154878470047
 30
0.0
 11
6660.2595737988740439
 21
189.8353564328469929
 31
0.0
  0
LINE
  5
2F389
  8
0
 10
6660.2595737988740439
 20
189.9455926533470063
 30
0.0
 11
6660.2595737988740439
 21
190.7455362385470039
 31
0.0
  0
LINE
  5
2F38A
  8
0
 10
6660.936739153173221
 20
177.3629154878470047
 30
0.0
 11
6660.936739153173221
 21
189.8353564328469929
 31
0.0
  0
LINE
  5
2F38B
  8
0
 10
6660.936739153173221
 20
189.9455926533470063
 30
0.0
 11
6660.936739153173221
 21
190.7455362386469915
 31
0.0
  0
LINE
  5
2F38C
  8
0
 10
6661.0469753735724225
 20
177.3629154878470047
 30
0.0
 11
6661.0469753735724225
 21
189.8353564328469929
 31
0.0
  0
LINE
  5
2F38D
  8
0
 10
6661.0469753735724225
 20
189.9455926533470063
 30
0.0
 11
6661.0469753735724225
 21
190.7455362386469915
 31
0.0
  0
LINE
  5
2F38E
  8
0
 10
6657.3225659247736985
 20
184.8550414722469952
 30
0.0
 11
6657.3225659247736985
 21
186.7133091887469902
 31
0.0
  0
LINE
  5
2F38F
  8
0
 10
6657.3225659247736985
 20
186.8235454092470036
 30
0.0
 11
6657.3225659247736985
 21
188.2881123383469912
 31
0.0
  0
LINE
  5
2F390
  8
0
 10
6657.3225659247736985
 20
188.3983485588468909
 30
0.0
 11
6657.3225659247736985
 21
188.7093926533470096
 31
0.0
  0
LINE
  5
2F391
  8
0
 10
6657.4328021451729001
 20
184.8550414722469952
 30
0.0
 11
6657.4328021451729001
 21
186.7133091887469902
 31
0.0
  0
LINE
  5
2F392
  8
0
 10
6657.4328021451729001
 20
186.8235454092470036
 30
0.0
 11
6657.4328021451729001
 21
188.2881123383469912
 31
0.0
  0
LINE
  5
2F393
  8
0
 10
6657.4328021451729001
 20
188.3983485588468909
 30
0.0
 11
6657.4328021451729001
 21
188.7093564328469881
 31
0.0
  0
LINE
  5
2F394
  8
0
 10
6619.4480120255748261
 20
192.1030729682470053
 30
0.0
 11
6648.1880781672743979
 21
192.1030729682470053
 31
0.0
  0
LINE
  5
2F395
  8
0
 10
6648.1880781672743979
 20
173.599135960347013
 30
0.0
 11
6619.4480120255748261
 21
173.599135960347013
 31
0.0
  0
ARC
  5
2F396
  8
0
 10
6619.4480120255748261
 20
189.937672968247
 30
0.0
 40
2.1653999999999991
 50
90.0
 51
180.0
  0
ARC
  5
2F397
  8
0
 10
6648.1880781672743979
 20
189.937672968247
 30
0.0
 40
2.1653999999999991
 50
0.0
 51
90.0
  0
ARC
  5
2F398
  8
0
 10
6648.1880781672743979
 20
175.7645359603469899
 30
0.0
 40
2.1653999999999991
 50
270.0
 51
0.0
  0
ARC
  5
2F399
  8
0
 10
6619.4480120255748261
 20
175.7645359603469899
 30
0.0
 40
2.1653999999999991
 50
180.0
 51
270.0
  0
LINE
  5
2F39A
  8
0
 10
6632.5491383493736066
 20
191.2508095639927035
 30
0.0
 11
6619.4648754206737067
 21
191.2508095639927035
 31
0.0
  0
LINE
  5
2F39B
  8
0
 10
6618.1348754206737794
 20
189.920809563992691
 30
0.0
 11
6618.1348754206737794
 21
175.7813993560926917
 31
0.0
  0
LINE
  5
2F39C
  8
0
 10
6619.4648754206737067
 20
174.4513993560927076
 30
0.0
 11
6632.5491383493736066
 21
174.4513993560927076
 31
0.0
  0
LINE
  5
2F39D
  8
0
 10
6633.8791383493744434
 20
189.920809563992691
 30
0.0
 11
6633.8791383493744434
 21
175.7813993560926917
 31
0.0
  0
ARC
  5
2F39E
  8
0
 10
6632.5491383493736066
 20
189.920809563992691
 30
0.0
 40
1.3300000000000001
 50
0.0
 51
90.0
  0
ARC
  5
2F39F
  8
0
 10
6619.4648754206737067
 20
189.920809563992691
 30
0.0
 40
1.3300000000000001
 50
90.0
 51
180.0
  0
ARC
  5
2F3A0
  8
0
 10
6619.4648754206737067
 20
175.7813993560926917
 30
0.0
 40
1.3300000000000001
 50
180.0
 51
270.0
  0
ARC
  5
2F3A1
  8
0
 10
6632.5491383493736066
 20
175.7813993560926917
 30
0.0
 40
1.3300000000000001
 50
270.0
 51
0.0
  0
LINE
  5
2F3A2
  8
0
 10
6632.4016701105729226
 20
190.3831559871827892
 30
0.0
 11
6619.6123728357733853
 21
190.3831559871827892
 31
0.0
  0
LINE
  5
2F3A3
  8
0
 10
6632.5474273319732674
 20
190.8990693770469989
 30
0.0
 11
6619.4666156167722875
 21
190.8990693770469989
 31
0.0
  0
LINE
  5
2F3A4
  8
0
 10
6618.4866156167736335
 20
189.9190693770470091
 30
0.0
 11
6618.4866156167736335
 21
175.7831395516469968
 31
0.0
  0
LINE
  5
2F3A5
  8
0
 10
6632.5474273319732674
 20
174.803139551647007
 30
0.0
 11
6619.4666156167722875
 21
174.803139551647007
 31
0.0
  0
LINE
  5
2F3A6
  8
0
 10
6633.5274273319737404
 20
175.7831395516469968
 30
0.0
 11
6633.5274273319737404
 21
189.9190693770470091
 31
0.0
  0
ARC
  5
2F3A7
  8
0
 10
6632.5474273319732674
 20
175.7831395516469968
 30
0.0
 40
0.98
 50
270.0
 51
0.0
  0
ARC
  5
2F3A8
  8
0
 10
6632.5474273319732674
 20
189.9190693770470091
 30
0.0
 40
0.98
 50
0.0
 51
90.0
  0
ARC
  5
2F3A9
  8
0
 10
6619.4666156167722875
 20
189.9190693770470091
 30
0.0
 40
0.98
 50
90.0
 51
180.0
  0
ARC
  5
2F3AA
  8
0
 10
6619.4666156167722875
 20
175.7831395516469968
 30
0.0
 40
0.98
 50
180.0
 51
270.0
  0
LINE
  5
2F3AB
  8
0
 10
6632.4016701105729226
 20
175.319044638854308
 30
0.0
 11
6619.6123728357733853
 21
175.319044638854308
 31
0.0
  0
ARC
  5
2F3AC
  8
0
 10
6632.4016701105729226
 20
176.3054446388543113
 30
0.0
 40
0.9864000000000001
 50
270.0
 51
0.0
  0
ARC
  5
2F3AD
  8
0
 10
6632.4016701105729226
 20
189.3967559871827859
 30
0.0
 40
0.9864000000000001
 50
0.0
 51
90.0
  0
ARC
  5
2F3AE
  8
0
 10
6619.6123728357733853
 20
189.3967559871827859
 30
0.0
 40
0.9864000000000001
 50
90.0
 51
180.0
  0
ARC
  5
2F3AF
  8
0
 10
6619.6123728357733853
 20
176.3054446388543113
 30
0.0
 40
0.9864000000000001
 50
180.0
 51
270.0
  0
LINE
  5
2F3B0
  8
0
 10
6619.5768808389666447
 20
190.7912444560454048
 30
0.0
 11
6632.4371621097297975
 21
190.7912444560454048
 31
0.0
  0
LINE
  5
2F3B1
  8
0
 10
6632.4371621097297975
 20
174.9109645187344881
 30
0.0
 11
6619.5768808389666447
 21
174.9109645187344881
 31
0.0
  0
ARC
  5
2F3B2
  8
0
 10
6632.4371621097297975
 20
175.8909645187345063
 30
0.0
 40
0.98
 50
270.0
 51
0.0
  0
ARC
  5
2F3B3
  8
0
 10
6619.5768808389666447
 20
175.8909645187345063
 30
0.0
 40
0.98
 50
180.0
 51
270.0
  0
ARC
  5
2F3B4
  8
0
 10
6619.5768808389666447
 20
189.8112444560453866
 30
0.0
 40
0.98
 50
90.0
 51
180.0
  0
ARC
  5
2F3B5
  8
0
 10
6632.4371621097297975
 20
189.8112444560453866
 30
0.0
 40
0.98
 50
0.0
 51
90.0
  0
LINE
  5
2F3B6
  8
0
 10
6633.388070110573608
 20
189.3967559871827859
 30
0.0
 11
6633.417162109729361
 21
189.8112444560453866
 31
0.0
  0
LINE
  5
2F3B7
  8
0
 10
6633.388070110573608
 20
176.3054446388541976
 30
0.0
 11
6633.417162109729361
 21
175.8909645187345063
 31
0.0
  0
LINE
  5
2F3B8
  8
0
 10
6618.5968808389679907
 20
175.8909645187345063
 30
0.0
 11
6618.6259728357736094
 21
176.3054446388541976
 31
0.0
  0
LINE
  5
2F3B9
  8
0
 10
6618.5968808389679907
 20
189.8112444560453866
 30
0.0
 11
6618.6259728357736094
 21
189.3967559871827859
 31
0.0
  0
LINE
  5
2F3BE
  8
0
 10
6618.8177898236099281
 20
189.1972858037183869
 30
0.0
 11
6618.8177898236099281
 21
176.5022610395346021
 31
0.0
  0
LINE
  5
2F3BF
  8
0
 10
6619.8057898236120309
 20
175.5142610395346026
 30
0.0
 11
6632.2095746825480092
 21
175.5142610395346026
 31
0.0
  0
LINE
  5
2F3C0
  8
0
 10
6633.1975746825473834
 20
176.5022610395346021
 30
0.0
 11
6633.1975746825473834
 21
189.1972858037183869
 31
0.0
  0
LINE
  5
2F3C1
  8
0
 10
6619.8057898236120309
 20
190.1852858037183864
 30
0.0
 11
6632.2095746825480092
 21
190.1852858037183864
 31
0.0
  0
ARC
  5
2F3C2
  8
0
 10
6619.8057898236120309
 20
189.1972858037183869
 30
0.0
 40
0.9879999999999999
 50
90.0
 51
180.0
  0
ARC
  5
2F3C3
  8
0
 10
6619.8057898236120309
 20
176.5022610395346021
 30
0.0
 40
0.9879999999999999
 50
180.0
 51
270.0
  0
ARC
  5
2F3C4
  8
0
 10
6632.2095746825480092
 20
176.5022610395346021
 30
0.0
 40
0.9879999999999999
 50
270.0
 51
0.0
  0
ARC
  5
2F3C5
  8
0
 10
6632.2095746825480092
 20
189.1972858037183869
 30
0.0
 40
0.9879999999999999
 50
0.0
 51
90.0
  0
LINE
  5
2F3CA
  8
0
 10
6634.7962927524868064
 20
175.7813993559688015
 30
0.0
 11
6634.7962927524868064
 21
181.5022695703000863
 31
0.0
  0
LINE
  5
2F3CB
  8
0
 10
6634.7962927524868064
 20
182.5345976856328889
 30
0.0
 11
6634.7962927524868064
 21
187.5586048390580061
 31
0.0
  0
LINE
  5
2F3CC
  8
0
 10
6636.1262927524858242
 20
174.451399355968789
 30
0.0
 11
6648.171214771628911
 21
174.451399355968789
 31
0.0
  0
LINE
  5
2F3CD
  8
0
 10
6649.5012147716288382
 20
175.7813993559688015
 30
0.0
 11
6649.5012147716288382
 21
187.5586048390580061
 31
0.0
  0
LINE
  5
2F3CE
  8
0
 10
6648.171214771628911
 20
188.8886048390579901
 30
0.0
 11
6636.1262927524858242
 21
188.8886048390579901
 31
0.0
  0
ARC
  5
2F3CF
  8
0
 10
6636.1262927524858242
 20
175.7813993559688015
 30
0.0
 40
1.3300000000000001
 50
180.0
 51
270.0
  0
ARC
  5
2F3D0
  8
0
 10
6648.171214771628911
 20
175.7813993559688015
 30
0.0
 40
1.3300000000000001
 50
270.0
 51
0.0
  0
ARC
  5
2F3D1
  8
0
 10
6648.171214771628911
 20
187.5586048390580061
 30
0.0
 40
1.3300000000000001
 50
0.0
 51
72.3736113991091088
  0
ARC
  5
2F3D2
  8
0
 10
6648.171214771628911
 20
187.5586048390580061
 30
0.0
 40
1.3300000000000001
 50
82.12338984688067
 51
90.0
  0
ARC
  5
2F3D3
  8
0
 10
6636.1262927524858242
 20
187.5586048390580061
 30
0.0
 40
1.3300000000000001
 50
90.0
 51
94.464510035001652
  0
ARC
  5
2F3D4
  8
0
 10
6636.1262927524858242
 20
187.5586048390580061
 30
0.0
 40
1.3300000000000001
 50
155.0499998176742906
 51
180.0
  0
LINE
  5
2F3D5
  8
0
 10
6648.1694745760732985
 20
188.5368646526470116
 30
0.0
 11
6636.1280329396731759
 21
188.5368646526470116
 31
0.0
  0
LINE
  5
2F3D6
  8
0
 10
6649.149474576072862
 20
175.7831395516469968
 30
0.0
 11
6649.149474576072862
 21
187.5568646526469934
 31
0.0
  0
LINE
  5
2F3D7
  8
0
 10
6636.1280329396731759
 20
174.803139551647007
 30
0.0
 11
6648.1694745760732985
 21
174.803139551647007
 31
0.0
  0
LINE
  5
2F3D8
  8
0
 10
6635.1480329396736124
 20
175.7831395516469968
 30
0.0
 11
6635.1480329396736124
 21
181.2364863412676925
 31
0.0
  0
ARC
  5
2F3D9
  8
0
 10
6636.1280329396731759
 20
175.7831395516469968
 30
0.0
 40
0.98
 50
180.0
 51
270.0
  0
ARC
  5
2F3DA
  8
0
 10
6648.1694745760732985
 20
175.7831395516469968
 30
0.0
 40
0.98
 50
270.0
 51
0.0
  0
ARC
  5
2F3DB
  8
0
 10
6648.1694745760732985
 20
187.5568646526469934
 30
0.0
 40
0.98
 50
0.0
 51
65.6235172554077906
  0
ARC
  5
2F3DC
  8
0
 10
6648.1694745760732985
 20
187.5568646526469934
 30
0.0
 40
0.98
 50
79.1779802871712803
 51
90.0
  0
ARC
  5
2F3DD
  8
0
 10
6636.1280329396731759
 20
187.5568646526469934
 30
0.0
 40
0.98
 50
90.0
 51
96.1664864431079138
  0
CIRCLE
  5
2F3DE
  8
0
 10
6626.0070214743727774
 20
183.599135960347013
 30
0.0
 40
0.31
  0
CIRCLE
  5
2F3DF
  8
0
 10
6626.0070214743727774
 20
183.599135960347013
 30
0.0
 40
0.2760925586
  0
CIRCLE
  5
2F3E0
  8
0
 10
6626.0070214743727774
 20
183.599135960347013
 30
0.0
 40
2.1789269086999989
  0
CIRCLE
  5
2F3E1
  8
0
 10
6626.0070214743727774
 20
183.599135960347013
 30
0.0
 40
1.6780895467000001
  0
CIRCLE
  5
2F3E2
  8
0
 10
6642.1487537578723277
 20
183.599135960347013
 30
0.0
 40
0.31
  0
CIRCLE
  5
2F3E3
  8
0
 10
6642.1487537578723277
 20
183.599135960347013
 30
0.0
 40
0.2760925586
  0
CIRCLE
  5
2F3E4
  8
0
 10
6642.1487537578723277
 20
183.599135960347013
 30
0.0
 40
2.1789269086999989
  0
CIRCLE
  5
2F3E5
  8
0
 10
6642.1487537578723277
 20
183.599135960347013
 30
0.0
 40
1.6780895467000001
  0
LINE
  5
2F3E6
  8
0
 10
6657.7438478144722467
 20
191.0007107635470049
 30
0.0
 11
6665.0272682869735945
 21
191.0007107635470049
 31
0.0
  0
LINE
  5
2F3E7
  8
0
 10
6657.7438478144722467
 20
176.1975611571469926
 30
0.0
 11
6665.0272682869735945
 21
176.1975611571469926
 31
0.0
  0
ARC
  5
2F3E8
  8
0
 10
6657.7438478144722467
 20
189.5243107635469926
 30
0.0
 40
1.476399999999999
 50
90.0
 51
180.0
  0
ARC
  5
2F3E9
  8
0
 10
6657.7438478144722467
 20
177.673961157147005
 30
0.0
 40
1.476399999999999
 50
180.0
 51
270.0
  0
LINE
  5
2F3EA
  8
0
 10
6656.2202037200731866
 20
188.5951989524469923
 30
0.0
 11
6656.2674478144735986
 21
188.5951989524469923
 31
0.0
  0
LINE
  5
2F3EB
  8
0
 10
6658.5587659247730699
 20
189.9455926533470063
 30
0.0
 11
6664.2123501766727713
 21
189.9455926533470063
 31
0.0
  0
LINE
  5
2F3EC
  8
0
 10
6658.5588021451740133
 20
189.8353564328469929
 30
0.0
 11
6664.2123139562736469
 21
189.8353564328469929
 31
0.0
  0
ARC
  5
2F3ED
  8
0
 10
6658.5587659247730699
 20
188.7093926533470096
 30
0.0
 40
1.2361999999999991
 50
90.0
 51
180.0
  0
ARC
  5
2F3EE
  8
0
 10
6658.5588021451740133
 20
188.7093564328469881
 30
0.0
 40
1.125999999999999
 50
90.0
 51
180.0
  0
LINE
  5
2F3EF
  8
0
 10
6657.7437982081728478
 20
190.8038603698470013
 30
0.0
 11
6665.0273178932729934
 21
190.8038603698470013
 31
0.0
  0
CIRCLE
  5
2F3F0
  8
0
 10
6657.8422509640731732
 20
190.7455362386469915
 30
0.0
 40
0.0551181101999987
  0
CIRCLE
  5
2F3F1
  8
0
 10
6658.6296525388734153
 20
190.7455362386469915
 30
0.0
 40
0.0551181101999987
  0
CIRCLE
  5
2F3F2
  8
0
 10
6659.4170541137737018
 20
190.7455362386469915
 30
0.0
 40
0.0551181101999987
  0
CIRCLE
  5
2F3F3
  8
0
 10
6660.2044556885748534
 20
190.7455362385470039
 30
0.0
 40
0.0551181103000005
  0
CIRCLE
  5
2F3F4
  8
0
 10
6660.9918572633732765
 20
190.7455362386469915
 30
0.0
 40
0.0551181101999987
  0
LINE
  5
2F3F5
  8
0
 10
6656.4642982081741138
 20
189.5243603698469883
 30
0.0
 11
6656.4642982081741138
 21
177.6739115508468956
 31
0.0
  0
ARC
  5
2F3F6
  8
0
 10
6657.7437982081728478
 20
189.5243603698469883
 30
0.0
 40
1.2795000000000001
 50
90.0
 51
180.0
  0
LINE
  5
2F3F7
  8
0
 10
6656.5194163184232821
 20
188.3983485588468909
 30
0.0
 11
6657.7871328538749367
 21
188.3983485588468909
 31
0.0
  0
LINE
  5
2F3F8
  8
0
 10
6657.8973690742732288
 20
188.3983485588468909
 30
0.0
 11
6658.5745344286733598
 21
188.3983485588468909
 31
0.0
  0
LINE
  5
2F3F9
  8
0
 10
6658.6847706490725614
 20
188.3983485588468909
 30
0.0
 11
6659.3619360035727368
 21
188.3983485588468909
 31
0.0
  0
LINE
  5
2F3FA
  8
0
 10
6659.4721722239737574
 20
188.3983485588468909
 30
0.0
 11
6660.149337578273844
 21
188.3983485588468909
 31
0.0
  0
LINE
  5
2F3FB
  8
0
 10
6660.2595737988740439
 20
188.3983485588468909
 30
0.0
 11
6660.936739153173221
 21
188.3983485588468909
 31
0.0
  0
LINE
  5
2F3FC
  8
0
 10
6656.5194163184232821
 20
188.2881123383469912
 30
0.0
 11
6656.7636691921734382
 21
188.2881123383469912
 31
0.0
  0
LINE
  5
2F3FD
  8
0
 10
6656.8739054126726842
 20
188.2881123383469912
 30
0.0
 11
6657.7871328538749367
 21
188.2881123383469912
 31
0.0
  0
LINE
  5
2F3FE
  8
0
 10
6657.8973690742732288
 20
188.2881123383469912
 30
0.0
 11
6658.5745344286733598
 21
188.2881123383469912
 31
0.0
  0
LINE
  5
2F3FF
  8
0
 10
6658.6847706490725614
 20
188.2881123383469912
 30
0.0
 11
6659.3619360035727368
 21
188.2881123383469912
 31
0.0
  0
LINE
  5
2F400
  8
0
 10
6659.4721722239737574
 20
188.2881123383469912
 30
0.0
 11
6660.149337578273844
 21
188.2881123383469912
 31
0.0
  0
LINE
  5
2F401
  8
0
 10
6660.2595737988740439
 20
188.2881123383469912
 30
0.0
 11
6660.936739153173221
 21
188.2881123383469912
 31
0.0
  0
CIRCLE
  5
2F402
  8
0
 10
6656.5194163184232821
 20
188.3432304485968984
 30
0.0
 40
0.0551181102499996
  0
LINE
  5
2F403
  8
0
 10
6656.5194163184232821
 20
186.8235454092470036
 30
0.0
 11
6656.7636691921734382
 21
186.8235454092470036
 31
0.0
  0
LINE
  5
2F404
  8
0
 10
6656.8739054126726842
 20
186.8235454092470036
 30
0.0
 11
6657.7871328538749367
 21
186.8235454092470036
 31
0.0
  0
LINE
  5
2F405
  8
0
 10
6657.8973690742732288
 20
186.8235454092470036
 30
0.0
 11
6658.5745344286733598
 21
186.8235454092470036
 31
0.0
  0
LINE
  5
2F406
  8
0
 10
6658.6847706490725614
 20
186.8235454092470036
 30
0.0
 11
6659.3619360035727368
 21
186.8235454092470036
 31
0.0
  0
LINE
  5
2F407
  8
0
 10
6659.4721722239737574
 20
186.8235454092470036
 30
0.0
 11
6660.149337578273844
 21
186.8235454092470036
 31
0.0
  0
LINE
  5
2F408
  8
0
 10
6660.2595737988740439
 20
186.8235454092470036
 30
0.0
 11
6660.936739153173221
 21
186.8235454092470036
 31
0.0
  0
LINE
  5
2F409
  8
0
 10
6656.5194163184232821
 20
186.7133091887469902
 30
0.0
 11
6656.7636691921734382
 21
186.7133091887469902
 31
0.0
  0
LINE
  5
2F40A
  8
0
 10
6656.8739054126726842
 20
186.7133091887469902
 30
0.0
 11
6657.7871328538749367
 21
186.7133091887469902
 31
0.0
  0
LINE
  5
2F40B
  8
0
 10
6657.8973690742732288
 20
186.7133091887469902
 30
0.0
 11
6658.5745344286733598
 21
186.7133091887469902
 31
0.0
  0
LINE
  5
2F40C
  8
0
 10
6658.6847706490725614
 20
186.7133091887469902
 30
0.0
 11
6659.3619360035727368
 21
186.7133091887469902
 31
0.0
  0
LINE
  5
2F40D
  8
0
 10
6659.4721722239737574
 20
186.7133091887469902
 30
0.0
 11
6660.149337578273844
 21
186.7133091887469902
 31
0.0
  0
LINE
  5
2F40E
  8
0
 10
6660.2595737988740439
 20
186.7133091887469902
 30
0.0
 11
6660.936739153173221
 21
186.7133091887469902
 31
0.0
  0
CIRCLE
  5
2F40F
  8
0
 10
6656.5194163184232821
 20
186.7684272989970111
 30
0.0
 40
0.0551181102499996
  0
LINE
  5
2F410
  8
0
 10
6656.5194163184232821
 20
184.8550414722469952
 30
0.0
 11
6656.7636691921734382
 21
184.8550414722469952
 31
0.0
  0
LINE
  5
2F411
  8
0
 10
6656.8739054126726842
 20
184.8550414722469952
 30
0.0
 11
6657.7871328538749367
 21
184.8550414722469952
 31
0.0
  0
LINE
  5
2F412
  8
0
 10
6657.8973690742732288
 20
184.8550414722469952
 30
0.0
 11
6658.5745344286733598
 21
184.8550414722469952
 31
0.0
  0
LINE
  5
2F413
  8
0
 10
6658.6847706490725614
 20
184.8550414722469952
 30
0.0
 11
6659.3619360035727368
 21
184.8550414722469952
 31
0.0
  0
LINE
  5
2F414
  8
0
 10
6659.4721722239737574
 20
184.8550414722469952
 30
0.0
 11
6660.149337578273844
 21
184.8550414722469952
 31
0.0
  0
LINE
  5
2F415
  8
0
 10
6660.2595737988740439
 20
184.8550414722469952
 30
0.0
 11
6660.936739153173221
 21
184.8550414722469952
 31
0.0
  0
LINE
  5
2F416
  8
0
 10
6656.5194163184232821
 20
184.7448052517470103
 30
0.0
 11
6656.7636691921734382
 21
184.7448052517470103
 31
0.0
  0
LINE
  5
2F417
  8
0
 10
6656.8739054126726842
 20
184.7448052517470103
 30
0.0
 11
6657.7871328538749367
 21
184.7448052517470103
 31
0.0
  0
LINE
  5
2F418
  8
0
 10
6657.8973690742732288
 20
184.7448052517470103
 30
0.0
 11
6658.5745344286733598
 21
184.7448052517470103
 31
0.0
  0
LINE
  5
2F419
  8
0
 10
6658.6847706490725614
 20
184.7448052517470103
 30
0.0
 11
6659.3619360035727368
 21
184.7448052517470103
 31
0.0
  0
LINE
  5
2F41A
  8
0
 10
6659.4721722239737574
 20
184.7448052517470103
 30
0.0
 11
6660.149337578273844
 21
184.7448052517470103
 31
0.0
  0
LINE
  5
2F41B
  8
0
 10
6660.2595737988740439
 20
184.7448052517470103
 30
0.0
 11
6660.936739153173221
 21
184.7448052517470103
 31
0.0
  0
CIRCLE
  5
2F41C
  8
0
 10
6656.5194163184232821
 20
184.7999233619970028
 30
0.0
 40
0.0551181102499996
  0
LINE
  5
2F41D
  8
0
 10
6656.7636691921734382
 20
188.3983485588468909
 30
0.0
 11
6656.7636691921734382
 21
178.799923361846993
 31
0.0
  0
LINE
  5
2F41E
  8
0
 10
6656.8739054126726842
 20
188.3983485588468909
 30
0.0
 11
6656.8739054126726842
 21
178.799923361846993
 31
0.0
  0
LINE
  5
2F41F
  8
0
 10
6656.5321737929743904
 20
188.516198952447013
 30
0.0
 11
6656.5321737929743904
 21
188.3983485588468909
 31
0.0
  0
LINE
  5
2F420
  8
0
 10
6656.5321737929743904
 20
188.2881123383469912
 30
0.0
 11
6656.5321737929743904
 21
186.8235454092470036
 31
0.0
  0
LINE
  5
2F421
  8
0
 10
6656.5321737929743904
 20
186.7133091887469902
 30
0.0
 11
6656.5321737929743904
 21
186.7056950155470076
 31
0.0
  0
LINE
  5
2F422
  8
0
 10
6656.4877449473742672
 20
188.5186038835736895
 30
0.0
 11
6656.4877449473742672
 21
188.3883406506951985
 31
0.0
  0
LINE
  5
2F423
  8
0
 10
6656.4877449473742672
 20
188.298120246498712
 30
0.0
 11
6656.4877449473742672
 21
186.8135375010951975
 31
0.0
  0
LINE
  5
2F424
  8
0
 10
6656.4877449473742672
 20
186.723317096898711
 30
0.0
 11
6656.4877449473742672
 21
186.7039201107947974
 31
0.0
  0
ARC
  5
2F425
  8
0
 10
6656.4531737929737574
 20
188.5161989524468993
 30
0.0
 40
0.079
 50
0.0000000000048853
 51
81.9049683588371522
  0
ARC
  5
2F426
  8
0
 10
6656.4093924723092641
 20
188.5162136557121926
 30
0.0
 40
0.0783889248426235
 50
1.7473284571635119
 51
45.5387108838839083
  0
LINE
  5
2F427
  8
0
 10
6656.2202037200731866
 20
186.6266950155469999
 30
0.0
 11
6656.2674478144735986
 21
186.6266950155469999
 31
0.0
  0
ARC
  5
2F428
  8
0
 10
6656.4531737929737574
 20
186.7056950155470076
 30
0.0
 40
0.079
 50
278.0950316411629046
 51
0.0
  0
ARC
  5
2F429
  8
0
 10
6656.4095691331158378
 20
186.7055902177748123
 30
0.0
 40
0.0781936518662451
 50
314.4203543317544245
 51
358.7761492657235181
  0
LINE
  5
2F42A
  8
0
 10
6656.2202037200731866
 20
180.5715769051469977
 30
0.0
 11
6656.2202037200731866
 21
178.6030729682470053
 31
0.0
  0
LINE
  5
2F42B
  8
0
 10
6657.8973690742732288
 20
177.444492056515287
 30
0.0
 11
6657.8973690742732288
 21
176.4527356820470061
 31
0.0
  0
LINE
  5
2F42C
  8
0
 10
6658.5745344286733598
 20
177.2526792673469913
 30
0.0
 11
6658.5745344286733598
 21
176.4527356820470061
 31
0.0
  0
LINE
  5
2F42D
  8
0
 10
6658.6847706490725614
 20
177.2526792673469913
 30
0.0
 11
6658.6847706490725614
 21
176.4527356820470061
 31
0.0
  0
LINE
  5
2F42E
  8
0
 10
6659.3619360035727368
 20
177.2526792673469913
 30
0.0
 11
6659.3619360035727368
 21
176.4527356820470061
 31
0.0
  0
LINE
  5
2F42F
  8
0
 10
6659.4721722239737574
 20
177.2526792673469913
 30
0.0
 11
6659.4721722239737574
 21
176.4527356820470061
 31
0.0
  0
LINE
  5
2F430
  8
0
 10
6660.149337578273844
 20
177.2526792673469913
 30
0.0
 11
6660.149337578273844
 21
176.4527356821469937
 31
0.0
  0
LINE
  5
2F431
  8
0
 10
6660.2595737988740439
 20
177.2526792673469913
 30
0.0
 11
6660.2595737988740439
 21
176.4527356821469937
 31
0.0
  0
LINE
  5
2F432
  8
0
 10
6660.936739153173221
 20
177.2526792673469913
 30
0.0
 11
6660.936739153173221
 21
176.4527356820470061
 31
0.0
  0
LINE
  5
2F433
  8
0
 10
6661.0469753735724225
 20
177.2526792673469913
 30
0.0
 11
6661.0469753735724225
 21
176.4527356820470061
 31
0.0
  0
LINE
  5
2F434
  8
0
 10
6657.3225659247736985
 20
184.7448052517470103
 30
0.0
 11
6657.3225659247736985
 21
182.4534666689469873
 31
0.0
  0
LINE
  5
2F435
  8
0
 10
6657.3225659247736985
 20
182.3432304484470023
 30
0.0
 11
6657.3225659247736985
 21
180.4849627319470073
 31
0.0
  0
LINE
  5
2F436
  8
0
 10
6657.3225659247736985
 20
180.374726511446994
 30
0.0
 11
6657.3225659247736985
 21
178.9101595823470063
 31
0.0
  0
LINE
  5
2F437
  8
0
 10
6657.3225659247736985
 20
178.799923361846993
 30
0.0
 11
6657.3225659247736985
 21
178.4888792673469879
 31
0.0
  0
LINE
  5
2F438
  8
0
 10
6657.4328021451729001
 20
184.7448052517470103
 30
0.0
 11
6657.4328021451729001
 21
182.4534666689469873
 31
0.0
  0
LINE
  5
2F439
  8
0
 10
6657.4328021451729001
 20
182.3432304484470023
 30
0.0
 11
6657.4328021451729001
 21
180.4849627319470073
 31
0.0
  0
LINE
  5
2F43A
  8
0
 10
6657.4328021451729001
 20
180.374726511446994
 30
0.0
 11
6657.4328021451729001
 21
178.9101595823470063
 31
0.0
  0
LINE
  5
2F43B
  8
0
 10
6657.4328021451729001
 20
178.799923361846993
 30
0.0
 11
6657.4328021451729001
 21
178.4889154878470094
 31
0.0
  0
LINE
  5
2F43C
  8
0
 10
6656.2202037200731866
 20
178.6030729682470053
 30
0.0
 11
6656.2674478144735986
 21
178.6030729682470053
 31
0.0
  0
ARC
  5
2F43D
  8
0
 10
6658.5587659247730699
 20
178.4888792673469879
 30
0.0
 40
1.2361999999999991
 50
180.0
 51
270.0
  0
ARC
  5
2F43E
  8
0
 10
6658.5588021451740133
 20
178.4889154878470094
 30
0.0
 40
1.125999999999999
 50
180.0
 51
270.0
  0
CIRCLE
  5
2F43F
  8
0
 10
6657.8422509640731732
 20
176.4527356820470061
 30
0.0
 40
0.0551181101999987
  0
CIRCLE
  5
2F440
  8
0
 10
6658.6296525388734153
 20
176.4527356820470061
 30
0.0
 40
0.0551181101999987
  0
CIRCLE
  5
2F441
  8
0
 10
6659.4170541137737018
 20
176.4527356820470061
 30
0.0
 40
0.0551181101999987
  0
CIRCLE
  5
2F442
  8
0
 10
6660.2044556885748534
 20
176.4527356821469937
 30
0.0
 40
0.0551181103000005
  0
CIRCLE
  5
2F443
  8
0
 10
6660.9918572633732765
 20
176.4527356820470061
 30
0.0
 40
0.0551181101999987
  0
ARC
  5
2F444
  8
0
 10
6657.7437982081728478
 20
177.6739115508468956
 30
0.0
 40
1.2795000000000001
 50
180.0
 51
270.0
  0
LINE
  5
2F445
  8
0
 10
6656.5194163184232821
 20
178.799923361846993
 30
0.0
 11
6657.7871328538749367
 21
178.799923361846993
 31
0.0
  0
LINE
  5
2F446
  8
0
 10
6657.8973690742732288
 20
178.799923361846993
 30
0.0
 11
6658.5745344286733598
 21
178.799923361846993
 31
0.0
  0
LINE
  5
2F447
  8
0
 10
6658.6847706490725614
 20
178.799923361846993
 30
0.0
 11
6659.3619360035727368
 21
178.799923361846993
 31
0.0
  0
LINE
  5
2F448
  8
0
 10
6659.4721722239737574
 20
178.799923361846993
 30
0.0
 11
6660.149337578273844
 21
178.799923361846993
 31
0.0
  0
LINE
  5
2F449
  8
0
 10
6660.2595737988740439
 20
178.799923361846993
 30
0.0
 11
6660.936739153173221
 21
178.799923361846993
 31
0.0
  0
LINE
  5
2F44A
  8
0
 10
6656.5194163184232821
 20
178.9101595823470063
 30
0.0
 11
6656.7636691921734382
 21
178.9101595823470063
 31
0.0
  0
LINE
  5
2F44B
  8
0
 10
6656.8739054126726842
 20
178.9101595823470063
 30
0.0
 11
6657.7871328538749367
 21
178.9101595823470063
 31
0.0
  0
LINE
  5
2F44C
  8
0
 10
6657.8973690742732288
 20
178.9101595823470063
 30
0.0
 11
6658.5745344286733598
 21
178.9101595823470063
 31
0.0
  0
LINE
  5
2F44D
  8
0
 10
6658.6847706490725614
 20
178.9101595823470063
 30
0.0
 11
6659.3619360035727368
 21
178.9101595823470063
 31
0.0
  0
LINE
  5
2F44E
  8
0
 10
6659.4721722239737574
 20
178.9101595823470063
 30
0.0
 11
6660.149337578273844
 21
178.9101595823470063
 31
0.0
  0
LINE
  5
2F44F
  8
0
 10
6660.2595737988740439
 20
178.9101595823470063
 30
0.0
 11
6660.936739153173221
 21
178.9101595823470063
 31
0.0
  0
CIRCLE
  5
2F450
  8
0
 10
6656.5194163184232821
 20
178.8550414720970139
 30
0.0
 40
0.0551181102499996
  0
LINE
  5
2F451
  8
0
 10
6656.5194163184232821
 20
180.374726511446994
 30
0.0
 11
6656.7636691921734382
 21
180.374726511446994
 31
0.0
  0
LINE
  5
2F452
  8
0
 10
6656.8739054126726842
 20
180.374726511446994
 30
0.0
 11
6657.7871328538749367
 21
180.374726511446994
 31
0.0
  0
LINE
  5
2F453
  8
0
 10
6657.8973690742732288
 20
180.374726511446994
 30
0.0
 11
6658.5745344286733598
 21
180.374726511446994
 31
0.0
  0
LINE
  5
2F454
  8
0
 10
6658.6847706490725614
 20
180.374726511446994
 30
0.0
 11
6659.3619360035727368
 21
180.374726511446994
 31
0.0
  0
LINE
  5
2F455
  8
0
 10
6659.4721722239737574
 20
180.374726511446994
 30
0.0
 11
6660.149337578273844
 21
180.374726511446994
 31
0.0
  0
LINE
  5
2F456
  8
0
 10
6660.2595737988740439
 20
180.374726511446994
 30
0.0
 11
6660.936739153173221
 21
180.374726511446994
 31
0.0
  0
LINE
  5
2F457
  8
0
 10
6656.5194163184232821
 20
180.4849627319470073
 30
0.0
 11
6656.7636691921734382
 21
180.4849627319470073
 31
0.0
  0
LINE
  5
2F458
  8
0
 10
6656.8739054126726842
 20
180.4849627319470073
 30
0.0
 11
6657.7871328538749367
 21
180.4849627319470073
 31
0.0
  0
LINE
  5
2F459
  8
0
 10
6657.8973690742732288
 20
180.4849627319470073
 30
0.0
 11
6658.5745344286733598
 21
180.4849627319470073
 31
0.0
  0
LINE
  5
2F45A
  8
0
 10
6658.6847706490725614
 20
180.4849627319470073
 30
0.0
 11
6659.3619360035727368
 21
180.4849627319470073
 31
0.0
  0
LINE
  5
2F45B
  8
0
 10
6659.4721722239737574
 20
180.4849627319470073
 30
0.0
 11
6660.149337578273844
 21
180.4849627319470073
 31
0.0
  0
LINE
  5
2F45C
  8
0
 10
6660.2595737988740439
 20
180.4849627319470073
 30
0.0
 11
6660.936739153173221
 21
180.4849627319470073
 31
0.0
  0
CIRCLE
  5
2F45D
  8
0
 10
6656.5194163184232821
 20
180.4298446216969865
 30
0.0
 40
0.0551181102499996
  0
LINE
  5
2F45E
  8
0
 10
6656.5194163184232821
 20
182.3432304484470023
 30
0.0
 11
6656.7636691921734382
 21
182.3432304484470023
 31
0.0
  0
LINE
  5
2F45F
  8
0
 10
6656.8739054126726842
 20
182.3432304484470023
 30
0.0
 11
6657.7871328538749367
 21
182.3432304484470023
 31
0.0
  0
LINE
  5
2F460
  8
0
 10
6657.8973690742732288
 20
182.3432304484470023
 30
0.0
 11
6658.5745344286733598
 21
182.3432304484470023
 31
0.0
  0
LINE
  5
2F461
  8
0
 10
6658.6847706490725614
 20
182.3432304484470023
 30
0.0
 11
6659.3619360035727368
 21
182.3432304484470023
 31
0.0
  0
LINE
  5
2F462
  8
0
 10
6659.4721722239737574
 20
182.3432304484470023
 30
0.0
 11
6660.149337578273844
 21
182.3432304484470023
 31
0.0
  0
LINE
  5
2F463
  8
0
 10
6660.2595737988740439
 20
182.3432304484470023
 30
0.0
 11
6660.936739153173221
 21
182.3432304484470023
 31
0.0
  0
LINE
  5
2F464
  8
0
 10
6656.5194163184232821
 20
182.4534666689469873
 30
0.0
 11
6656.7636691921734382
 21
182.4534666689469873
 31
0.0
  0
LINE
  5
2F465
  8
0
 10
6656.8739054126726842
 20
182.4534666689469873
 30
0.0
 11
6657.7871328538749367
 21
182.4534666689469873
 31
0.0
  0
LINE
  5
2F466
  8
0
 10
6657.8973690742732288
 20
182.4534666689469873
 30
0.0
 11
6658.5745344286733598
 21
182.4534666689469873
 31
0.0
  0
LINE
  5
2F467
  8
0
 10
6658.6847706490725614
 20
182.4534666689469873
 30
0.0
 11
6659.3619360035727368
 21
182.4534666689469873
 31
0.0
  0
LINE
  5
2F468
  8
0
 10
6659.4721722239737574
 20
182.4534666689469873
 30
0.0
 11
6660.149337578273844
 21
182.4534666689469873
 31
0.0
  0
LINE
  5
2F469
  8
0
 10
6660.2595737988740439
 20
182.4534666689469873
 30
0.0
 11
6660.936739153173221
 21
182.4534666689469873
 31
0.0
  0
CIRCLE
  5
2F46A
  8
0
 10
6656.5194163184232821
 20
182.3983485586969948
 30
0.0
 40
0.0551181102499996
  0
LINE
  5
2F46B
  8
0
 10
6656.5321737929743904
 20
178.682072968247013
 30
0.0
 11
6656.5321737929743904
 21
178.799923361846993
 31
0.0
  0
LINE
  5
2F46C
  8
0
 10
6656.5321737929743904
 20
178.9101595823470063
 30
0.0
 11
6656.5321737929743904
 21
180.374726511446994
 31
0.0
  0
LINE
  5
2F46D
  8
0
 10
6656.5321737929743904
 20
180.4849627319470073
 30
0.0
 11
6656.5321737929743904
 21
180.4925769051469899
 31
0.0
  0
LINE
  5
2F46E
  8
0
 10
6656.4877449473742672
 20
178.6796680371201944
 30
0.0
 11
6656.4877449473742672
 21
178.8099312699987991
 31
0.0
  0
LINE
  5
2F46F
  8
0
 10
6656.4877449473742672
 20
178.9001516741952003
 30
0.0
 11
6656.4877449473742672
 21
180.3847344195988001
 31
0.0
  0
LINE
  5
2F470
  8
0
 10
6656.4877449473742672
 20
180.4749548237952013
 30
0.0
 11
6656.4877449473742672
 21
180.4943518098990864
 31
0.0
  0
ARC
  5
2F471
  8
0
 10
6656.4531737929737574
 20
178.682072968247013
 30
0.0
 40
0.079
 50
278.0950316411629046
 51
359.9999999999951115
  0
ARC
  5
2F472
  8
0
 10
6656.4093924723092641
 20
178.6820582649816913
 30
0.0
 40
0.0783889248426235
 50
314.4612891161161201
 51
358.252671542836481
  0
LINE
  5
2F473
  8
0
 10
6656.2202037200731866
 20
180.5715769051469977
 30
0.0
 11
6656.2674478144735986
 21
180.5715769051469977
 31
0.0
  0
ARC
  5
2F474
  8
0
 10
6656.4531737929737574
 20
180.4925769051469899
 30
0.0
 40
0.079
 50
0.0
 51
81.9049683588371522
  0
ARC
  5
2F475
  8
0
 10
6656.4095691331158378
 20
180.4926817029192136
 30
0.0
 40
0.0781936518662451
 50
1.2238507342780971
 51
45.5796456682456466
  0
LINE
  5
2F476
  8
0
 10
6658.5587659247730699
 20
177.2526792673469913
 30
0.0
 11
6664.2123501766727713
 21
177.2526792673469913
 31
0.0
  0
LINE
  5
2F477
  8
0
 10
6658.5588021451740133
 20
177.3629154878470047
 30
0.0
 11
6664.2123139562736469
 21
177.3629154878470047
 31
0.0
  0
LINE
  5
2F478
  8
0
 10
6657.7437982081728478
 20
176.3944115508469963
 30
0.0
 11
6665.0273178932729934
 21
176.3944115508469963
 31
0.0
  0
LINE
  5
2F479
  8
0
 10
6666.5509123813726546
 20
186.6266950155469999
 30
0.0
 11
6666.5509123813726546
 21
188.5951989524469923
 31
0.0
  0
LINE
  5
2F47A
  8
0
 10
6666.5036682869722426
 20
177.673961157147005
 30
0.0
 11
6666.5036682869722426
 21
189.5243107635469926
 31
0.0
  0
LINE
  5
2F47B
  8
0
 10
6664.9839832475727235
 20
176.4527356820470061
 30
0.0
 11
6664.9839832475727235
 21
177.5230776086750097
 31
0.0
  0
LINE
  5
2F47C
  8
0
 10
6664.9839832475727235
 20
177.6689139604918921
 30
0.0
 11
6664.9839832475727235
 21
189.5293579602019918
 31
0.0
  0
LINE
  5
2F47D
  8
0
 10
6664.9839832475727235
 20
189.6751943120189026
 30
0.0
 11
6664.9839832475727235
 21
190.7455362386469915
 31
0.0
  0
LINE
  5
2F47E
  8
0
 10
6664.8737470271744314
 20
177.5776623436989041
 30
0.0
 11
6664.8737470271744314
 21
189.6206095769950934
 31
0.0
  0
LINE
  5
2F47F
  8
0
 10
6664.8737470271744314
 20
189.7537798641785969
 30
0.0
 11
6664.8737470271744314
 21
190.7455362386469915
 31
0.0
  0
LINE
  5
2F480
  8
0
 10
6664.1965816727733909
 20
177.3629154878470047
 30
0.0
 11
6664.1965816727733909
 21
189.8353564328469929
 31
0.0
  0
LINE
  5
2F481
  8
0
 10
6664.1965816727733909
 20
189.9455926533470063
 30
0.0
 11
6664.1965816727733909
 21
190.7455362386469915
 31
0.0
  0
LINE
  5
2F482
  8
0
 10
6664.0863454523741893
 20
177.3629154878470047
 30
0.0
 11
6664.0863454523741893
 21
189.8353564328469929
 31
0.0
  0
LINE
  5
2F483
  8
0
 10
6664.0863454523741893
 20
189.9455926533470063
 30
0.0
 11
6664.0863454523741893
 21
190.7455362386469915
 31
0.0
  0
LINE
  5
2F484
  8
0
 10
6663.4091800978740139
 20
177.3629154878470047
 30
0.0
 11
6663.4091800978740139
 21
189.8353564328469929
 31
0.0
  0
LINE
  5
2F485
  8
0
 10
6663.4091800978740139
 20
189.9455926533470063
 30
0.0
 11
6663.4091800978740139
 21
190.7455362386469915
 31
0.0
  0
LINE
  5
2F486
  8
0
 10
6663.2989438774748123
 20
177.3629154878470047
 30
0.0
 11
6663.2989438774748123
 21
189.8353564328469929
 31
0.0
  0
LINE
  5
2F487
  8
0
 10
6663.2989438774748123
 20
189.9455926533470063
 30
0.0
 11
6663.2989438774748123
 21
190.7455362386469915
 31
0.0
  0
LINE
  5
2F488
  8
0
 10
6662.6217785231738162
 20
177.3629154878470047
 30
0.0
 11
6662.6217785231738162
 21
189.8353564328469929
 31
0.0
  0
LINE
  5
2F489
  8
0
 10
6662.6217785231738162
 20
189.9455926533470063
 30
0.0
 11
6662.6217785231738162
 21
190.7455362385470039
 31
0.0
  0
LINE
  5
2F48A
  8
0
 10
6662.5115423025727068
 20
177.3629154878470047
 30
0.0
 11
6662.5115423025727068
 21
189.8353564328469929
 31
0.0
  0
LINE
  5
2F48B
  8
0
 10
6662.5115423025727068
 20
189.9455926533470063
 30
0.0
 11
6662.5115423025727068
 21
190.7455362385470039
 31
0.0
  0
LINE
  5
2F48C
  8
0
 10
6661.8343769482744392
 20
177.3629154878470047
 30
0.0
 11
6661.8343769482744392
 21
189.8353564328469929
 31
0.0
  0
LINE
  5
2F48D
  8
0
 10
6661.8343769482744392
 20
189.9455926533470063
 30
0.0
 11
6661.8343769482744392
 21
190.7455362386469915
 31
0.0
  0
LINE
  5
2F48E
  8
0
 10
6661.7241407278743281
 20
177.3629154878470047
 30
0.0
 11
6661.7241407278743281
 21
189.8353564328469929
 31
0.0
  0
LINE
  5
2F48F
  8
0
 10
6661.7241407278743281
 20
189.9455926533470063
 30
0.0
 11
6661.7241407278743281
 21
190.7455362386469915
 31
0.0
  0
LINE
  5
2F490
  8
0
 10
6665.4485501766739617
 20
184.8550414722469952
 30
0.0
 11
6665.4485501766739617
 21
186.7133091887469902
 31
0.0
  0
LINE
  5
2F491
  8
0
 10
6665.4485501766739617
 20
186.8235454092470036
 30
0.0
 11
6665.4485501766739617
 21
188.2881123383469912
 31
0.0
  0
LINE
  5
2F492
  8
0
 10
6665.4485501766739617
 20
188.3983485588468909
 30
0.0
 11
6665.4485501766739617
 21
188.7093926533470096
 31
0.0
  0
LINE
  5
2F493
  8
0
 10
6665.3383139562729411
 20
184.8550414722469952
 30
0.0
 11
6665.3383139562729411
 21
186.7133091887469902
 31
0.0
  0
LINE
  5
2F494
  8
0
 10
6665.3383139562729411
 20
186.8235454092470036
 30
0.0
 11
6665.3383139562729411
 21
188.2881123383469912
 31
0.0
  0
LINE
  5
2F495
  8
0
 10
6665.3383139562729411
 20
188.3983485588468909
 30
0.0
 11
6665.3383139562729411
 21
188.7093564328469881
 31
0.0
  0
ARC
  5
2F496
  8
0
 10
6665.0272682869735945
 20
189.5243107635469926
 30
0.0
 40
1.476399999999999
 50
0.0
 51
90.0
  0
ARC
  5
2F497
  8
0
 10
6665.0272682869735945
 20
177.673961157147005
 30
0.0
 40
1.476399999999999
 50
270.0
 51
0.0
  0
LINE
  5
2F498
  8
0
 10
6666.5509123813726546
 20
188.5951989524469923
 30
0.0
 11
6666.5036682869722426
 21
188.5951989524469923
 31
0.0
  0
ARC
  5
2F499
  8
0
 10
6664.2123501766727713
 20
188.7093926533470096
 30
0.0
 40
1.2361999999999991
 50
0.0
 51
90.0
  0
ARC
  5
2F49A
  8
0
 10
6664.2123139562736469
 20
188.7093564328469881
 30
0.0
 40
1.125999999999999
 50
0.0
 51
90.0
  0
CIRCLE
  5
2F49B
  8
0
 10
6664.928865137372668
 20
190.7455362386469915
 30
0.0
 40
0.0551181101999987
  0
CIRCLE
  5
2F49C
  8
0
 10
6664.1414635625733354
 20
190.7455362386469915
 30
0.0
 40
0.0551181101999987
  0
CIRCLE
  5
2F49D
  8
0
 10
6663.3540619876739584
 20
190.7455362386469915
 30
0.0
 40
0.0551181101999987
  0
CIRCLE
  5
2F49E
  8
0
 10
6662.5666604128737163
 20
190.7455362385470039
 30
0.0
 40
0.0551181103000005
  0
CIRCLE
  5
2F49F
  8
0
 10
6661.7792588380725647
 20
190.7455362386469915
 30
0.0
 40
0.0551181101999987
  0
LINE
  5
2F4A0
  8
0
 10
6666.3068178932726369
 20
189.5243603698469883
 30
0.0
 11
6666.3068178932726369
 21
177.6739115508468956
 31
0.0
  0
ARC
  5
2F4A1
  8
0
 10
6665.0273178932729934
 20
189.5243603698469883
 30
0.0
 40
1.2795000000000001
 50
0.0
 51
90.0
  0
LINE
  5
2F4A2
  8
0
 10
6666.2516997830243781
 20
188.3983485588468909
 30
0.0
 11
6664.9839832475727235
 21
188.3983485588468909
 31
0.0
  0
LINE
  5
2F4A3
  8
0
 10
6664.8737470271744314
 20
188.3983485588468909
 30
0.0
 11
6664.1965816727733909
 21
188.3983485588468909
 31
0.0
  0
LINE
  5
2F4A4
  8
0
 10
6664.0863454523741893
 20
188.3983485588468909
 30
0.0
 11
6663.4091800978740139
 21
188.3983485588468909
 31
0.0
  0
LINE
  5
2F4A5
  8
0
 10
6663.2989438774748123
 20
188.3983485588468909
 30
0.0
 11
6662.6217785231738162
 21
188.3983485588468909
 31
0.0
  0
LINE
  5
2F4A6
  8
0
 10
6662.5115423025727068
 20
188.3983485588468909
 30
0.0
 11
6661.8343769482744392
 21
188.3983485588468909
 31
0.0
  0
LINE
  5
2F4A7
  8
0
 10
6661.7241407278743281
 20
188.3983485588468909
 30
0.0
 11
6661.0469753735724225
 21
188.3983485588468909
 31
0.0
  0
LINE
  5
2F4A8
  8
0
 10
6666.2516997830243781
 20
188.2881123383469912
 30
0.0
 11
6666.0074469092733125
 21
188.2881123383469912
 31
0.0
  0
LINE
  5
2F4A9
  8
0
 10
6665.897210688773157
 20
188.2881123383469912
 30
0.0
 11
6664.9839832475727235
 21
188.2881123383469912
 31
0.0
  0
LINE
  5
2F4AA
  8
0
 10
6664.8737470271744314
 20
188.2881123383469912
 30
0.0
 11
6664.1965816727733909
 21
188.2881123383469912
 31
0.0
  0
LINE
  5
2F4AB
  8
0
 10
6664.0863454523741893
 20
188.2881123383469912
 30
0.0
 11
6663.4091800978740139
 21
188.2881123383469912
 31
0.0
  0
LINE
  5
2F4AC
  8
0
 10
6663.2989438774748123
 20
188.2881123383469912
 30
0.0
 11
6662.6217785231738162
 21
188.2881123383469912
 31
0.0
  0
LINE
  5
2F4AD
  8
0
 10
6662.5115423025727068
 20
188.2881123383469912
 30
0.0
 11
6661.8343769482744392
 21
188.2881123383469912
 31
0.0
  0
LINE
  5
2F4AE
  8
0
 10
6661.7241407278743281
 20
188.2881123383469912
 30
0.0
 11
6661.0469753735724225
 21
188.2881123383469912
 31
0.0
  0
CIRCLE
  5
2F4AF
  8
0
 10
6666.2516997830243781
 20
188.3432304485968984
 30
0.0
 40
0.0551181102499996
  0
LINE
  5
2F4B0
  8
0
 10
6666.2516997830243781
 20
186.8235454092470036
 30
0.0
 11
6666.0074469092733125
 21
186.8235454092470036
 31
0.0
  0
LINE
  5
2F4B1
  8
0
 10
6665.897210688773157
 20
186.8235454092470036
 30
0.0
 11
6664.9839832475727235
 21
186.8235454092470036
 31
0.0
  0
LINE
  5
2F4B2
  8
0
 10
6664.8737470271744314
 20
186.8235454092470036
 30
0.0
 11
6664.1965816727733909
 21
186.8235454092470036
 31
0.0
  0
LINE
  5
2F4B3
  8
0
 10
6664.0863454523741893
 20
186.8235454092470036
 30
0.0
 11
6663.4091800978740139
 21
186.8235454092470036
 31
0.0
  0
LINE
  5
2F4B4
  8
0
 10
6663.2989438774748123
 20
186.8235454092470036
 30
0.0
 11
6662.6217785231738162
 21
186.8235454092470036
 31
0.0
  0
LINE
  5
2F4B5
  8
0
 10
6662.5115423025727068
 20
186.8235454092470036
 30
0.0
 11
6661.8343769482744392
 21
186.8235454092470036
 31
0.0
  0
LINE
  5
2F4B6
  8
0
 10
6661.7241407278743281
 20
186.8235454092470036
 30
0.0
 11
6661.0469753735724225
 21
186.8235454092470036
 31
0.0
  0
LINE
  5
2F4B7
  8
0
 10
6666.2516997830243781
 20
186.7133091887469902
 30
0.0
 11
6666.0074469092733125
 21
186.7133091887469902
 31
0.0
  0
LINE
  5
2F4B8
  8
0
 10
6665.897210688773157
 20
186.7133091887469902
 30
0.0
 11
6664.9839832475727235
 21
186.7133091887469902
 31
0.0
  0
LINE
  5
2F4B9
  8
0
 10
6664.8737470271744314
 20
186.7133091887469902
 30
0.0
 11
6664.1965816727733909
 21
186.7133091887469902
 31
0.0
  0
LINE
  5
2F4BA
  8
0
 10
6664.0863454523741893
 20
186.7133091887469902
 30
0.0
 11
6663.4091800978740139
 21
186.7133091887469902
 31
0.0
  0
LINE
  5
2F4BB
  8
0
 10
6663.2989438774748123
 20
186.7133091887469902
 30
0.0
 11
6662.6217785231738162
 21
186.7133091887469902
 31
0.0
  0
LINE
  5
2F4BC
  8
0
 10
6662.5115423025727068
 20
186.7133091887469902
 30
0.0
 11
6661.8343769482744392
 21
186.7133091887469902
 31
0.0
  0
LINE
  5
2F4BD
  8
0
 10
6661.7241407278743281
 20
186.7133091887469902
 30
0.0
 11
6661.0469753735724225
 21
186.7133091887469902
 31
0.0
  0
CIRCLE
  5
2F4BE
  8
0
 10
6666.2516997830243781
 20
186.7684272989970111
 30
0.0
 40
0.0551181102499996
  0
LINE
  5
2F4BF
  8
0
 10
6666.2516997830243781
 20
184.8550414722469952
 30
0.0
 11
6666.0074469092733125
 21
184.8550414722469952
 31
0.0
  0
LINE
  5
2F4C0
  8
0
 10
6665.897210688773157
 20
184.8550414722469952
 30
0.0
 11
6664.9839832475727235
 21
184.8550414722469952
 31
0.0
  0
LINE
  5
2F4C1
  8
0
 10
6664.8737470271744314
 20
184.8550414722469952
 30
0.0
 11
6664.1965816727733909
 21
184.8550414722469952
 31
0.0
  0
LINE
  5
2F4C2
  8
0
 10
6664.0863454523741893
 20
184.8550414722469952
 30
0.0
 11
6663.4091800978740139
 21
184.8550414722469952
 31
0.0
  0
LINE
  5
2F4C3
  8
0
 10
6663.2989438774748123
 20
184.8550414722469952
 30
0.0
 11
6662.6217785231738162
 21
184.8550414722469952
 31
0.0
  0
LINE
  5
2F4C4
  8
0
 10
6662.5115423025727068
 20
184.8550414722469952
 30
0.0
 11
6661.8343769482744392
 21
184.85504147224691
 31
0.0
  0
LINE
  5
2F4C5
  8
0
 10
6661.7241407278743281
 20
184.85504147224691
 30
0.0
 11
6661.0469753735724225
 21
184.8550414722469952
 31
0.0
  0
LINE
  5
2F4C6
  8
0
 10
6666.2516997830243781
 20
184.7448052517470103
 30
0.0
 11
6666.0074469092733125
 21
184.7448052517470103
 31
0.0
  0
LINE
  5
2F4C7
  8
0
 10
6665.897210688773157
 20
184.7448052517470103
 30
0.0
 11
6664.9839832475727235
 21
184.7448052517470103
 31
0.0
  0
LINE
  5
2F4C8
  8
0
 10
6664.8737470271744314
 20
184.7448052517470103
 30
0.0
 11
6664.1965816727733909
 21
184.7448052517470103
 31
0.0
  0
LINE
  5
2F4C9
  8
0
 10
6664.0863454523741893
 20
184.7448052517470103
 30
0.0
 11
6663.4091800978740139
 21
184.7448052517470103
 31
0.0
  0
LINE
  5
2F4CA
  8
0
 10
6663.2989438774748123
 20
184.7448052517470103
 30
0.0
 11
6662.6217785231738162
 21
184.7448052517470103
 31
0.0
  0
LINE
  5
2F4CB
  8
0
 10
6662.5115423025727068
 20
184.7448052517470103
 30
0.0
 11
6661.8343769482744392
 21
184.7448052517470103
 31
0.0
  0
LINE
  5
2F4CC
  8
0
 10
6661.7241407278743281
 20
184.7448052517470103
 30
0.0
 11
6661.0469753735724225
 21
184.7448052517470103
 31
0.0
  0
CIRCLE
  5
2F4CD
  8
0
 10
6666.2516997830243781
 20
184.7999233619970028
 30
0.0
 40
0.0551181102499996
  0
LINE
  5
2F4CE
  8
0
 10
6666.0074469092733125
 20
188.3983485588468909
 30
0.0
 11
6666.0074469092733125
 21
178.799923361846993
 31
0.0
  0
LINE
  5
2F4CF
  8
0
 10
6665.897210688773157
 20
188.3983485588468909
 30
0.0
 11
6665.897210688773157
 21
178.799923361846993
 31
0.0
  0
LINE
  5
2F4D0
  8
0
 10
6666.2389423084732698
 20
188.516198952447013
 30
0.0
 11
6666.2389423084732698
 21
188.3983485588468909
 31
0.0
  0
LINE
  5
2F4D1
  8
0
 10
6666.2389423084732698
 20
188.2881123383469912
 30
0.0
 11
6666.2389423084732698
 21
186.8235454092470036
 31
0.0
  0
LINE
  5
2F4D2
  8
0
 10
6666.2389423084732698
 20
186.7133091887469902
 30
0.0
 11
6666.2389423084732698
 21
186.7056950155470076
 31
0.0
  0
LINE
  5
2F4D3
  8
0
 10
6666.2833711540743025
 20
188.5186038835736895
 30
0.0
 11
6666.2833711540743025
 21
188.3883406506951985
 31
0.0
  0
LINE
  5
2F4D4
  8
0
 10
6666.2833711540743025
 20
188.298120246498712
 30
0.0
 11
6666.2833711540743025
 21
186.8135375010951975
 31
0.0
  0
LINE
  5
2F4D5
  8
0
 10
6666.2833711540743025
 20
186.723317096898711
 30
0.0
 11
6666.2833711540743025
 21
186.7039201107947974
 31
0.0
  0
ARC
  5
2F4D6
  8
0
 10
6666.3179423084739028
 20
188.5161989524468993
 30
0.0
 40
0.079
 50
98.095031641162862
 51
179.9999999999951115
  0
ARC
  5
2F4D7
  8
0
 10
6666.3617236291393056
 20
188.5162136557121926
 30
0.0
 40
0.0783889248426235
 50
134.4612891161160917
 51
178.2526715428365094
  0
LINE
  5
2F4D8
  8
0
 10
6666.5509123813726546
 20
186.6266950155469999
 30
0.0
 11
6666.5036682869722426
 21
186.6266950155469999
 31
0.0
  0
ARC
  5
2F4D9
  8
0
 10
6666.3179423084739028
 20
186.7056950155470076
 30
0.0
 40
0.079
 50
180.0
 51
261.9049683588372091
  0
ARC
  5
2F4DA
  8
0
 10
6666.3615469683309129
 20
186.7055902177748123
 30
0.0
 40
0.0781936518662451
 50
181.2238507342765104
 51
225.5796456682456039
  0
LINE
  5
2F4DB
  8
0
 10
6666.5509123813726546
 20
180.5715769051469977
 30
0.0
 11
6666.5509123813726546
 21
178.6030729682470053
 31
0.0
  0
LINE
  5
2F4DC
  8
0
 10
6664.8737470271744314
 20
177.444492056515287
 30
0.0
 11
6664.8737470271744314
 21
176.4527356820470061
 31
0.0
  0
LINE
  5
2F4DD
  8
0
 10
6664.1965816727733909
 20
177.2526792673469913
 30
0.0
 11
6664.1965816727733909
 21
176.4527356820470061
 31
0.0
  0
LINE
  5
2F4DE
  8
0
 10
6664.0863454523741893
 20
177.2526792673469913
 30
0.0
 11
6664.0863454523741893
 21
176.4527356820470061
 31
0.0
  0
LINE
  5
2F4DF
  8
0
 10
6663.4091800978740139
 20
177.2526792673469913
 30
0.0
 11
6663.4091800978740139
 21
176.4527356820470061
 31
0.0
  0
LINE
  5
2F4E0
  8
0
 10
6663.2989438774748123
 20
177.2526792673469913
 30
0.0
 11
6663.2989438774748123
 21
176.4527356820470061
 31
0.0
  0
LINE
  5
2F4E1
  8
0
 10
6662.6217785231738162
 20
177.2526792673469913
 30
0.0
 11
6662.6217785231738162
 21
176.4527356821469937
 31
0.0
  0
LINE
  5
2F4E2
  8
0
 10
6662.5115423025727068
 20
177.2526792673469913
 30
0.0
 11
6662.5115423025727068
 21
176.4527356821469937
 31
0.0
  0
LINE
  5
2F4E3
  8
0
 10
6661.8343769482744392
 20
177.2526792673469913
 30
0.0
 11
6661.8343769482744392
 21
176.4527356820470061
 31
0.0
  0
LINE
  5
2F4E4
  8
0
 10
6661.7241407278743281
 20
177.2526792673469913
 30
0.0
 11
6661.7241407278743281
 21
176.4527356820470061
 31
0.0
  0
LINE
  5
2F4E5
  8
0
 10
6665.4485501766739617
 20
184.7448052517470103
 30
0.0
 11
6665.4485501766739617
 21
182.4534666689469873
 31
0.0
  0
LINE
  5
2F4E6
  8
0
 10
6665.4485501766739617
 20
182.3432304484470023
 30
0.0
 11
6665.4485501766739617
 21
180.4849627319470073
 31
0.0
  0
LINE
  5
2F4E7
  8
0
 10
6665.4485501766739617
 20
180.374726511446994
 30
0.0
 11
6665.4485501766739617
 21
178.9101595823470063
 31
0.0
  0
LINE
  5
2F4E8
  8
0
 10
6665.4485501766739617
 20
178.799923361846993
 30
0.0
 11
6665.4485501766739617
 21
178.4888792673469879
 31
0.0
  0
LINE
  5
2F4E9
  8
0
 10
6665.3383139562729411
 20
184.7448052517470103
 30
0.0
 11
6665.3383139562729411
 21
182.4534666689469873
 31
0.0
  0
LINE
  5
2F4EA
  8
0
 10
6665.3383139562729411
 20
182.3432304484470023
 30
0.0
 11
6665.3383139562729411
 21
180.4849627319470073
 31
0.0
  0
LINE
  5
2F4EB
  8
0
 10
6665.3383139562729411
 20
180.374726511446994
 30
0.0
 11
6665.3383139562729411
 21
178.9101595823470063
 31
0.0
  0
LINE
  5
2F4EC
  8
0
 10
6665.3383139562729411
 20
178.799923361846993
 30
0.0
 11
6665.3383139562729411
 21
178.4889154878470094
 31
0.0
  0
LINE
  5
2F4ED
  8
0
 10
6666.5509123813726546
 20
178.6030729682470053
 30
0.0
 11
6666.5036682869722426
 21
178.6030729682470053
 31
0.0
  0
ARC
  5
2F4EE
  8
0
 10
6664.2123501766727713
 20
178.4888792673469879
 30
0.0
 40
1.2361999999999991
 50
270.0
 51
0.0
  0
ARC
  5
2F4EF
  8
0
 10
6664.2123139562736469
 20
178.4889154878470094
 30
0.0
 40
1.125999999999999
 50
270.0
 51
0.0
  0
CIRCLE
  5
2F4F0
  8
0
 10
6664.928865137372668
 20
176.4527356820470061
 30
0.0
 40
0.0551181101999987
  0
CIRCLE
  5
2F4F1
  8
0
 10
6664.1414635625733354
 20
176.4527356820470061
 30
0.0
 40
0.0551181101999987
  0
CIRCLE
  5
2F4F2
  8
0
 10
6663.3540619876739584
 20
176.4527356820470061
 30
0.0
 40
0.0551181101999987
  0
CIRCLE
  5
2F4F3
  8
0
 10
6662.5666604128737163
 20
176.4527356821469937
 30
0.0
 40
0.0551181103000005
  0
CIRCLE
  5
2F4F4
  8
0
 10
6661.7792588380725647
 20
176.4527356820470061
 30
0.0
 40
0.0551181101999987
  0
ARC
  5
2F4F5
  8
0
 10
6665.0273178932729934
 20
177.6739115508468956
 30
0.0
 40
1.2795000000000001
 50
270.0
 51
0.0
  0
LINE
  5
2F4F6
  8
0
 10
6666.2516997830243781
 20
178.799923361846993
 30
0.0
 11
6664.9839832475727235
 21
178.799923361846993
 31
0.0
  0
LINE
  5
2F4F7
  8
0
 10
6664.8737470271744314
 20
178.799923361846993
 30
0.0
 11
6664.1965816727733909
 21
178.799923361846993
 31
0.0
  0
LINE
  5
2F4F8
  8
0
 10
6664.0863454523741893
 20
178.799923361846993
 30
0.0
 11
6663.4091800978740139
 21
178.799923361846993
 31
0.0
  0
LINE
  5
2F4F9
  8
0
 10
6663.2989438774748123
 20
178.799923361846993
 30
0.0
 11
6662.6217785231738162
 21
178.799923361846993
 31
0.0
  0
LINE
  5
2F4FA
  8
0
 10
6662.5115423025727068
 20
178.799923361846993
 30
0.0
 11
6661.8343769482744392
 21
178.799923361846993
 31
0.0
  0
LINE
  5
2F4FB
  8
0
 10
6661.7241407278743281
 20
178.799923361846993
 30
0.0
 11
6661.0469753735724225
 21
178.799923361846993
 31
0.0
  0
LINE
  5
2F4FC
  8
0
 10
6666.2516997830243781
 20
178.9101595823470063
 30
0.0
 11
6666.0074469092733125
 21
178.9101595823470063
 31
0.0
  0
LINE
  5
2F4FD
  8
0
 10
6665.897210688773157
 20
178.9101595823470063
 30
0.0
 11
6664.9839832475727235
 21
178.9101595823470063
 31
0.0
  0
LINE
  5
2F4FE
  8
0
 10
6664.8737470271744314
 20
178.9101595823470063
 30
0.0
 11
6664.1965816727733909
 21
178.9101595823470063
 31
0.0
  0
LINE
  5
2F4FF
  8
0
 10
6664.0863454523741893
 20
178.9101595823470063
 30
0.0
 11
6663.4091800978740139
 21
178.9101595823470063
 31
0.0
  0
LINE
  5
2F500
  8
0
 10
6663.2989438774748123
 20
178.9101595823470063
 30
0.0
 11
6662.6217785231738162
 21
178.9101595823470063
 31
0.0
  0
LINE
  5
2F501
  8
0
 10
6662.5115423025727068
 20
178.9101595823470063
 30
0.0
 11
6661.8343769482744392
 21
178.9101595823470063
 31
0.0
  0
LINE
  5
2F502
  8
0
 10
6661.7241407278743281
 20
178.9101595823470063
 30
0.0
 11
6661.0469753735724225
 21
178.9101595823470063
 31
0.0
  0
CIRCLE
  5
2F503
  8
0
 10
6666.2516997830243781
 20
178.8550414720970139
 30
0.0
 40
0.0551181102499996
  0
LINE
  5
2F504
  8
0
 10
6666.2516997830243781
 20
180.374726511446994
 30
0.0
 11
6666.0074469092733125
 21
180.374726511446994
 31
0.0
  0
LINE
  5
2F505
  8
0
 10
6665.897210688773157
 20
180.374726511446994
 30
0.0
 11
6664.9839832475727235
 21
180.374726511446994
 31
0.0
  0
LINE
  5
2F506
  8
0
 10
6664.8737470271744314
 20
180.374726511446994
 30
0.0
 11
6664.1965816727733909
 21
180.374726511446994
 31
0.0
  0
LINE
  5
2F507
  8
0
 10
6664.0863454523741893
 20
180.374726511446994
 30
0.0
 11
6663.4091800978740139
 21
180.374726511446994
 31
0.0
  0
LINE
  5
2F508
  8
0
 10
6663.2989438774748123
 20
180.374726511446994
 30
0.0
 11
6662.6217785231738162
 21
180.374726511446994
 31
0.0
  0
LINE
  5
2F509
  8
0
 10
6662.5115423025727068
 20
180.374726511446994
 30
0.0
 11
6661.8343769482744392
 21
180.374726511446994
 31
0.0
  0
LINE
  5
2F50A
  8
0
 10
6661.7241407278743281
 20
180.374726511446994
 30
0.0
 11
6661.0469753735724225
 21
180.374726511446994
 31
0.0
  0
LINE
  5
2F50B
  8
0
 10
6666.2516997830243781
 20
180.4849627319470073
 30
0.0
 11
6666.0074469092733125
 21
180.4849627319470073
 31
0.0
  0
LINE
  5
2F50C
  8
0
 10
6665.897210688773157
 20
180.4849627319470073
 30
0.0
 11
6664.9839832475727235
 21
180.4849627319470073
 31
0.0
  0
LINE
  5
2F50D
  8
0
 10
6664.8737470271744314
 20
180.4849627319470073
 30
0.0
 11
6664.1965816727733909
 21
180.4849627319470073
 31
0.0
  0
LINE
  5
2F50E
  8
0
 10
6664.0863454523741893
 20
180.4849627319470073
 30
0.0
 11
6663.4091800978740139
 21
180.4849627319470073
 31
0.0
  0
LINE
  5
2F50F
  8
0
 10
6663.2989438774748123
 20
180.4849627319470073
 30
0.0
 11
6662.6217785231738162
 21
180.4849627319470073
 31
0.0
  0
LINE
  5
2F510
  8
0
 10
6662.5115423025727068
 20
180.4849627319470073
 30
0.0
 11
6661.8343769482744392
 21
180.4849627319470073
 31
0.0
  0
LINE
  5
2F511
  8
0
 10
6661.7241407278743281
 20
180.4849627319470073
 30
0.0
 11
6661.0469753735724225
 21
180.4849627319470073
 31
0.0
  0
CIRCLE
  5
2F512
  8
0
 10
6666.2516997830243781
 20
180.4298446216969865
 30
0.0
 40
0.0551181102499996
  0
LINE
  5
2F513
  8
0
 10
6666.2516997830243781
 20
182.3432304484470023
 30
0.0
 11
6666.0074469092733125
 21
182.3432304484470023
 31
0.0
  0
LINE
  5
2F514
  8
0
 10
6665.897210688773157
 20
182.3432304484470023
 30
0.0
 11
6664.9839832475727235
 21
182.3432304484470023
 31
0.0
  0
LINE
  5
2F515
  8
0
 10
6664.8737470271744314
 20
182.3432304484470023
 30
0.0
 11
6664.1965816727733909
 21
182.3432304484470023
 31
0.0
  0
LINE
  5
2F516
  8
0
 10
6664.0863454523741893
 20
182.3432304484470023
 30
0.0
 11
6663.4091800978740139
 21
182.3432304484470023
 31
0.0
  0
LINE
  5
2F517
  8
0
 10
6663.2989438774748123
 20
182.3432304484470023
 30
0.0
 11
6662.6217785231738162
 21
182.3432304484470023
 31
0.0
  0
LINE
  5
2F518
  8
0
 10
6662.5115423025727068
 20
182.3432304484470023
 30
0.0
 11
6661.8343769482744392
 21
182.3432304484470023
 31
0.0
  0
LINE
  5
2F519
  8
0
 10
6661.7241407278743281
 20
182.3432304484470023
 30
0.0
 11
6661.0469753735724225
 21
182.3432304484470023
 31
0.0
  0
LINE
  5
2F51A
  8
0
 10
6666.2516997830243781
 20
182.4534666689469873
 30
0.0
 11
6666.0074469092733125
 21
182.4534666689469873
 31
0.0
  0
LINE
  5
2F51B
  8
0
 10
6665.897210688773157
 20
182.4534666689469873
 30
0.0
 11
6664.9839832475727235
 21
182.4534666689469873
 31
0.0
  0
LINE
  5
2F51C
  8
0
 10
6664.8737470271744314
 20
182.4534666689469873
 30
0.0
 11
6664.1965816727733909
 21
182.4534666689469873
 31
0.0
  0
LINE
  5
2F51D
  8
0
 10
6664.0863454523741893
 20
182.4534666689469873
 30
0.0
 11
6663.4091800978740139
 21
182.4534666689469873
 31
0.0
  0
LINE
  5
2F51E
  8
0
 10
6663.2989438774748123
 20
182.4534666689469873
 30
0.0
 11
6662.6217785231738162
 21
182.4534666689469873
 31
0.0
  0
LINE
  5
2F51F
  8
0
 10
6662.5115423025727068
 20
182.4534666689469873
 30
0.0
 11
6661.8343769482744392
 21
182.4534666689469873
 31
0.0
  0
LINE
  5
2F520
  8
0
 10
6661.7241407278743281
 20
182.4534666689469873
 30
0.0
 11
6661.0469753735724225
 21
182.4534666689469873
 31
0.0
  0
CIRCLE
  5
2F521
  8
0
 10
6666.2516997830243781
 20
182.3983485586969948
 30
0.0
 40
0.0551181102499996
  0
LINE
  5
2F522
  8
0
 10
6666.2389423084732698
 20
178.682072968247013
 30
0.0
 11
6666.2389423084732698
 21
178.799923361846993
 31
0.0
  0
LINE
  5
2F523
  8
0
 10
6666.2389423084732698
 20
178.9101595823470063
 30
0.0
 11
6666.2389423084732698
 21
180.374726511446994
 31
0.0
  0
LINE
  5
2F524
  8
0
 10
6666.2389423084732698
 20
180.4849627319470073
 30
0.0
 11
6666.2389423084732698
 21
180.4925769051469899
 31
0.0
  0
LINE
  5
2F525
  8
0
 10
6666.2833711540743025
 20
178.6796680371201944
 30
0.0
 11
6666.2833711540743025
 21
178.8099312699987991
 31
0.0
  0
LINE
  5
2F526
  8
0
 10
6666.2833711540743025
 20
178.9001516741952003
 30
0.0
 11
6666.2833711540743025
 21
180.3847344195988001
 31
0.0
  0
LINE
  5
2F527
  8
0
 10
6666.2833711540743025
 20
180.4749548237952013
 30
0.0
 11
6666.2833711540743025
 21
180.4943518098990864
 31
0.0
  0
ARC
  5
2F528
  8
0
 10
6666.3179423084739028
 20
178.682072968247013
 30
0.0
 40
0.079
 50
180.0000000000048885
 51
261.9049683588372091
  0
ARC
  5
2F529
  8
0
 10
6666.3617236291393056
 20
178.6820582649816913
 30
0.0
 40
0.0783889248426235
 50
181.747328457161899
 51
225.5387108838839083
  0
LINE
  5
2F52A
  8
0
 10
6666.5509123813726546
 20
180.5715769051469977
 30
0.0
 11
6666.5036682869722426
 21
180.5715769051469977
 31
0.0
  0
ARC
  5
2F52B
  8
0
 10
6666.3179423084739028
 20
180.4925769051469899
 30
0.0
 40
0.079
 50
98.095031641162862
 51
180.0
  0
ARC
  5
2F52C
  8
0
 10
6666.3615469683309129
 20
180.4926817029192136
 30
0.0
 40
0.0781936518662451
 50
134.4203543317543108
 51
178.776149265721898
  0
LINE
  5
2F52D
  8
0
 10
6648.3534782098022333
 20
186.4412777713419871
 30
0.0
 11
6648.3534782098022333
 21
189.6523837168049909
 31
0.0
  0
ARC
  5
2F52E
  8
0
 10
6648.4648946987517775
 20
186.4793397832243045
 30
0.0
 40
0.1338607593717827
 50
243.3457113584406102
 51
269.4947906003249045
  0
ARC
  5
2F52F
  8
0
 10
6648.4513344144070288
 20
186.4483727054027895
 30
0.0
 40
0.1001170364203551
 50
217.3945060878616005
 51
242.331110049298502
  0
ARC
  5
2F530
  8
0
 10
6648.4408272660366492
 20
186.4403409801965097
 30
0.0
 40
0.0868917282315878
 50
192.2909491159554989
 51
217.3945060878274091
  0
ARC
  5
2F531
  8
0
 10
6648.4559831192045749
 20
186.4443235647196957
 30
0.0
 40
0.1025501502163361
 50
181.7019650609364021
 51
192.6624840074003941
  0
CIRCLE
  5
2F532
  8
0
 10
6648.4637143877725975
 20
190.2133091887469902
 30
0.0
 40
0.5610374701021108
  0
CIRCLE
  5
2F533
  8
0
 10
6648.4637143877725975
 20
190.2133091887469902
 30
0.0
 40
0.5716549658729662
  0
CIRCLE
  5
2F534
  8
0
 10
6648.4637143877725975
 20
190.2133091887469902
 30
0.0
 40
0.5746796215354735
  0
ARC
  5
2F535
  8
0
 10
6648.4637143877725975
 20
190.2133091887469902
 30
0.0
 40
0.8257918944516671
 50
277.6713982356491215
 51
262.3286017643508785
  0
ARC
  5
2F536
  8
0
 10
6648.4637143877725975
 20
190.2133091887469902
 30
0.0
 40
0.8267716535017388
 50
277.6622526893236795
 51
262.3377473106763205
  0
CIRCLE
  5
2F537
  8
0
 10
6648.4637143877725975
 20
190.2133091887469902
 30
0.0
 40
0.4651863424999992
  0
LINE
  5
2F538
  8
0
 10
6648.5739505657456903
 20
186.4412777713419871
 30
0.0
 11
6648.5739505657456903
 21
189.6523837168049909
 31
0.0
  0
ARC
  5
2F539
  8
0
 10
6648.4625340767952366
 20
186.4793397832243045
 30
0.0
 40
0.1338607593717827
 50
270.5052093996750955
 51
296.6542886415593898
  0
ARC
  5
2F53A
  8
0
 10
6648.4760943611390758
 20
186.4483727054027895
 30
0.0
 40
0.1001170364203551
 50
297.6688899507016117
 51
322.6054939121383995
  0
ARC
  5
2F53B
  8
0
 10
6648.4866015095103648
 20
186.4403409801965097
 30
0.0
 40
0.0868917282315878
 50
322.6054939121726761
 51
347.7090508840444727
  0
ARC
  5
2F53C
  8
0
 10
6648.4714456563397107
 20
186.4443235647196957
 30
0.0
 40
0.1025501502163361
 50
347.3375159925994922
 51
358.2980349390635979
  0
LINE
  5
2F53D
  8
0
 10
6634.9204133472239846
 20
182.678599013809901
 30
0.0
 11
6634.9204133472239846
 21
190.3314194249470006
 31
0.0
  0
LINE
  5
2F53E
  8
0
 10
6637.8219821042739568
 20
189.5246477714470075
 30
0.0
 11
6637.8219821042739568
 21
191.1383763141739962
 31
0.0
  0
LINE
  5
2F53F
  8
0
 10
6637.8337931279738768
 20
189.5322068265469966
 30
0.0
 11
6637.8337931279738768
 21
191.1306320233470046
 31
0.0
  0
LINE
  5
2F540
  8
0
 10
6637.9322183247741123
 20
189.5046477714469972
 30
0.0
 11
6637.9322183247741123
 21
191.1583763141740064
 31
0.0
  0
LINE
  5
2F541
  8
0
 10
6637.845604151572843
 20
189.5322068265469966
 30
0.0
 11
6637.845604151572843
 21
191.1306320233470046
 31
0.0
  0
LINE
  5
2F542
  8
0
 10
6638.9164702932739601
 20
189.5440477714469978
 30
0.0
 11
6638.9164702932739601
 21
191.1189763141740059
 31
0.0
  0
ARC
  5
2F543
  8
0
 10
6635.4715884035240379
 20
190.3314194249470006
 30
0.0
 40
0.5511750563000002
 50
0.0
 51
180.0
  0
ARC
  5
2F544
  8
0
 10
6635.4715884035240379
 20
190.3314194249470006
 30
0.0
 40
0.8858267716499998
 50
308.47809559198339
 51
231.52190440801661
  0
ARC
  5
2F545
  8
0
 10
6635.4715884035240379
 20
190.3314194249470006
 30
0.0
 40
1.0236220472499979
 50
302.5785687799424863
 51
306.1289274764876041
  0
ARC
  5
2F546
  8
0
 10
6635.4715884035240379
 20
190.3314194249470006
 30
0.0
 40
1.0236220472499979
 50
53.8886614164629023
 51
237.4214312200575137
  0
LINE
  5
2F547
  8
0
 10
6636.0227634598231816
 20
182.678599013809901
 30
0.0
 11
6636.0227634598231816
 21
190.3314194249470006
 31
0.0
  0
LINE
  5
2F548
  8
0
 10
6634.9204133472239846
 20
182.7985932025015074
 30
0.0
 11
6634.6867143833978844
 21
182.3015324296493134
 31
0.0
  0
ARC
  5
2F549
  8
0
 10
6635.4448540085950299
 20
182.6815278857243072
 30
0.0
 40
0.5244488398229671
 50
180.3199794891505121
 51
195.5516485971180032
  0
ARC
  5
2F54A
  8
0
 10
6635.4497160555711162
 20
182.6828809717792126
 30
0.0
 40
0.5294956549223119
 50
195.5516485971180032
 51
215.2982369108140972
  0
ARC
  5
2F54B
  8
0
 10
6635.4622015644517887
 20
182.6917206280400876
 30
0.0
 40
0.5447936108272385
 50
215.2982369108140972
 51
234.7830116496095911
  0
ARC
  5
2F54C
  8
0
 10
6635.4689865575801377
 20
182.701332916935911
 30
0.0
 40
0.5565593334808688
 50
234.7830116496095911
 51
253.4271830229623959
  0
ARC
  5
2F54D
  8
0
 10
6635.4867705479236974
 20
182.8135342546368918
 30
0.0
 40
0.6693393627848732
 50
254.7077353590773896
 51
268.7002894895094869
  0
ARC
  5
2F54E
  8
0
 10
6635.484822475053079
 20
181.9866073622274882
 30
0.0
 40
0.8579943613189657
 50
158.4663287782360044
 51
173.8442659215187973
  0
ARC
  5
2F54F
  8
0
 10
6635.4198033358597968
 20
181.9966055273046948
 30
0.0
 40
0.7922835606879821
 50
174.058935357872798
 51
187.8582777520348941
  0
ARC
  5
2F550
  8
0
 10
6635.4520683679138529
 20
182.0010587254103029
 30
0.0
 40
0.8248544566960021
 50
187.8582777520348941
 51
205.6420750362219962
  0
ARC
  5
2F551
  8
0
 10
6635.412779886248245
 20
181.9821993521071875
 30
0.0
 40
0.7812739478311399
 50
205.6420750362219962
 51
223.5638962979693929
  0
ARC
  5
2F552
  8
0
 10
6635.489222779834563
 20
182.0549031401417892
 30
0.0
 40
0.8867697144493604
 50
223.5638962979693929
 51
243.9251509133343063
  0
ARC
  5
2F553
  8
0
 10
6635.470419311893238
 20
182.0164778018202014
 30
0.0
 40
0.8439903148306871
 50
243.9251509133343063
 51
258.0046845617404756
  0
ARC
  5
2F554
  8
0
 10
6635.4782453305797389
 20
182.1023487360806996
 30
0.0
 40
0.9296685821282865
 50
258.6328068939533864
 51
269.5897278969961235
  0
LINE
  5
2F555
  8
0
 10
6636.0227634598231816
 20
182.7985932025015074
 30
0.0
 11
6636.2564624236492818
 21
182.3015324296493134
 31
0.0
  0
ARC
  5
2F556
  8
0
 10
6635.4983227984521363
 20
182.6815278857243072
 30
0.0
 40
0.5244488398229671
 50
344.4483514028818831
 51
359.6800205108493742
  0
ARC
  5
2F557
  8
0
 10
6635.4934607514760501
 20
182.6828809717792126
 30
0.0
 40
0.5294956549223119
 50
324.7017630891858744
 51
344.4483514028818831
  0
ARC
  5
2F558
  8
0
 10
6635.4809752425953775
 20
182.6917206280400876
 30
0.0
 40
0.5447936108272385
 50
305.2169883503902952
 51
324.7017630891858744
  0
ARC
  5
2F559
  8
0
 10
6635.4741902494670285
 20
182.701332916935911
 30
0.0
 40
0.5565593334808688
 50
286.5728169770375757
 51
305.2169883503902952
  0
ARC
  5
2F55A
  8
0
 10
6635.4564062591225593
 20
182.8135342546368918
 30
0.0
 40
0.6693393627848732
 50
271.2997105104903994
 51
285.2922646409226104
  0
ARC
  5
2F55B
  8
0
 10
6635.4583543319940873
 20
181.9866073622274882
 30
0.0
 40
0.8579943613189657
 50
6.1557340784812098
 51
21.5336712217639494
  0
ARC
  5
2F55C
  8
0
 10
6635.5233734711873694
 20
181.9966055273046948
 30
0.0
 40
0.7922835606879821
 50
352.1417222479651059
 51
5.9410646421271736
  0
ARC
  5
2F55D
  8
0
 10
6635.4911084391333134
 20
182.0010587254103029
 30
0.0
 40
0.8248544566960021
 50
334.3579249637779185
 51
352.1417222479651059
  0
ARC
  5
2F55E
  8
0
 10
6635.5303969207989212
 20
181.9821993521071875
 30
0.0
 40
0.7812739478311399
 50
316.4361037020306071
 51
334.3579249637779185
  0
ARC
  5
2F55F
  8
0
 10
6635.4539540272116938
 20
182.0549031401417892
 30
0.0
 40
0.8867697144493604
 50
296.0748490866657221
 51
316.4361037020306071
  0
ARC
  5
2F560
  8
0
 10
6635.4727574951539282
 20
182.0164778018202014
 30
0.0
 40
0.8439903148306871
 50
281.9953154382595244
 51
296.0748490866657221
  0
ARC
  5
2F561
  8
0
 10
6635.4649314764674273
 20
182.1023487360806996
 30
0.0
 40
0.9296685821282865
 50
270.4102721030038765
 51
281.3671931060464999
  0
LINE
  5
2F562
  8
0
 10
6635.8102987000656867
 20
191.1583763141740064
 30
0.0
 11
6637.8019821042744297
 21
191.1583763141740064
 31
0.0
  0
LINE
  5
2F563
  8
0
 10
6637.9322183247741123
 20
191.1583763141740064
 30
0.0
 11
6638.8770702932733911
 21
191.1583763141740064
 31
0.0
  0
LINE
  5
2F564
  8
0
 10
6636.0227634598231816
 20
189.5046477714469972
 30
0.0
 11
6637.8019821042744297
 21
189.5046477714469972
 31
0.0
  0
LINE
  5
2F565
  8
0
 10
6637.9322183247741123
 20
189.5046477714469972
 30
0.0
 11
6638.8770702932733911
 21
189.5046477714469972
 31
0.0
  0
ARC
  5
2F566
  8
0
 10
6635.8102987000656867
 20
191.2763763141722961
 30
0.0
 40
0.118
 50
250.2802922925316977
 51
270.0000000000521254
  0
ARC
  5
2F567
  8
0
 10
6637.8019821042744297
 20
189.5246477714468938
 30
0.0
 40
0.02
 50
269.9999999999478746
 51
0.0000000000618809
  0
ARC
  5
2F568
  8
0
 10
6637.8019821042744297
 20
191.1383763141739962
 30
0.0
 40
0.02
 50
359.9999999999593001
 51
90.0
  0
LINE
  5
2F569
  8
0
 10
6637.8337931279738768
 20
191.1306320233470046
 30
0.0
 11
6637.845604151572843
 21
191.1306320233470046
 31
0.0
  0
LINE
  5
2F56A
  8
0
 10
6637.8219821042739568
 20
191.1030729682470053
 30
0.0
 11
6637.8337931279738768
 21
191.1030729682470053
 31
0.0
  0
LINE
  5
2F56B
  8
0
 10
6637.8337931279738768
 20
189.5322068265469966
 30
0.0
 11
6637.845604151572843
 21
189.5322068265469966
 31
0.0
  0
LINE
  5
2F56C
  8
0
 10
6637.8219821042739568
 20
189.5597658816469959
 30
0.0
 11
6637.8337931279738768
 21
189.5597658816469959
 31
0.0
  0
LINE
  5
2F56D
  8
0
 10
6637.845604151572843
 20
189.5322068265469966
 30
0.0
 11
6637.9322183247741123
 21
189.5939576370469979
 31
0.0
  0
LINE
  5
2F56E
  8
0
 10
6637.845604151572843
 20
191.1306320233470046
 30
0.0
 11
6637.9322183247741123
 21
191.0688812128468896
 31
0.0
  0
ARC
  5
2F56F
  8
0
 10
6638.8770702932733911
 20
191.1189763141740059
 30
0.0
 40
0.0394
 50
359.9999999999789111
 51
90.0
  0
ARC
  5
2F570
  8
0
 10
6638.8770702932733911
 20
189.5440477714469978
 30
0.0
 40
0.0394
 50
270.0
 51
0.0000000000097707
  0
LINE
  5
2F571
  8
0
 10
6638.3259490334739894
 20
190.508584779247002
 30
0.0
 11
6638.8770702932733911
 21
190.508584779247002
 31
0.0
  0
LINE
  5
2F572
  8
0
 10
6638.2865490334734204
 20
190.4691847792470014
 30
0.0
 11
6638.2865490334734204
 21
190.1936540706469998
 31
0.0
  0
LINE
  5
2F573
  8
0
 10
6638.3259490334739894
 20
190.1542540706469993
 30
0.0
 11
6638.8770702932733911
 21
190.1542540706469993
 31
0.0
  0
ARC
  5
2F574
  8
0
 10
6638.3259490334739894
 20
190.4691847792470014
 30
0.0
 40
0.0394
 50
90.0
 51
180.0000000000098055
  0
ARC
  5
2F575
  8
0
 10
6638.3259490334739894
 20
190.1936540706469998
 30
0.0
 40
0.0394
 50
180.0
 51
270.0
  0
ARC
  5
2F576
  8
0
 10
6638.8770702932733911
 20
190.1936540706469998
 30
0.0
 40
0.0394
 50
270.0
 51
0.0
  0
ARC
  5
2F577
  8
0
 10
6638.8770702932733911
 20
190.4691847792470014
 30
0.0
 40
0.0394
 50
0.0
 51
90.0
  0
ENDSEC
  0
EOF
